  0
SECTION
  2
HEADER
  9
$ACADVER
  1
AC1021
  9
$ACADMAINTVER
 70
    50
  9
$DWGCODEPAGE
  3
ANSI_1252
  9
$LASTSAVEDBY
  1
ibasyouni
  9
$CUSTOMPROPERTYTAG
  1
AmdtFileType
  9
$CUSTOMPROPERTY
  1
84
  9
$INSBASE
 10
0.0
 20
0.0
 30
0.0
  9
$EXTMIN
 10
-2.069895619331873
 20
131.3415539350146
 30
-0.0000000000043353
  9
$EXTMAX
 10
560.4299730710497
 20
406.240082783904
 30
0.0000000000135751
  9
$LIMMIN
 10
0.0
 20
0.0
  9
$LIMMAX
 10
625.0
 20
450.0
  9
$ORTHOMODE
 70
     1
  9
$REGENMODE
 70
     1
  9
$FILLMODE
 70
     1
  9
$QTEXTMODE
 70
     0
  9
$MIRRTEXT
 70
     1
  9
$LTSCALE
 40
1.0
  9
$ATTMODE
 70
     1
  9
$TEXTSIZE
 40
2.5
  9
$TRACEWID
 40
1.0
  9
$TEXTSTYLE
  7
STANDARD
  9
$CLAYER
  8
0
  9
$CELTYPE
  6
BYLAYER
  9
$CECOLOR
 62
   256
  9
$CELTSCALE
 40
10.0
  9
$DISPSILH
 70
     0
  9
$DIMSCALE
 40
1.0
  9
$DIMASZ
 40
3.5
  9
$DIMEXO
 40
0.0
  9
$DIMDLI
 40
7.0
  9
$DIMRND
 40
0.0
  9
$DIMDLE
 40
0.0
  9
$DIMEXE
 40
1.25
  9
$DIMTP
 40
0.0
  9
$DIMTM
 40
0.0
  9
$DIMTXT
 40
3.5
  9
$DIMCEN
 40
0.0
  9
$DIMTSZ
 40
0.0
  9
$DIMTOL
 70
     0
  9
$DIMLIM
 70
     0
  9
$DIMTIH
 70
     0
  9
$DIMTOH
 70
     0
  9
$DIMSE1
 70
     0
  9
$DIMSE2
 70
     0
  9
$DIMTAD
 70
     1
  9
$DIMZIN
 70
     8
  9
$DIMBLK
  1

  9
$DIMASO
 70
     1
  9
$DIMSHO
 70
     1
  9
$DIMPOST
  1

  9
$DIMAPOST
  1

  9
$DIMALT
 70
     0
  9
$DIMALTD
 70
     2
  9
$DIMALTF
 40
0.0394
  9
$DIMLFAC
 40
0.5
  9
$DIMTOFL
 70
     1
  9
$DIMTVP
 40
1.0
  9
$DIMTIX
 70
     0
  9
$DIMSOXD
 70
     0
  9
$DIMSAH
 70
     0
  9
$DIMBLK1
  1

  9
$DIMBLK2
  1

  9
$DIMSTYLE
  2
ISO-25
  9
$DIMCLRD
 70
   256
  9
$DIMCLRE
 70
   256
  9
$DIMCLRT
 70
   256
  9
$DIMTFAC
 40
1.0
  9
$DIMGAP
 40
1.5
  9
$DIMJUST
 70
     0
  9
$DIMSD1
 70
     0
  9
$DIMSD2
 70
     0
  9
$DIMTOLJ
 70
     1
  9
$DIMTZIN
 70
     8
  9
$DIMALTZ
 70
     0
  9
$DIMALTTZ
 70
     0
  9
$DIMUPT
 70
     1
  9
$DIMDEC
 70
     4
  9
$DIMTDEC
 70
     4
  9
$DIMALTU
 70
     2
  9
$DIMALTTD
 70
     2
  9
$DIMTXSTY
  7
STANDARD
  9
$DIMAUNIT
 70
     0
  9
$DIMADEC
 70
     0
  9
$DIMALTRND
 40
0.0
  9
$DIMAZIN
 70
     0
  9
$DIMDSEP
 70
    46
  9
$DIMATFIT
 70
     3
  9
$DIMFRAC
 70
     0
  9
$DIMLDRBLK
  1

  9
$DIMLUNIT
 70
     2
  9
$DIMLWD
 70
    -2
  9
$DIMLWE
 70
    -2
  9
$DIMTMOVE
 70
     0
  9
$DIMFXL
 40
1.0
  9
$DIMFXLON
 70
     0
  9
$DIMJOGANG
 40
0.7853981633974483
  9
$DIMTFILL
 70
     0
  9
$DIMTFILLCLR
 70
     0
  9
$DIMARCSYM
 70
     0
  9
$DIMLTYPE
  6

  9
$DIMLTEX1
  6

  9
$DIMLTEX2
  6

  9
$LUNITS
 70
     2
  9
$LUPREC
 70
     4
  9
$SKETCHINC
 40
1.0
  9
$FILLETRAD
 40
0.0
  9
$AUNITS
 70
     0
  9
$AUPREC
 70
     0
  9
$MENU
  1
.
  9
$ELEVATION
 40
0.0
  9
$PELEVATION
 40
0.0
  9
$THICKNESS
 40
0.0
  9
$LIMCHECK
 70
     0
  9
$CHAMFERA
 40
10.0
  9
$CHAMFERB
 40
10.0
  9
$CHAMFERC
 40
0.0
  9
$CHAMFERD
 40
0.0
  9
$SKPOLY
 70
     0
  9
$TDCREATE
 40
2450382.432057130
  9
$TDUCREATE
 40
2450382.348723796
  9
$TDUPDATE
 40
2456514.540249074
  9
$TDUUPDATE
 40
2456514.456915741
  9
$TDINDWG
 40
0.8632527894
  9
$TDUSRTIMER
 40
0.8632527894
  9
$USRTIMER
 70
     1
  9
$ANGBASE
 50
0.0
  9
$ANGDIR
 70
     0
  9
$PDMODE
 70
     0
  9
$PDSIZE
 40
0.0
  9
$PLINEWID
 40
0.0
  9
$SPLFRAME
 70
     0
  9
$SPLINETYPE
 70
     6
  9
$SPLINESEGS
 70
     8
  9
$HANDSEED
  5
2062
  9
$SURFTAB1
 70
     6
  9
$SURFTAB2
 70
     6
  9
$SURFTYPE
 70
     6
  9
$SURFU
 70
     6
  9
$SURFV
 70
     6
  9
$UCSBASE
  2

  9
$UCSNAME
  2

  9
$UCSORG
 10
0.0
 20
0.0
 30
0.0
  9
$UCSXDIR
 10
1.0
 20
0.0
 30
0.0
  9
$UCSYDIR
 10
0.0
 20
1.0
 30
0.0
  9
$UCSORTHOREF
  2

  9
$UCSORTHOVIEW
 70
     0
  9
$UCSORGTOP
 10
0.0
 20
0.0
 30
0.0
  9
$UCSORGBOTTOM
 10
0.0
 20
0.0
 30
0.0
  9
$UCSORGLEFT
 10
0.0
 20
0.0
 30
0.0
  9
$UCSORGRIGHT
 10
0.0
 20
0.0
 30
0.0
  9
$UCSORGFRONT
 10
0.0
 20
0.0
 30
0.0
  9
$UCSORGBACK
 10
0.0
 20
0.0
 30
0.0
  9
$PUCSBASE
  2

  9
$PUCSNAME
  2

  9
$PUCSORG
 10
0.0
 20
0.0
 30
0.0
  9
$PUCSXDIR
 10
1.0
 20
0.0
 30
0.0
  9
$PUCSYDIR
 10
0.0
 20
1.0
 30
0.0
  9
$PUCSORTHOREF
  2

  9
$PUCSORTHOVIEW
 70
     0
  9
$PUCSORGTOP
 10
0.0
 20
0.0
 30
0.0
  9
$PUCSORGBOTTOM
 10
0.0
 20
0.0
 30
0.0
  9
$PUCSORGLEFT
 10
0.0
 20
0.0
 30
0.0
  9
$PUCSORGRIGHT
 10
0.0
 20
0.0
 30
0.0
  9
$PUCSORGFRONT
 10
0.0
 20
0.0
 30
0.0
  9
$PUCSORGBACK
 10
0.0
 20
0.0
 30
0.0
  9
$USERI1
 70
     0
  9
$USERI2
 70
     0
  9
$USERI3
 70
     0
  9
$USERI4
 70
     0
  9
$USERI5
 70
     0
  9
$USERR1
 40
0.0
  9
$USERR2
 40
0.0
  9
$USERR3
 40
0.0
  9
$USERR4
 40
0.0
  9
$USERR5
 40
0.0
  9
$WORLDVIEW
 70
     1
  9
$SHADEDGE
 70
     3
  9
$SHADEDIF
 70
    70
  9
$TILEMODE
 70
     1
  9
$MAXACTVP
 70
    16
  9
$PINSBASE
 10
0.0
 20
0.0
 30
0.0
  9
$PLIMCHECK
 70
     0
  9
$PEXTMIN
 10
1.000000000000000E+20
 20
1.000000000000000E+20
 30
1.000000000000000E+20
  9
$PEXTMAX
 10
-1.000000000000000E+20
 20
-1.000000000000000E+20
 30
-1.000000000000000E+20
  9
$PLIMMIN
 10
0.0
 20
0.0
  9
$PLIMMAX
 10
420.0
 20
297.0
  9
$UNITMODE
 70
     0
  9
$VISRETAIN
 70
     0
  9
$PLINEGEN
 70
     0
  9
$PSLTSCALE
 70
     0
  9
$TREEDEPTH
 70
  3020
  9
$CMLSTYLE
  2
STANDARD
  9
$CMLJUST
 70
     0
  9
$CMLSCALE
 40
1.0
  9
$PROXYGRAPHICS
 70
     1
  9
$MEASUREMENT
 70
     0
  9
$CELWEIGHT
370
    -1
  9
$ENDCAPS
280
     0
  9
$JOINSTYLE
280
     0
  9
$LWDISPLAY
290
     0
  9
$INSUNITS
 70
     0
  9
$HYPERLINKBASE
  1

  9
$STYLESHEET
  1
Zeich.ctb
  9
$XEDIT
290
     1
  9
$CEPSNTYPE
380
     0
  9
$PSTYLEMODE
290
     1
  9
$FINGERPRINTGUID
  2
{B3482377-27F0-11D5-8922-0010B575C243}
  9
$VERSIONGUID
  2
{38B454DD-A506-4A63-8154-B8DB7EF559D9}
  9
$EXTNAMES
290
     1
  9
$PSVPSCALE
 40
0.0
  9
$OLESTARTUP
290
     0
  9
$SORTENTS
280
    96
  9
$INDEXCTL
280
     0
  9
$HIDETEXT
280
     0
  9
$XCLIPFRAME
290
     0
  9
$HALOGAP
280
     0
  9
$OBSCOLOR
 70
   257
  9
$OBSLTYPE
280
     0
  9
$INTERSECTIONDISPLAY
280
     0
  9
$INTERSECTIONCOLOR
 70
   257
  9
$DIMASSOC
280
     1
  9
$PROJECTNAME
  1

  9
$CAMERADISPLAY
290
     0
  9
$LENSLENGTH
 40
50.0
  9
$CAMERAHEIGHT
 40
0.0
  9
$STEPSPERSEC
 40
2.0
  9
$STEPSIZE
 40
6.0
  9
$3DDWFPREC
 40
2.0
  9
$PSOLWIDTH
 40
0.25
  9
$PSOLHEIGHT
 40
4.0
  9
$LOFTANG1
 40
1.570796326794896
  9
$LOFTANG2
 40
1.570796326794896
  9
$LOFTMAG1
 40
0.0
  9
$LOFTMAG2
 40
0.0
  9
$LOFTPARAM
 70
     7
  9
$LOFTNORMALS
280
     1
  9
$LATITUDE
 40
37.795
  9
$LONGITUDE
 40
-122.394
  9
$NORTHDIRECTION
 40
0.0
  9
$TIMEZONE
 70
 -8000
  9
$LIGHTGLYPHDISPLAY
280
     1
  9
$TILEMODELIGHTSYNCH
280
     1
  9
$CMATERIAL
347
19F1
  9
$SOLIDHIST
280
     1
  9
$SHOWHIST
280
     1
  9
$DWFFRAME
280
     2
  9
$DGNFRAME
280
     0
  9
$REALWORLDSCALE
290
     1
  9
$INTERFERECOLOR
 62
     1
  9
$INTERFEREOBJVS
345
19FE
  9
$INTERFEREVPVS
346
1FED
  9
$CSHADOW
280
     0
  9
$SHADOWPLANELOCATION
 40
0.0
  0
ENDSEC
  0
SECTION
  2
CLASSES
  0
CLASS
  1
ACMESTATEMGR
  2
AcMeStateMgr
  3
AcMeServices
 90
     1024
 91
        1
280
     0
281
     0
  0
CLASS
  1
ACMESCOPE
  2
AcMeScope
  3
AcMeServices
 90
     1024
 91
        1
280
     0
281
     0
  0
CLASS
  1
ACMECOMMANDHISTORY
  2
AcMeCommandHistory
  3
AcMeServices
 90
     1024
 91
        1
280
     0
281
     0
  0
CLASS
  1
ACRFINSADJUSTERMGR
  2
AcRfInsAdjusterMgr
  3
AcMeServices
 90
     1024
 91
        1
280
     0
281
     0
  0
CLASS
  1
ACMEDRAWINGMAN
  2
AcMeDrawingMan
  3
AcMeServices
 90
     1024
 91
        2
280
     0
281
     0
  0
CLASS
  1
AMATTR
  2
AcMeAttribute
  3
AcMeServices
 90
     1024
 91
        0
280
     0
281
     0
  0
CLASS
  1
ACMEBOMCOLUMN
  2
AcMeBOMColumn
  3
AcMeServices
 90
     1024
 91
        0
280
     0
281
     0
  0
CLASS
  1
ACMEBOMCONF
  2
AcMeBOMConf
  3
AcMeServices
 90
     1024
 91
        0
280
     0
281
     0
  0
CLASS
  1
ACMEBOMTABLE
  2
AcMeBOMTable
  3
AcMeServices
 90
     1024
 91
        0
280
     0
281
     0
  0
CLASS
  1
ACMEBOMENTRY
  2
AcMeBOMEntry
  3
AcMeServices
 90
     1024
 91
        0
280
     0
281
     0
  0
CLASS
  1
ACMEVIEW
  2
AcMeView
  3
AcMeServices
 90
     1024
 91
        0
280
     0
281
     0
  0
CLASS
  1
DICTIONARYVAR
  2
AcDbDictionaryVar
  3
ObjectDBX Classes
 90
        0
 91
       12
280
     0
281
     0
  0
CLASS
  1
LAYER_INDEX
  2
AcDbLayerIndex
  3
ObjectDBX Classes
 90
        0
 91
        0
280
     0
281
     0
  0
CLASS
  1
IDBUFFER
  2
AcDbIdBuffer
  3
ObjectDBX Classes
 90
        0
 91
        0
280
     0
281
     0
  0
CLASS
  1
ACDBDICTIONARYWDFLT
  2
AcDbDictionaryWithDefault
  3
ObjectDBX Classes
 90
        0
 91
        1
280
     0
281
     0
  0
CLASS
  1
ACDBPLACEHOLDER
  2
AcDbPlaceHolder
  3
ObjectDBX Classes
 90
        0
 91
        1
280
     0
281
     0
  0
CLASS
  1
LAYOUT
  2
AcDbLayout
  3
ObjectDBX Classes
 90
        0
 91
        2
280
     0
281
     0
  0
CLASS
  1
ACME_DOCUMENT
  2
AcMeDbDoc
  3
AcMeServices
 90
     1024
 91
        2
280
     0
281
     0
  0
CLASS
  1
AMGSETTINGSOBJ
  2
AmgSettingsObj
  3
"AcadM|Product Description: AutoCAD Mechanical|Company: Autodesk, Inc."
 90
     1024
 91
        4
280
     0
281
     0
  0
CLASS
  1
ACIMSYSVARMAN
  2
AcImSysVarManager
  3
AcMeServices
 90
     1024
 91
        5
280
     0
281
     0
  0
CLASS
  1
ACIMREALSYSVAR
  2
AcImRealSysVar
  3
AcMeServices
 90
     1024
 91
        3
280
     0
281
     0
  0
CLASS
  1
ACIMINTSYSVAR
  2
AcImIntSysVar
  3
AcMeServices
 90
     1024
 91
       27
280
     0
281
     0
  0
CLASS
  1
ACDBENTITYCACHE
  2
AcMeEntityCache
  3
AcMeServices
 90
     1024
 91
        1
280
     0
281
     0
  0
CLASS
  1
GSMANAGER
  2
AcMeGSManager
  3
AcMeServices
 90
     1024
 91
        0
280
     0
281
     0
  0
CLASS
  1
AMDTINTERNALREACTOR
  2
AmdtInternalReactor
  3
AcMeServices
 90
     1024
 91
        1
280
     0
281
     0
  0
CLASS
  1
ACME_DATABASE
  2
AcMeDbDatabase
  3
AcMeServices
 90
     1024
 91
        1
280
     0
281
     0
  0
CLASS
  1
ACMDATADICTIONARY
  2
AcmDataDictionary
  3
"AcmSymBB|Product Description: AutoCAD Mechanical|Company: Autodesk, Inc."
 90
     1024
 91
        1
280
     0
281
     0
  0
CLASS
  1
ACMDATAENTRYBLOCK
  2
AcmDataEntryBlock
  3
AcmSymBB|Product Description: AutoCAD Mechanical|Company: Autodesk, Inc.
 90
     1024
 91
        2
280
     0
281
     0
  0
CLASS
  1
AMGOBJPROPCFG
  2
AmgObjPropCfg
  3
"AmgLay|Product Description: AutoCAD Mechanical|Company: Autodesk, Inc."
 90
     1024
 91
        1
280
     0
281
     0
  0
CLASS
  1
ACAMGFILTERDAT
  2
AcAmgFilterDat
  3
"AcadM|Product Description: AutoCAD Mechanical|Company: Autodesk, Inc."
 90
     1024
 91
        5
280
     0
281
     0
  0
CLASS
  1
ACGREFMASTER
  2
AcGrefMaster
  3
AcAttribServices
 90
     1024
 91
        1
280
     0
281
     0
  0
CLASS
  1
AM_DRAWING_MGR
  2
AcDmDwgMgr
  3
AcMechDwgViewMgmt
 90
     1024
 91
        1
280
     0
281
     0
  0
CLASS
  1
AM_DWG_DOCUMENT
  2
AcDmDwgDocument
  3
AcMechDwgViewMgmt
 90
     1024
 91
        1
280
     0
281
     0
  0
CLASS
  1
AM_DWG_SHEET
  2
AcDmSheet
  3
AcMechDwgViewMgmt
 90
     1024
 91
        1
280
     0
281
     0
  0
CLASS
  1
AM_VIEWDIMPARMAP
  2
AcDmViewDimParMap
  3
AcMechDwgViewMgmt
 90
     1024
 91
        1
280
     0
281
     0
  0
CLASS
  1
AM_DWGMGR_NAME
  2
AcDmDwgMgrName
  3
AcMechDwgViewMgmt
 90
     1024
 91
        1
280
     0
281
     0
  0
CLASS
  1
ACGREFACADMASTER
  2
AcGrefacadMaster
  3
AcGrefServices
 90
     1024
 91
        1
280
     0
281
     0
  0
CLASS
  1
AMDTMENUSTATEMGR
  2
AmdtMenuStateMgr
  3
McadcomServices
 90
     1024
 91
        1
280
     0
281
     0
  0
CLASS
  1
AMDTMCOMMENUSTATE
  2
AmdtMcomMenuState
  3
McadcomServices
 90
     1024
 91
        1
280
     0
281
     0
  0
CLASS
  1
AMIMASTER
  2
AmiMaster
  3
AmiServices
 90
     1024
 91
        1
280
     0
281
     0
  0
CLASS
  1
MAPIAMMOUDLE
  2
MApiAmModule
  3
MApiAmServices
 90
     1024
 91
        1
280
     0
281
     0
  0
CLASS
  1
AMDTADMENUSTATE
  2
AmdtAdMenuState
  3
DesignerServices
 90
     1024
 91
        0
280
     0
281
     0
  0
CLASS
  1
ADAPPL
  2
AcAdAppl
  3
DesignerAssemblies
 90
     1024
 91
        2
280
     0
281
     0
  0
CLASS
  1
DEPMGR
  2
AcAdDepMgr
  3
DesignerAssemblies
 90
     1024
 91
        2
280
     0
281
     0
  0
CLASS
  1
PARAMMGR
  2
AcAdParamMgr
  3
DesignerAssemblies
 90
     1024
 91
        2
280
     0
281
     0
  0
CLASS
  1
PARAMSCOPE
  2
AcAdParamScope
  3
DesignerAssemblies
 90
     1024
 91
        2
280
     0
281
     0
  0
CLASS
  1
NAMEDAPPL
  2
AcAdNamedAppl
  3
DesignerAssemblies
 90
     1024
 91
        2
280
     0
281
     0
  0
CLASS
  1
AMDTDMMENUSTATE
  2
AmdtDmMenuState
  3
AcMechDwgViewMgmt
 90
     1024
 91
        0
280
     0
281
     0
  0
CLASS
  1
AMDTAMMENUSTATE
  2
AmdtAmMenuState
  3
DesignerAssemblies
 90
     1024
 91
        1
280
     0
281
     0
  0
CLASS
  1
ACIMSTRSYSVAR
  2
AcImStrSysVar
  3
AcMeServices
 90
     1024
 91
        5
280
     0
281
     0
  0
CLASS
  1
ACAMPROJECT
  2
AcAmProject
  3
DesignerAssemblies
 90
     1024
 91
        1
280
     0
281
     0
  0
CLASS
  1
ACAMGRCOMPDEF
  2
AcAmGrCompDef
  3
DesignerAssemblies
 90
     1024
 91
        1
280
     0
281
     0
  0
CLASS
  1
ACCMCONTEXT
  2
AcCmContext
  3
DesignerAssemblies
 90
     1024
 91
        1
280
     0
281
     0
  0
CLASS
  1
ACAMCOMPDEF
  2
AcAmCompDef
  3
DesignerAssemblies
 90
     1024
 91
        1
280
     0
281
     0
  0
CLASS
  1
ACAMCOMPDEFMGR
  2
AcAmCompDefMgr
  3
DesignerAssemblies
 90
     1024
 91
        1
280
     0
281
     0
  0
CLASS
  1
AMCONTEXTMGR
  2
AcAmContextMgr
  3
DesignerAssemblies
 90
     1024
 91
        1
280
     0
281
     0
  0
CLASS
  1
ACAMCONTEXTMODELER
  2
AcAmContextModeler
  3
DesignerAssemblies
 90
     1024
 91
        1
280
     0
281
     0
  0
CLASS
  1
CATALOGSTATE
  2
AcAmCatalogState
  3
DesignerAssemblies
 90
     1024
 91
        1
280
     0
281
     0
  0
CLASS
  1
ACAMGRCOMPDEFSET
  2
AcAmGrCompDefSet
  3
DesignerAssemblies
 90
     1024
 91
        1
280
     0
281
     0
  0
CLASS
  1
AMDTBROWSERDBTAB
  2
AmdtBrowserDbTab
  3
McadcomServices
 90
     1024
 91
        1
280
     0
281
     0
  0
CLASS
  1
CBROWSERAPPOBJECT
  2
CBrowserAppObject
  3
McadcomServices
 90
     1024
 91
        2
280
     0
281
     0
  0
CLASS
  1
DM_PLACEHOLDER
  2
AcDmSelsetPlaceholder
  3
McadcomServices
 90
     1024
 91
        1
280
     0
281
     0
  0
CLASS
  1
ACMSTANDARDANSI
  2
AcmStandardANSI
  3
"Amdt_StdImp|Product Description: AutoCAD Mechanical|Company: Autodesk, Inc."
 90
     1024
 91
        1
280
     0
281
     0
  0
CLASS
  1
ACMSURFSTANDARDANSI
  2
AcmSurfTextStdANSI
  3
"Amdt_StdImp|Product Description: AutoCAD Mechanical|Company: Autodesk, Inc."
 90
     1024
 91
        1
280
     0
281
     0
  0
CLASS
  1
ACMFCFSTANDARDANSI
  2
AcmFCFStdANSI
  3
"Amdt_StdImp|Product Description: AutoCAD Mechanical|Company: Autodesk, Inc."
 90
     1024
 91
        1
280
     0
281
     0
  0
CLASS
  1
ACMWELDSTANDARDANSI
  2
AcmWeldingStdANSI
  3
"Amdt_StdImp|Product Description: AutoCAD Mechanical|Company: Autodesk, Inc."
 90
     1024
 91
        1
280
     0
281
     0
  0
CLASS
  1
ACMIDSTANDARDANSI
  2
AcmIdStdANSI
  3
"Amdt_StdImp|Product Description: AutoCAD Mechanical|Company: Autodesk, Inc."
 90
     1024
 91
        1
280
     0
281
     0
  0
CLASS
  1
ACMDATUMSTANDARDANSI
  2
AcmDatumStdANSI
  3
"Amdt_StdImp|Product Description: AutoCAD Mechanical|Company: Autodesk, Inc."
 90
     1024
 91
        1
280
     0
281
     0
  0
CLASS
  1
ACMBOMSTANDARDANSI
  2
AcmBOMStdANSI
  3
"Amdt_StdImp|Product Description: AutoCAD Mechanical|Company: Autodesk, Inc."
 90
     1024
 91
        1
280
     0
281
     0
  0
CLASS
  1
ACMDETAILSTANDARDANSI
  2
AmdtDetailSymStdANSI
  3
"Amdt_StdImp|Product Description: AutoCAD Mechanical|Company: Autodesk, Inc."
 90
     1024
 91
        1
280
     0
281
     0
  0
CLASS
  1
ACMSECTIONSTANDARDANSI
  2
AmdtSectionSymStdANSI
  3
"Amdt_StdImp|Product Description: AutoCAD Mechanical|Company: Autodesk, Inc."
 90
     1024
 91
        1
280
     0
281
     0
  0
CLASS
  1
ACMCENTERLINESTANDARDANSI
  2
AmdtCenterLineStdANSI
  3
"Amdt_StdImp|Product Description: AutoCAD Mechanical|Company: Autodesk, Inc."
 90
     1024
 91
        1
280
     0
281
     0
  0
CLASS
  1
ACMTHREADLINESTANDARDANSI
  2
AmdtThreadLineStdANSI
  3
"Amdt_StdImp|Product Description: AutoCAD Mechanical|Company: Autodesk, Inc."
 90
     1024
 91
        1
280
     0
281
     0
  0
CLASS
  1
ACMNOTESTANDARDANSI
  2
AmdtNoteStdANSI
  3
"Amdt_StdImp|Product Description: AutoCAD Mechanical|Company: Autodesk, Inc."
 90
     1024
 91
        1
280
     0
281
     0
  0
CLASS
  1
AMDTNOTETEMPLATEDB
  2
AmdtNoteTemplateDB
  3
AcmSymBB|Product Description: AutoCAD Mechanical|Company: Autodesk, Inc.
 90
     1024
 91
        4
280
     0
281
     0
  0
CLASS
  1
ACAMGLAYSTD
  2
AcAmgLayStd
  3
"AmgLay|Product Description: AutoCAD Mechanical|Company: Autodesk, Inc."
 90
     1024
 91
        1
280
     0
281
     0
  0
CLASS
  1
ACAMGDIMSTD
  2
AcAmgDimStd
  3
"AmgDim|Product Description: AutoCAD Mechanical|Company: Autodesk, Inc."
 90
     1024
 91
        1
280
     0
281
     0
  0
CLASS
  1
ACAMGHOLECHARTSTDANSI
  2
AcAmgHoleChartStdANSI
  3
AmgDim|Product Description: AutoCAD Mechanical|Company: Autodesk, Inc.
 90
     1024
 91
        1
280
     0
281
     0
  0
CLASS
  1
ACAMGTITLESTD
  2
AcAmgTitleStd
  3
"AmgTitle|Product Description: AutoCAD Mechanical|Company: Autodesk, Inc."
 90
     1024
 91
        1
280
     0
281
     0
  0
CLASS
  1
TABLESTYLE
  2
AcDbTableStyle
  3
ObjectDBX Classes
 90
     4095
 91
        1
280
     0
281
     0
  0
CLASS
  1
SORTENTSTABLE
  2
AcDbSortentsTable
  3
ObjectDBX Classes
 90
        0
 91
        1
280
     0
281
     0
  0
CLASS
  1
VAACXREFPANELOBJECT
  2
VaAcXREFPanelObject
  3
VAAC_ADDIN
 90
        0
 91
        0
280
     0
281
     0
  0
CLASS
  1
VAACIMAGEINVENTORY
  2
VaAcImageInventory
  3
VAAC_ADDIN
 90
        0
 91
        0
280
     0
281
     0
  0
CLASS
  1
MATERIAL
  2
AcDbMaterial
  3
ObjectDBX Classes
 90
     1153
 91
        3
280
     0
281
     0
  0
CLASS
  1
VISUALSTYLE
  2
AcDbVisualStyle
  3
ObjectDBX Classes
 90
     4095
 91
       26
280
     0
281
     0
  0
CLASS
  1
ACRFATTGENMGR
  2
AcRfAttGeneralMgr
  3
AcAttribServices
 90
     1024
 91
        1
280
     0
281
     0
  0
CLASS
  1
ACRFOBJATTMGR
  2
AcRfObjAttGroupMgr
  3
AcAttribServices
 90
     1024
 91
        1
280
     0
281
     0
  0
CLASS
  1
ACRFMCADAPIATTHOLDER
  2
AcRfMCADAPIAttHolder
  3
AcAttribServices
 90
     1024
 91
        1
280
     0
281
     0
  0
CLASS
  1
AMDTSYSATTR
  2
AmdtSystemAttribute
  3
AcAttribServices
 90
     1024
 91
        1
280
     0
281
     0
  0
CLASS
  1
ACMTAPERSTANDARDANSI
  2
AcmTaperStdANSI
  3
"Amdt_StdImp|Product Description: AutoCAD Mechanical|Company: Autodesk, Inc."
 90
     1024
 91
        1
280
     0
281
     0
  0
CLASS
  1
CAMSSTRUCTBTNSTATE
  2
StructBtnState
  3
DesignerAssemblies
 90
     1024
 91
        1
280
     0
281
     0
  0
CLASS
  1
ACMDIMBREAKPERSREACTOR
  2
AcmDimBreakPersReactor
  3
AmgDim|Product Description: AutoCAD Mechanical|Company: Autodesk, Inc.
 90
     1024
 91
        0
280
     0
281
     0
  0
CLASS
  1
SCALE
  2
AcDbScale
  3
ObjectDBX Classes
 90
     1153
 91
       33
280
     0
281
     0
  0
CLASS
  1
MLEADERSTYLE
  2
AcDbMLeaderStyle
  3
ACDB_MLEADERSTYLE_CLASS
 90
     4095
 91
        1
280
     0
281
     0
  0
CLASS
  1
ACMANOOTATIONVIEWSTANDARDANSI
  2
AmdtAnViewStdANSI
  3
"Amdt_StdImp|Product Description: AutoCAD Mechanical|Company: Autodesk, Inc."
 90
     1024
 91
        1
280
     0
281
     0
  0
CLASS
  1
CELLSTYLEMAP
  2
AcDbCellStyleMap
  3
ObjectDBX Classes
 90
     1152
 91
        2
280
     0
281
     0
  0
CLASS
  1
ACDBSECTIONVIEWSTYLE
  2
AcDbSectionViewStyle
  3
ObjectDBX Classes
 90
     1025
 91
        1
280
     0
281
     0
  0
CLASS
  1
ACDBDETAILVIEWSTYLE
  2
AcDbDetailViewStyle
  3
ObjectDBX Classes
 90
     1025
 91
        1
280
     0
281
     0
  0
CLASS
  1
EXACXREFPANELOBJECT
  2
ExAcXREFPanelObject
  3
EXAC_ESW
 90
     1025
 91
        1
280
     0
281
     0
  0
CLASS
  1
NPOCOLLECTION
  2
AcDbImpNonPersistentObjectsCollection
  3
ObjectDBX Classes
 90
     1153
 91
        1
280
     0
281
     0
  0
ENDSEC
  0
SECTION
  2
TABLES
  0
TABLE
  2
VPORT
  5
12
330
0
100
AcDbSymbolTable
 70
     1
  0
VPORT
  5
19EF
330
12
100
AcDbSymbolTableRecord
100
AcDbViewportTableRecord
  2
*Active
 70
     0
 10
0.0
 20
0.0
 11
1.0
 21
1.0
 12
277.6619515553816
 22
270.3451333688175
 13
0.0
 23
0.0
 14
10.0
 24
10.0
 15
10.0
 25
10.0
 16
0.0
 26
0.0
 36
1.0
 17
0.0
 27
0.0
 37
0.0
 40
247.8972165868697
 41
1.743119266055045
 42
50.0
 43
0.0
 44
0.0
 50
0.0
 51
0.0
 71
     0
 72
   100
 73
     1
 74
     0
 75
     0
 76
     0
 77
     0
 78
     0
281
     0
 65
     1
110
0.0
120
0.0
130
0.0
111
1.0
121
0.0
131
0.0
112
0.0
122
1.0
132
0.0
 79
     0
146
0.0
348
19FA
 60
     2
 61
     5
292
     1
282
     1
141
0.0
142
0.0
 63
   250
421
  3355443
1001
ACAD_NAV_VCDISPLAY
1070
     3
  0
ENDTAB
  0
TABLE
  2
LTYPE
  5
E
330
0
100
AcDbSymbolTable
 70
    10
  0
LTYPE
  5
F
330
E
100
AcDbSymbolTableRecord
100
AcDbLinetypeTableRecord
  2
BYBLOCK
 70
     0
  3

 72
    65
 73
     0
 40
0.0
  0
LTYPE
  5
9
330
E
100
AcDbSymbolTableRecord
100
AcDbLinetypeTableRecord
  2
BYLAYER
 70
     0
  3

 72
    65
 73
     0
 40
0.0
  0
LTYPE
  5
A
330
E
100
AcDbSymbolTableRecord
100
AcDbLinetypeTableRecord
  2
CONTINUOUS
 70
     0
  3
Solid line
 72
    65
 73
     0
 40
0.0
  0
LTYPE
  5
23
330
E
100
AcDbSymbolTableRecord
100
AcDbLinetypeTableRecord
  2
MITTE
 70
     0
  3
____ _ ____ _ ____ _ ____ _ ____ _ ____ _ ____ 
 72
    65
 73
     4
 40
2.0
 49
1.25
 74
     0
 49
-0.25
 74
     0
 49
0.25
 74
     0
 49
-0.25
 74
     0
  0
LTYPE
  5
B7
330
E
100
AcDbSymbolTableRecord
100
AcDbLinetypeTableRecord
  2
Amconstr
 70
     0
  3
_______________________
 72
    65
 73
     2
 40
9999.0
 49
9999.0
 74
     0
 49
0.0
 74
     0
  0
LTYPE
  5
BD
330
E
100
AcDbSymbolTableRecord
100
AcDbLinetypeTableRecord
  2
PHANTOM2
 70
     0
  3
Phantom (.5x) ___ _ _ ___ _ _ ___ _ _ ___ _ _
 72
    65
 73
     6
 40
1.25
 49
0.625
 74
     0
 49
-0.125
 74
     0
 49
0.125
 74
     0
 49
-0.125
 74
     0
 49
0.125
 74
     0
 49
-0.125
 74
     0
  0
LTYPE
  5
BE
330
E
100
AcDbSymbolTableRecord
100
AcDbLinetypeTableRecord
  2
Amzigzag2
 70
     0
  3
/\/-/\/-/\/-/\/-/\/-/\/
 72
    65
 73
     2
 40
0.4401
 49
0.0001
 74
     4
 75
   135
340
BB
 46
0.0016
 50
0.0
 44
0.0
 45
0.0
 49
-0.4400000000000001
 74
     0
  0
LTYPE
  5
13E8
330
E
100
AcDbSymbolTableRecord
100
AcDbLinetypeTableRecord
  2
HIDDEN
 70
     0
  3
Verdeckt
 72
    65
 73
     2
 40
0.375
 49
0.25
 74
     0
 49
-0.125
 74
     0
  0
LTYPE
  5
13E9
330
E
100
AcDbSymbolTableRecord
100
AcDbLinetypeTableRecord
  2
CENTER
 70
     0
  3
Mitte ____ _ ____ _ ____ _ ____ _ ____ _ ____
 72
    65
 73
     4
 40
2.0
 49
1.25
 74
     0
 49
-0.25
 74
     0
 49
0.25
 74
     0
 49
-0.25
 74
     0
  0
LTYPE
  5
143A
330
E
100
AcDbSymbolTableRecord
100
AcDbLinetypeTableRecord
  2
ACANSTGB
 70
     0
  3
__ . . __ . .
 72
    65
 73
     6
 40
0.35433070866
 49
0.15748031496
 74
     0
 49
-0.03937007874
 74
     0
 49
0.03937007874
 74
     0
 49
-0.03937007874
 74
     0
 49
0.03937007874
 74
     0
 49
-0.03937007874
 74
     0
  0
LTYPE
  5
143B
330
E
100
AcDbSymbolTableRecord
100
AcDbLinetypeTableRecord
  2
ACANSTGL
 70
     0
  3
_ _ _ _ _
 72
    65
 73
     2
 40
0.11811023622
 49
0.07874015748
 74
     0
 49
-0.03937007874
 74
     0
  0
ENDTAB
  0
TABLE
  2
LAYER
  5
B
330
0
100
AcDbSymbolTable
 70
     5
  0
LAYER
  5
8
102
{ACAD_XDICTIONARY
360
1EA0
102
}
330
B
100
AcDbSymbolTableRecord
100
AcDbLayerTableRecord
  2
0
 70
     0
 62
     7
  6
CONTINUOUS
370
    -3
390
98
347
19F3
  0
LAYER
  5
27
102
{ACAD_XDICTIONARY
360
1EA2
102
}
330
B
100
AcDbSymbolTableRecord
100
AcDbLayerTableRecord
  2
TEXT
 70
     0
 62
     2
  6
CONTINUOUS
370
    -3
390
98
347
19F3
  0
LAYER
  5
22
102
{ACAD_XDICTIONARY
360
1EA4
102
}
330
B
100
AcDbSymbolTableRecord
100
AcDbLayerTableRecord
  2
MITTE
 70
     0
 62
     4
  6
MITTE
370
    -3
390
98
347
19F3
  0
LAYER
  5
20
102
{ACAD_XDICTIONARY
360
1EA8
102
}
330
B
100
AcDbSymbolTableRecord
100
AcDbLayerTableRecord
  2
LINIE
 70
     0
 62
     4
  6
CONTINUOUS
370
    -3
390
98
347
19F3
  0
LAYER
  5
D1D
330
B
100
AcDbSymbolTableRecord
100
AcDbLayerTableRecord
  2
Defpoints
 70
     0
 62
     7
  6
CONTINUOUS
290
     0
370
    -3
390
98
347
19F3
  0
ENDTAB
  0
TABLE
  2
STYLE
  5
C
330
0
100
AcDbSymbolTable
 70
     6
  0
STYLE
  5
D
330
C
100
AcDbSymbolTableRecord
100
AcDbTextStyleTableRecord
  2
STANDARD
 70
     0
 40
0.0
 41
1.0
 50
0.0
 71
     0
 42
2.5
  3
romans.shx
  4

  0
STYLE
  5
BB
330
C
100
AcDbSymbolTableRecord
100
AcDbTextStyleTableRecord
  2

 70
     1
 40
0.0
 41
1.0
 50
0.0
 71
     0
 42
2.5
  3
ltypeshp.shx
  4

  0
STYLE
  5
D1E
330
C
100
AcDbSymbolTableRecord
100
AcDbTextStyleTableRecord
  2
Stil1
 70
     0
 40
0.0
 41
1.0
 50
0.0
 71
     0
 42
2.5
  3
ariblk.TTF
  4

1001
ACAD
1000
Arial Black
1071
       34
  0
STYLE
  5
142D
330
C
100
AcDbSymbolTableRecord
100
AcDbTextStyleTableRecord
  2
ACANSTS
 70
     0
 40
1.0
 41
1.0
 50
0.0
 71
     0
 42
2.5
  3
romans.shx
  4

  0
STYLE
  5
1439
330
C
100
AcDbSymbolTableRecord
100
AcDbTextStyleTableRecord
  2
ACANSGDT
 70
     0
 40
0.0
 41
1.0
 50
0.0
 71
     0
 42
2.5
  3
amgdtans.shx
  4

  0
ENDTAB
  0
TABLE
  2
VIEW
  5
10
330
0
100
AcDbSymbolTable
 70
     0
  0
ENDTAB
  0
TABLE
  2
UCS
  5
11
330
0
100
AcDbSymbolTable
 70
     0
  0
ENDTAB
  0
TABLE
  2
APPID
  5
14
330
0
100
AcDbSymbolTable
 70
    13
  0
APPID
  5
15
330
14
100
AcDbSymbolTableRecord
100
AcDbRegAppTableRecord
  2
ACAD
 70
     0
  0
APPID
  5
60
330
14
100
AcDbSymbolTableRecord
100
AcDbRegAppTableRecord
  2
MCAD_NO_VIS
 70
     0
  0
APPID
  5
A5
330
14
100
AcDbSymbolTableRecord
100
AcDbRegAppTableRecord
  2
ACAD_TEMP_GRAPHIC
 70
     0
  0
APPID
  5
13FE
330
14
100
AcDbSymbolTableRecord
100
AcDbRegAppTableRecord
  2
AD_DRAW
 70
     0
  0
APPID
  5
1401
330
14
100
AcDbSymbolTableRecord
100
AcDbRegAppTableRecord
  2
ACATTRIBSERVICES
 70
     0
  0
APPID
  5
141F
330
14
100
AcDbSymbolTableRecord
100
AcDbRegAppTableRecord
  2
DESIGNERASSEMBLIES
 70
     0
  0
APPID
  5
1425
330
14
100
AcDbSymbolTableRecord
100
AcDbRegAppTableRecord
  2
ACADM_DIM_EDIT
 70
     0
  0
APPID
  5
1426
330
14
100
AcDbSymbolTableRecord
100
AcDbRegAppTableRecord
  2
AMDT_DM_ADJ
 70
     0
  0
APPID
  5
1451
330
14
100
AcDbSymbolTableRecord
100
AcDbRegAppTableRecord
  2
DCO15
 70
     0
  0
APPID
  5
14B5
330
14
100
AcDbSymbolTableRecord
100
AcDbRegAppTableRecord
  2
ACAD_PSEXT
 70
     0
  0
APPID
  5
1E67
330
14
100
AcDbSymbolTableRecord
100
AcDbRegAppTableRecord
  2
ACAD_MLEADERVER
 70
     0
  0
APPID
  5
2012
330
14
100
AcDbSymbolTableRecord
100
AcDbRegAppTableRecord
  2
ACAD_NAV_VCDISPLAY
 70
     0
  0
APPID
  5
2013
330
14
100
AcDbSymbolTableRecord
100
AcDbRegAppTableRecord
  2
ACAD_EXEMPT_FROM_CAD_STANDARDS
 70
     0
  0
ENDTAB
  0
TABLE
  2
DIMSTYLE
  5
16
330
0
100
AcDbSymbolTable
 70
     9
100
AcDbDimStyleTable
 71
     1
340
1B
  0
DIMSTYLE
105
1B
330
16
100
AcDbSymbolTableRecord
100
AcDbDimStyleTableRecord
  2
ISO-25
 70
     0
 41
3.5
 42
0.0
 43
7.0
 44
1.25
 73
     0
 74
     0
 77
     1
 78
     8
140
3.5
141
0.0
143
0.0394
144
0.5
145
1.0
147
1.5
172
     1
176
   256
177
   256
178
   256
284
     8
288
     1
340
D
  0
DIMSTYLE
105
1442
330
16
100
AcDbSymbolTableRecord
100
AcDbDimStyleTableRecord
  2
AM_ANSI
 70
     0
  4
mm
 41
0.1
 42
0.05
 43
0.5
 44
0.1
 47
0.1
 48
0.1
 78
     7
 79
     2
140
0.12
141
0.0
146
0.71
147
0.06
176
   256
177
   256
178
     2
274
     4
284
     7
340
D
371
    -1
372
    -1
  0
DIMSTYLE
105
1443
330
16
100
AcDbSymbolTableRecord
100
AcDbDimStyleTableRecord
  2
AM_ANSI$3
 70
     0
  4
mm
 41
0.1
 42
0.05
 43
0.5
 44
0.1
 47
0.1
 48
0.1
 78
     7
 79
     2
140
0.12
141
0.0
146
0.71
147
0.06
176
   256
177
   256
178
     2
274
     4
284
     7
288
     1
289
     0
340
D
371
    -1
372
    -1
  0
DIMSTYLE
105
1444
330
16
100
AcDbSymbolTableRecord
100
AcDbDimStyleTableRecord
  2
AM_ANSI$4
 70
     0
  4
mm
 41
0.1
 42
0.05
 43
0.5
 44
0.1
 47
0.1
 48
0.1
 78
     7
 79
     2
140
0.12
141
0.0
146
0.71
147
0.06
176
   256
177
   256
178
     2
274
     4
284
     7
288
     1
289
     0
340
D
371
    -1
372
    -1
  0
DIMSTYLE
105
1445
330
16
100
AcDbSymbolTableRecord
100
AcDbDimStyleTableRecord
  2
AM_ANSI$7
 70
     0
  4
mm
 41
0.1
 42
0.05
 43
0.5
 44
0.1
 47
0.1
 48
0.1
 78
     7
 79
     2
140
0.24
141
0.0
146
0.71
147
0.06
176
   256
177
   256
178
     2
274
     4
284
     7
340
D
371
    -1
372
    -1
  0
DIMSTYLE
105
1446
330
16
100
AcDbSymbolTableRecord
100
AcDbDimStyleTableRecord
  2
AM_ANSI$SF
 70
     0
  4
mm
 41
0.1
 42
0.05
 43
0.5
 44
0.1
 47
0.1
 48
0.1
 75
     1
 76
     1
 78
     7
 79
     2
140
0.12
141
0.0
146
0.71
147
0.06
176
   256
177
   256
178
     2
274
     4
284
     7
340
D
371
    -1
372
    -1
  0
DIMSTYLE
105
144B
330
16
100
AcDbSymbolTableRecord
100
AcDbDimStyleTableRecord
  2
AM_ANSI$SH
 70
     0
  4
mm
 41
0.1
 42
0.05
 43
0.5
 44
0.1
 47
0.1
 48
0.1
 75
     1
 76
     1
 78
     7
 79
     2
140
0.12
141
0.0
146
0.71
147
0.06
173
     1
176
   256
177
   256
178
     2
274
     4
284
     7
340
D
343
1447
371
    -1
372
    -1
  0
ENDTAB
  0
TABLE
  2
BLOCK_RECORD
  5
1
330
0
100
AcDbSymbolTable
 70
    19
  0
BLOCK_RECORD
  5
2
102
{ACAD_XDICTIONARY
360
7F
102
}
330
1
100
AcDbSymbolTableRecord
100
AcDbBlockTableRecord
  2
*MODEL_SPACE
340
9B
 70
     0
280
     1
281
     0
  0
BLOCK_RECORD
  5
3
330
1
100
AcDbSymbolTableRecord
100
AcDbBlockTableRecord
  2
*PAPER_SPACE
340
9C
 70
     0
280
     1
281
     0
  0
BLOCK_RECORD
  5
C2B
330
1
100
AcDbSymbolTableRecord
100
AcDbBlockTableRecord
  2
MD
340
0
 70
     0
280
     1
281
     0
  0
BLOCK_RECORD
  5
1447
330
1
100
AcDbSymbolTableRecord
100
AcDbBlockTableRecord
  2
GENAXEH
340
0
 70
     0
280
     1
281
     0
  0
BLOCK_RECORD
  5
1CD8
330
1
100
AcDbSymbolTableRecord
100
AcDbBlockTableRecord
  2
*D3
340
0
 70
     0
280
     1
281
     0
  0
BLOCK_RECORD
  5
1CE4
330
1
100
AcDbSymbolTableRecord
100
AcDbBlockTableRecord
  2
*D4
340
0
 70
     0
280
     1
281
     0
  0
BLOCK_RECORD
  5
1CF0
330
1
100
AcDbSymbolTableRecord
100
AcDbBlockTableRecord
  2
*D5
340
0
 70
     0
280
     1
281
     0
  0
BLOCK_RECORD
  5
1CFC
330
1
100
AcDbSymbolTableRecord
100
AcDbBlockTableRecord
  2
*D6
340
0
 70
     0
280
     1
281
     0
  0
BLOCK_RECORD
  5
1D08
330
1
100
AcDbSymbolTableRecord
100
AcDbBlockTableRecord
  2
*D7
340
0
 70
     0
280
     1
281
     0
  0
BLOCK_RECORD
  5
1D14
330
1
100
AcDbSymbolTableRecord
100
AcDbBlockTableRecord
  2
*D8
340
0
 70
     0
280
     1
281
     0
  0
BLOCK_RECORD
  5
1D20
330
1
100
AcDbSymbolTableRecord
100
AcDbBlockTableRecord
  2
*D9
340
0
 70
     0
280
     1
281
     0
  0
BLOCK_RECORD
  5
1D2C
330
1
100
AcDbSymbolTableRecord
100
AcDbBlockTableRecord
  2
*D10
340
0
 70
     0
280
     1
281
     0
  0
BLOCK_RECORD
  5
1D38
330
1
100
AcDbSymbolTableRecord
100
AcDbBlockTableRecord
  2
*D11
340
0
 70
     0
280
     1
281
     0
  0
BLOCK_RECORD
  5
1D45
330
1
100
AcDbSymbolTableRecord
100
AcDbBlockTableRecord
  2
*D12
340
0
 70
     0
280
     1
281
     0
  0
BLOCK_RECORD
  5
1D53
330
1
100
AcDbSymbolTableRecord
100
AcDbBlockTableRecord
  2
*D13
340
0
 70
     0
280
     1
281
     0
  0
BLOCK_RECORD
  5
1D61
330
1
100
AcDbSymbolTableRecord
100
AcDbBlockTableRecord
  2
*D14
340
0
 70
     0
280
     1
281
     0
  0
BLOCK_RECORD
  5
1D6D
330
1
100
AcDbSymbolTableRecord
100
AcDbBlockTableRecord
  2
*D15
340
0
 70
     0
280
     1
281
     0
  0
BLOCK_RECORD
  5
1D79
330
1
100
AcDbSymbolTableRecord
100
AcDbBlockTableRecord
  2
*D16
340
0
 70
     0
280
     1
281
     0
  0
ENDTAB
  0
ENDSEC
  0
SECTION
  2
BLOCKS
  0
BLOCK
  5
4
330
2
100
AcDbEntity
  8
0
100
AcDbBlockBegin
  2
*MODEL_SPACE
 70
     0
 10
0.0
 20
0.0
 30
0.0
  3
*MODEL_SPACE
  1

  0
ENDBLK
  5
5
330
2
100
AcDbEntity
  8
0
100
AcDbBlockEnd
  0
BLOCK
  5
6
330
3
100
AcDbEntity
 67
     1
  8
0
100
AcDbBlockBegin
  2
*PAPER_SPACE
 70
     0
 10
0.0
 20
0.0
 30
0.0
  3
*PAPER_SPACE
  1

  0
ENDBLK
  5
7
330
3
100
AcDbEntity
 67
     1
  8
0
100
AcDbBlockEnd
  0
BLOCK
  5
D0F
330
C2B
100
AcDbEntity
  8
0
 48
10.0
100
AcDbBlockBegin
  2
MD
 70
     0
 10
0.0
 20
0.0
 30
0.0
  3
MD
  1

  0
LINE
  5
C2C
330
C2B
100
AcDbEntity
  8
0
100
AcDbLine
 10
47.53723366110105
 20
12.71059282851718
 30
0.0
 11
46.37723366110108
 21
12.71059282851718
 31
0.0
  0
LINE
  5
C2D
330
C2B
100
AcDbEntity
  8
0
100
AcDbLine
 10
46.37723366110108
 20
8.360592828517184
 30
0.0
 11
47.53723366110105
 21
8.360592828517184
 31
0.0
  0
SOLID
  5
C2E
330
C2B
100
AcDbEntity
  8
0
100
AcDbTrace
 10
46.37723366110108
 20
12.71059282851718
 30
0.0
 11
47.53723366110105
 21
12.71059282851718
 31
0.0
 12
46.37723366110108
 22
8.360592828517184
 32
0.0
 13
47.53723366110105
 23
8.360592828517184
 33
0.0
  0
HATCH
  5
C2F
330
C2B
100
AcDbEntity
  8
0
100
AcDbHatch
 10
0.0
 20
0.0
 30
0.0
210
0.0
220
0.0
230
1.0
  2
SOLID
 70
     1
 71
     0
 91
        7
 92
        7
 72
     1
 73
     1
 93
       10
 10
30.4669081706591
 20
6.035969168044147
 42
0.0
 10
27.92751027088407
 20
6.035969168044175
 42
1.0
 10
27.92751027088406
 20
1.975969168044173
 42
0.0
 10
31.48190817065908
 20
1.975969168044144
 42
0.0
 10
31.48190817065908
 20
3.860969168044221
 42
0.0
 10
29.37751027088396
 20
3.860969168044221
 42
0.0
 10
29.37751027088395
 20
3.42596916804419
 42
0.0
 10
28.21751027088401
 20
3.42596916804419
 42
-1.0
 10
28.21751027088401
 20
4.585969168044158
 42
0.0
 10
30.46690817065908
 20
4.585969168044158
 42
0.0
 97
        0
 92
        7
 72
     0
 73
     1
 93
        9
 10
23.93949524083808
 20
6.035969168044175
 10
22.96221806301177
 20
6.035969168044175
 10
21.61949524083802
 20
6.035969168044175
 10
19.87949524083801
 20
1.975969168044173
 10
21.61949524083802
 20
1.975969168044173
 10
21.87727301861575
 20
2.555969168044185
 10
23.68171746306024
 20
2.555969168044185
 10
23.93949524083808
 20
1.975969168044173
 10
25.67949524083807
 20
1.975969168044144
 97
        0
 92
       22
 72
     0
 73
     1
 93
        3
 10
22.77949524083799
 20
4.585969168044186
 10
23.38527301861581
 20
3.222969168044159
 10
22.1737174630602
 20
3.222969168044159
 97
        0
 92
        7
 72
     0
 73
     1
 93
       12
 10
19.04336733806798
 20
6.035969168044204
 10
17.59336733806793
 20
6.035969168044147
 10
16.43336733806797
 20
4.295969168044194
 10
15.27336733806801
 20
6.035969168044175
 10
13.82336733806794
 20
6.035969168044147
 10
13.82336733806794
 20
1.975969168044201
 10
14.98336733806789
 20
1.975969168044201
 10
14.9833673380679
 20
3.78846916804423
 10
16.43336733806798
 20
1.97596916804423
 10
17.88336733806788
 20
3.788469168044173
 10
17.88336733806788
 20
1.975969168044173
 10
19.04336733806796
 20
1.975969168044173
 97
        0
 92
        7
 72
     0
 73
     1
 93
       12
 10
12.37938092908455
 20
6.035969168044175
 10
7.884380929084542
 20
6.035969168044175
 10
7.884380929084542
 20
1.975969168044144
 10
12.37938092908455
 20
1.975969168044173
 10
12.37938092908455
 20
2.845969168044177
 10
9.624380929084551
 20
2.845969168044177
 10
9.624380929084566
 20
3.715969168044182
 10
11.94438092908459
 20
3.715969168044154
 10
11.9443809290846
 20
4.295969168044194
 10
9.624380929084551
 20
4.295969168044166
 10
9.624380929084551
 20
5.165969168044142
 10
12.37938092908455
 20
5.165969168044142
 97
        0
 92
        7
 72
     1
 73
     1
 93
        4
 10
4.859424217804573
 20
6.035969168044175
 42
0.0
 10
1.379424217804555
 20
6.035969168044175
 42
0.0
 10
1.379424217804555
 20
1.975969168044173
 42
0.0
 10
4.859424217804573
 20
1.975969168044173
 42
1.0
 97
        0
 92
       22
 72
     1
 73
     1
 93
        4
 10
4.279424217804546
 20
3.42596916804419
 42
0.0
 10
3.119424217804564
 20
3.42596916804419
 42
0.0
 10
3.119424217804564
 20
4.585969168044158
 42
0.0
 10
4.279424217804532
 20
4.585969168044158
 42
-1.0
 97
        0
 75
     0
 76
     1
 47
0.029836324778458
 98
        7
 10
26.66618039501043
 20
4.93512662316732
 10
22.90553099190274
 20
5.114144636456273
 10
22.90553099190274
 20
5.114144636456273
 10
18.04056403138409
 20
4.994799368986718
 10
10.93711514142379
 20
5.561689557593979
 10
4.997676967677818
 20
5.203653643100722
 10
4.997676967677818
 20
5.203653643100722
450
        0
451
        0
460
0.0
461
0.0
452
        0
462
0.0
453
        0
470

  0
LINE
  5
C30
330
C2B
100
AcDbEntity
  8
0
100
AcDbLine
 10
12.37938092908455
 20
6.035969168044175
 30
0.0
 11
7.884380929084542
 21
6.035969168044175
 31
0.0
  0
LINE
  5
C31
330
C2B
100
AcDbEntity
  8
0
100
AcDbLine
 10
7.884380929084542
 20
1.975969168044173
 30
0.0
 11
12.37938092908455
 21
1.975969168044173
 31
0.0
  0
SOLID
  5
C32
330
C2B
100
AcDbEntity
  8
0
100
AcDbTrace
 10
9.195740662004979
 20
12.71059282851718
 30
0.0
 11
10.81445056979105
 21
12.71059282851718
 31
0.0
 12
10.00509561589801
 22
11.74720348209459
 32
0.0
 13
10.00509561589801
 23
11.74720348209459
 33
0.0
  0
LINE
  5
C33
330
C2B
100
AcDbEntity
  8
0
100
AcDbLine
 10
9.195740662004979
 20
12.71059282851718
 30
0.0
 11
10.81445056979105
 21
12.71059282851718
 31
0.0
  0
LINE
  5
C34
330
C2B
100
AcDbEntity
  8
0
100
AcDbLine
 10
9.089124246758657
 20
9.230592828517217
 30
0.0
 11
10.92106698503737
 21
9.230592828517188
 31
0.0
  0
SOLID
  5
C35
330
C2B
100
AcDbEntity
  8
0
100
AcDbTrace
 10
10.70996424916295
 20
9.810592828517201
 30
0.0
 11
9.300226982633077
 21
9.810592828517201
 31
0.0
 12
10.92106698503737
 22
9.230592828517188
 32
0.0
 13
9.089124246758657
 23
9.230592828517217
 33
0.0
  0
SOLID
  5
C36
330
C2B
100
AcDbEntity
  8
0
100
AcDbTrace
 10
10.00509561589801
 20
11.74720348209459
 30
0.0
 11
9.195740662004979
 21
12.71059282851718
 31
0.0
 12
8.772470142947028
 22
8.360592828517212
 32
0.0
 13
7.61247014294706
 23
8.360592828517212
 33
0.0
  0
LINE
  5
C37
330
C2B
100
AcDbEntity
  8
0
100
AcDbLine
 10
7.884380929084542
 20
6.035969168044175
 30
0.0
 11
7.884380929084542
 21
1.975969168044173
 31
0.0
  0
LINE
  5
C38
330
C2B
100
AcDbEntity
  8
0
100
AcDbLine
 10
1.379424217804555
 20
6.035969168044175
 30
0.0
 11
1.379424217804555
 21
1.975969168044173
 31
0.0
  0
ARC
  5
C39
330
C2B
100
AcDbEntity
  8
0
100
AcDbCircle
 10
4.859424217804573
 20
4.005969168044174
 30
0.0
 40
2.029999999999999
100
AcDbArc
 50
270.0
 51
90.0
  0
LINE
  5
C3A
330
C2B
100
AcDbEntity
  8
0
100
AcDbLine
 10
1.379424217804555
 20
1.975969168044173
 30
0.0
 11
4.859424217804573
 21
1.975969168044173
 31
0.0
  0
LWPOLYLINE
  5
C3B
330
C2B
100
AcDbEntity
  8
0
100
AcDbPolyline
 90
        4
 70
     1
 43
0.0
 10
3.119424217804564
 20
3.42596916804419
 10
4.279424217804532
 20
3.42596916804419
 42
1.0
 10
4.279424217804532
 20
4.585969168044158
 10
3.119424217804564
 20
4.585969168044158
  0
LINE
  5
C3C
330
C2B
100
AcDbEntity
  8
0
100
AcDbLine
 10
4.859424217804573
 20
6.035969168044175
 30
0.0
 11
1.379424217804555
 21
6.035969168044175
 31
0.0
  0
SOLID
  5
C3D
330
C2B
100
AcDbEntity
  8
0
100
AcDbTrace
 10
5.44359825511519
 20
12.71059282851718
 30
0.0
 11
5.878598255115136
 21
10.88759231326366
 31
0.0
 12
4.13859825511524
 22
10.03494631525621
 32
0.0
 13
4.646098255115177
 23
8.360592828517184
 33
0.0
  0
SOLID
  5
C3E
330
C2B
100
AcDbEntity
  8
0
100
AcDbTrace
 10
3.63109825511519
 20
8.360592828517184
 30
0.0
 11
4.646098255115177
 21
8.360592828517184
 31
0.0
 12
4.13859825511524
 22
10.03494631525621
 32
0.0
 13
4.13859825511524
 23
10.03494631525621
 33
0.0
  0
LINE
  5
C3F
330
C2B
100
AcDbEntity
  8
0
100
AcDbLine
 10
3.63109825511519
 20
8.360592828517184
 30
0.0
 11
4.646098255115177
 21
8.360592828517184
 31
0.0
  0
LWPOLYLINE
  5
C40
330
C2B
100
AcDbEntity
  8
0
100
AcDbPolyline
 90
        3
 70
     0
 43
0.0
 10
5.44359825511519
 20
12.71059282851718
 10
4.13859825511524
 20
10.03494631525621
 10
2.833598255115177
 20
12.71059282851718
  0
LINE
  5
C41
330
C2B
100
AcDbEntity
  8
0
100
AcDbLine
 10
1.383598255115131
 20
12.71059282851718
 30
0.0
 11
1.383598255115131
 21
8.360592828517184
 31
0.0
  0
SOLID
  5
C42
330
C2B
100
AcDbEntity
  8
0
100
AcDbTrace
 10
1.383598255115131
 20
12.71059282851718
 30
0.0
 11
2.833598255115177
 21
12.71059282851718
 31
0.0
 12
1.383598255115131
 22
8.360592828517184
 32
0.0
 13
2.398598255115231
 23
10.88759231326366
 33
0.0
  0
SOLID
  5
C43
330
C2B
100
AcDbEntity
  8
0
100
AcDbTrace
 10
2.398598255115231
 20
8.360592828517184
 30
0.0
 11
1.383598255115131
 21
8.360592828517184
 31
0.0
 12
2.398598255115231
 22
10.88759231326366
 32
0.0
 13
1.383598255115131
 23
12.71059282851718
 33
0.0
  0
SOLID
  5
C44
330
C2B
100
AcDbEntity
  8
0
100
AcDbTrace
 10
2.833598255115177
 20
12.71059282851718
 30
0.0
 11
2.398598255115231
 21
10.88759231326366
 31
0.0
 12
4.13859825511524
 22
10.03494631525621
 32
0.0
 13
3.63109825511519
 23
8.360592828517184
 33
0.0
  0
LINE
  5
C45
330
C2B
100
AcDbEntity
  8
0
100
AcDbLine
 10
1.383598255115131
 20
8.360592828517184
 30
0.0
 11
2.398598255115231
 21
8.360592828517184
 31
0.0
  0
LINE
  5
C46
330
C2B
100
AcDbEntity
  8
0
100
AcDbLine
 10
3.63109825511519
 20
8.360592828517184
 30
0.0
 11
2.398598255115231
 21
10.88759231326366
 31
0.0
  0
LINE
  5
C47
330
C2B
100
AcDbEntity
  8
0
100
AcDbLine
 10
2.398598255115231
 20
10.88759231326366
 30
0.0
 11
2.398598255115231
 21
8.360592828517184
 31
0.0
  0
LINE
  5
C48
330
C2B
100
AcDbEntity
  8
0
100
AcDbLine
 10
2.833598255115177
 20
12.71059282851718
 30
0.0
 11
1.383598255115131
 21
12.71059282851718
 31
0.0
  0
SOLID
  5
C49
330
C2B
100
AcDbEntity
  8
0
100
AcDbTrace
 10
5.44359825511519
 20
12.71059282851718
 30
0.0
 11
6.893598255115122
 21
12.71059282851718
 31
0.0
 12
5.878598255115136
 22
10.88759231326366
 32
0.0
 13
6.893598255115122
 23
8.360592828517184
 33
0.0
  0
SOLID
  5
C4A
330
C2B
100
AcDbEntity
  8
0
100
AcDbTrace
 10
5.878598255115136
 20
10.88759231326366
 30
0.0
 11
6.893598255115122
 21
12.71059282851718
 31
0.0
 12
5.878598255115136
 22
8.360592828517184
 32
0.0
 13
6.893598255115122
 23
8.360592828517184
 33
0.0
  0
LINE
  5
C4B
330
C2B
100
AcDbEntity
  8
0
100
AcDbLine
 10
6.893598255115122
 20
8.360592828517184
 30
0.0
 11
6.893598255115122
 21
12.71059282851718
 31
0.0
  0
LINE
  5
C4C
330
C2B
100
AcDbEntity
  8
0
100
AcDbLine
 10
7.61247014294706
 20
8.360592828517184
 30
0.0
 11
9.195740662004979
 21
12.71059282851718
 31
0.0
  0
LINE
  5
C4D
330
C2B
100
AcDbEntity
  8
0
100
AcDbLine
 10
5.878598255115136
 20
8.360592828517184
 30
0.0
 11
6.893598255115122
 21
8.360592828517184
 31
0.0
  0
LINE
  5
C4E
330
C2B
100
AcDbEntity
  8
0
100
AcDbLine
 10
4.646098255115177
 20
8.360592828517184
 30
0.0
 11
5.878598255115136
 21
10.88759231326366
 31
0.0
  0
LINE
  5
C4F
330
C2B
100
AcDbEntity
  8
0
100
AcDbLine
 10
5.878598255115136
 20
8.360592828517184
 30
0.0
 11
5.878598255115136
 21
10.88759231326366
 31
0.0
  0
LINE
  5
C50
330
C2B
100
AcDbEntity
  8
0
100
AcDbLine
 10
8.772470142947028
 20
8.360592828517184
 30
0.0
 11
9.089124246758657
 21
9.230592828517217
 31
0.0
  0
LINE
  5
C51
330
C2B
100
AcDbEntity
  8
0
100
AcDbLine
 10
7.61247014294706
 20
8.360592828517212
 30
0.0
 11
8.772470142947028
 21
8.360592828517212
 31
0.0
  0
LINE
  5
C52
330
C2B
100
AcDbEntity
  8
0
100
AcDbLine
 10
6.893598255115122
 20
12.71059282851718
 30
0.0
 11
5.44359825511519
 21
12.71059282851718
 31
0.0
  0
LINE
  5
C53
330
C2B
100
AcDbEntity
  8
0
100
AcDbLine
 10
30.4669081706591
 20
6.035969168044175
 30
0.0
 11
27.92751027088404
 21
6.035969168044175
 31
0.0
  0
LINE
  5
C54
330
C2B
100
AcDbEntity
  8
0
100
AcDbLine
 10
27.92751027088404
 20
1.975969168044173
 30
0.0
 11
31.48190817065908
 21
1.975969168044173
 31
0.0
  0
LWPOLYLINE
  5
C55
330
C2B
100
AcDbEntity
  8
0
100
AcDbPolyline
 90
        5
 70
     0
 43
0.0
 10
28.44544519149899
 20
4.585969168044158
 10
28.21751027088401
 20
4.585969168044158
 42
1.0
 10
28.21751027088401
 20
3.42596916804419
 10
29.37751027088398
 20
3.42596916804419
 10
29.37751027088398
 20
3.860969168044192
  0
HATCH
  5
C56
330
C2B
100
AcDbEntity
  8
0
100
AcDbHatch
 10
0.0
 20
0.0
 30
0.0
210
0.0
220
0.0
230
1.0
  2
SOLID
 70
     1
 71
     0
 91
        1
 92
        7
 72
     1
 73
     1
 93
       30
 10
28.67341124306463
 20
12.01874456392995
 42
-0.0652834005943262
 10
29.81524103351227
 20
11.91632330263147
 42
-0.037561805211131
 10
30.51120742076959
 20
11.73031819479517
 42
0.0
 10
30.51120742076959
 20
12.46917801985549
 42
0.085165026828194
 10
29.17885084518919
 20
12.75015113263723
 42
0.0636863138901518
 10
28.07838115867532
 20
12.6342383300252
 42
0.1041853080875486
 10
27.42708224929941
 20
12.24567797544496
 42
0.1366438800012546
 10
27.25068477520842
 20
11.94492843736006
 42
0.0582246878134562
 10
27.22128391483658
 20
11.26579054292044
 42
0.0559788316204981
 10
27.27535298911739
 20
11.0253713183586
 42
0.108394063957441
 10
27.72380710087762
 20
10.45068898243912
 42
0.0906019119173833
 10
28.41675028538924
 20
10.09735667935096
 42
0.0240156207773875
 10
29.14659366861336
 20
10.00926216675021
 42
-0.3041003465922973
 10
29.58411825799818
 20
9.701164184829087
 42
-0.1780750464554663
 10
29.52602013454316
 20
9.311034757463731
 42
-0.2705725069810039
 10
29.07278829053957
 20
9.074773117859981
 42
-0.0652834005944063
 10
27.93095850009056
 20
9.17719437915877
 42
-0.0375618052110583
 10
27.2349921128346
 20
9.36319948699483
 42
0.0
 10
27.2349921128346
 20
8.624339661934481
 42
0.0851650268282114
 10
28.56734868841528
 20
8.34336654915269
 42
0.0636863138901587
 10
29.66781837492926
 20
8.459279351764822
 42
0.104185308086929
 10
30.31911728430179
 20
8.847839706342101
 42
0.1366438800029011
 10
30.49551475839578
 20
9.148589244429926
 42
0.0582246878137179
 10
30.5249156187674
 20
9.827727138872596
 42
0.0559788316198116
 10
30.47084654448689
 20
10.06814636343143
 42
0.1083940639570978
 10
30.02239243272841
 20
10.64282869934942
 42
0.0906019119176942
 10
29.3294492482146
 20
10.99616100243908
 42
0.0240156207773517
 10
28.59960586499157
 20
11.0842555150397
 42
-0.3041003465927257
 10
28.16208127560601
 20
11.39235349696086
 42
-0.1780750464554168
 10
28.22017939906098
 20
11.78248292432612
 42
-0.2705725069810566
 97
        0
 75
     0
 76
     1
 47
0.029836324778458
 98
        1
 10
28.12865518030921
 20
11.91682678765849
450
        0
451
        0
460
0.0
461
0.0
452
        0
462
0.0
453
        0
470

  0
ARC
  5
C57
330
C2B
100
AcDbEntity
  8
0
100
AcDbCircle
 10
28.67498912875083
 20
10.89408439636287
 30
0.0
 40
1.839586035715127
100
AcDbArc
 50
108.9241660710542
 51
132.7158447178865
  0
ARC
  5
C58
330
C2B
100
AcDbEntity
  8
0
100
AcDbCircle
 10
29.03723373447626
 20
12.17038186676979
 30
0.0
 40
2.163893051484705
100
AcDbArc
 50
232.6289826384908
 51
253.33687314973
  0
ARC
  5
C59
330
C2B
100
AcDbEntity
  8
0
100
AcDbCircle
 10
28.89241964789669
 20
13.47993662988443
 30
0.0
 40
4.408854546809234
100
AcDbArc
 50
257.4040038370662
 51
273.6651460924192
  0
ARC
  5
C5A
330
C2B
100
AcDbEntity
  8
0
100
AcDbCircle
 10
28.71997831450999
 20
12.36658799573033
 30
0.0
 40
4.026115573473278
100
AcDbArc
 50
248.3560010847983
 51
267.8274023014902
  0
LINE
  5
C5B
330
C2B
100
AcDbEntity
  8
0
100
AcDbLine
 10
19.04336733806796
 20
6.035969168044175
 30
0.0
 11
17.59336733806792
 21
6.035969168044175
 31
0.0
  0
LINE
  5
C5C
330
C2B
100
AcDbEntity
  8
0
100
AcDbLine
 10
17.88336733806788
 20
1.975969168044173
 30
0.0
 11
19.04336733806796
 21
1.975969168044173
 31
0.0
  0
LINE
  5
C5D
330
C2B
100
AcDbEntity
  8
0
100
AcDbLine
 10
19.4956378484499
 20
12.71059282851718
 30
0.0
 11
18.33563784844993
 21
12.71059282851718
 31
0.0
  0
LINE
  5
C5E
330
C2B
100
AcDbEntity
  8
0
100
AcDbLine
 10
18.33563784844993
 20
8.360592828517184
 30
0.0
 11
19.4956378484499
 21
8.360592828517184
 31
0.0
  0
SOLID
  5
C5F
330
C2B
100
AcDbEntity
  8
0
100
AcDbTrace
 10
19.4956378484499
 20
8.360592828517184
 30
0.0
 11
18.33563784844993
 21
8.360592828517184
 31
0.0
 12
19.4956378484499
 22
12.71059282851718
 32
0.0
 13
18.33563784844993
 23
12.71059282851718
 33
0.0
  0
LINE
  5
C60
330
C2B
100
AcDbEntity
  8
0
100
AcDbLine
 10
16.43336733806795
 20
4.295969168044194
 30
0.0
 11
17.59336733806792
 21
6.035969168044175
 31
0.0
  0
LINE
  5
C61
330
C2B
100
AcDbEntity
  8
0
100
AcDbLine
 10
15.27336733806798
 20
6.035969168044175
 30
0.0
 11
16.43336733806795
 21
4.295969168044194
 31
0.0
  0
LINE
  5
C62
330
C2B
100
AcDbEntity
  8
0
100
AcDbLine
 10
13.82336733806794
 20
6.035969168044175
 30
0.0
 11
13.82336733806794
 21
1.975969168044173
 31
0.0
  0
LINE
  5
C63
330
C2B
100
AcDbEntity
  8
0
100
AcDbLine
 10
12.37938092908455
 20
6.035969168044175
 30
0.0
 11
12.37938092908455
 21
5.165969168044171
 31
0.0
  0
LINE
  5
C64
330
C2B
100
AcDbEntity
  8
0
100
AcDbLine
 10
13.82336733806794
 20
1.975969168044173
 30
0.0
 11
14.9833673380679
 21
1.975969168044173
 31
0.0
  0
LINE
  5
C65
330
C2B
100
AcDbEntity
  8
0
100
AcDbLine
 10
9.624380929084551
 20
2.845969168044177
 30
0.0
 11
12.37938092908455
 21
2.845969168044177
 31
0.0
  0
LINE
  5
C66
330
C2B
100
AcDbEntity
  8
0
100
AcDbLine
 10
9.624380929084551
 20
3.715969168044182
 30
0.0
 11
11.9443809290846
 21
3.715969168044182
 31
0.0
  0
LINE
  5
C67
330
C2B
100
AcDbEntity
  8
0
100
AcDbLine
 10
11.9443809290846
 20
4.295969168044194
 30
0.0
 11
9.624380929084551
 21
4.295969168044194
 31
0.0
  0
LINE
  5
C68
330
C2B
100
AcDbEntity
  8
0
100
AcDbLine
 10
12.37938092908455
 20
5.165969168044171
 30
0.0
 11
9.624380929084551
 21
5.165969168044171
 31
0.0
  0
LWPOLYLINE
  5
C69
330
C2B
100
AcDbEntity
  8
0
100
AcDbPolyline
 90
        2
 70
     0
 43
0.0
 10
9.624380929084551
 20
3.715969168044182
 10
9.624380929084551
 20
2.845969168044177
  0
LWPOLYLINE
  5
C6A
330
C2B
100
AcDbEntity
  8
0
100
AcDbPolyline
 90
        2
 70
     0
 43
0.0
 10
9.624380929084551
 20
5.165969168044171
 10
9.624380929084551
 20
4.295969168044194
  0
LINE
  5
C6B
330
C2B
100
AcDbEntity
  8
0
100
AcDbLine
 10
12.37938092908455
 20
2.845969168044177
 30
0.0
 11
12.37938092908455
 21
1.975969168044173
 31
0.0
  0
LINE
  5
C6C
330
C2B
100
AcDbEntity
  8
0
100
AcDbLine
 10
11.9443809290846
 20
4.295969168044194
 30
0.0
 11
11.9443809290846
 21
3.715969168044182
 31
0.0
  0
LINE
  5
C6D
330
C2B
100
AcDbEntity
  8
0
100
AcDbLine
 10
14.9833673380679
 20
3.788469168044201
 30
0.0
 11
16.43336733806795
 21
1.975969168044173
 31
0.0
  0
LINE
  5
C6E
330
C2B
100
AcDbEntity
  8
0
100
AcDbLine
 10
14.9833673380679
 20
3.788469168044201
 30
0.0
 11
14.9833673380679
 21
1.975969168044173
 31
0.0
  0
LINE
  5
C6F
330
C2B
100
AcDbEntity
  8
0
100
AcDbLine
 10
16.43336733806795
 20
1.975969168044173
 30
0.0
 11
17.88336733806788
 21
3.788469168044144
 31
0.0
  0
LINE
  5
C70
330
C2B
100
AcDbEntity
  8
0
100
AcDbLine
 10
17.88336733806788
 20
3.788469168044144
 30
0.0
 11
17.88336733806788
 21
1.975969168044173
 31
0.0
  0
LINE
  5
C71
330
C2B
100
AcDbEntity
  8
0
100
AcDbLine
 10
15.27336733806787
 20
6.035969168044175
 30
0.0
 11
13.82336733806794
 21
6.035969168044175
 31
0.0
  0
LINE
  5
C72
330
C2B
100
AcDbEntity
  8
0
100
AcDbLine
 10
14.22367341168756
 20
12.71059282851718
 30
0.0
 11
13.06367341168759
 21
12.71059282851718
 31
0.0
  0
LINE
  5
C73
330
C2B
100
AcDbEntity
  8
0
100
AcDbLine
 10
13.06367341168759
 20
8.360592828517184
 30
0.0
 11
14.22367341168756
 21
8.360592828517184
 31
0.0
  0
SOLID
  5
C74
330
C2B
100
AcDbEntity
  8
0
100
AcDbTrace
 10
13.06367341168759
 20
12.71059282851718
 30
0.0
 11
14.22367341168756
 21
12.71059282851718
 31
0.0
 12
13.06367341168759
 22
8.360592828517184
 32
0.0
 13
14.22367341168756
 23
8.360592828517184
 33
0.0
  0
LINE
  5
C75
330
C2B
100
AcDbEntity
  8
0
100
AcDbLine
 10
13.06367341168759
 20
12.71059282851718
 30
0.0
 11
13.06367341168759
 21
8.360592828517184
 31
0.0
  0
LINE
  5
C76
330
C2B
100
AcDbEntity
  8
0
100
AcDbLine
 10
12.39772108884897
 20
8.360592828517184
 30
0.0
 11
10.81445056979105
 21
12.71059282851718
 31
0.0
  0
SOLID
  5
C77
330
C2B
100
AcDbEntity
  8
0
100
AcDbTrace
 10
10.81445056979105
 20
12.71059282851718
 30
0.0
 11
10.00509561589801
 21
11.74720348209459
 31
0.0
 12
12.39772108884897
 22
8.360592828517184
 32
0.0
 13
11.237721088849
 23
8.360592828517184
 33
0.0
  0
LINE
  5
C78
330
C2B
100
AcDbEntity
  8
0
100
AcDbLine
 10
11.237721088849
 20
8.360592828517184
 30
0.0
 11
12.39772108884897
 21
8.360592828517184
 31
0.0
  0
LINE
  5
C79
330
C2B
100
AcDbEntity
  8
0
100
AcDbLine
 10
11.237721088849
 20
8.360592828517184
 30
0.0
 11
10.92106698503737
 21
9.230592828517217
 31
0.0
  0
LINE
  5
C7A
330
C2B
100
AcDbEntity
  8
0
100
AcDbLine
 10
9.300226982633077
 20
9.810592828517201
 30
0.0
 11
10.70996424916295
 21
9.810592828517201
 31
0.0
  0
LINE
  5
C7B
330
C2B
100
AcDbEntity
  8
0
100
AcDbLine
 10
10.70996424916295
 20
9.810592828517201
 30
0.0
 11
10.00509561589801
 21
11.74720348209459
 31
0.0
  0
LINE
  5
C7C
330
C2B
100
AcDbEntity
  8
0
100
AcDbLine
 10
9.300226982633077
 20
9.810592828517201
 30
0.0
 11
10.00509561589801
 21
11.74720348209459
 31
0.0
  0
LINE
  5
C7D
330
C2B
100
AcDbEntity
  8
0
100
AcDbLine
 10
17.4136734116875
 20
12.71059282851718
 30
0.0
 11
17.4136734116875
 21
8.360592828517184
 31
0.0
  0
LINE
  5
C7E
330
C2B
100
AcDbEntity
  8
0
100
AcDbLine
 10
18.33563784844993
 20
12.71059282851718
 30
0.0
 11
18.33563784844993
 21
8.360592828517184
 31
0.0
  0
SOLID
  5
C7F
330
C2B
100
AcDbEntity
  8
0
100
AcDbTrace
 10
16.25367341168753
 20
12.71059282851718
 30
0.0
 11
17.4136734116875
 21
12.71059282851718
 31
0.0
 12
16.25367341168753
 22
8.360592828517184
 32
0.0
 13
17.4136734116875
 23
8.360592828517184
 33
0.0
  0
LINE
  5
C80
330
C2B
100
AcDbEntity
  8
0
100
AcDbLine
 10
16.25367341168753
 20
12.71059282851718
 30
0.0
 11
16.25367341168753
 21
10.03494631525621
 31
0.0
  0
LINE
  5
C81
330
C2B
100
AcDbEntity
  8
0
100
AcDbLine
 10
14.22367341168756
 20
12.71059282851718
 30
0.0
 11
16.25367341168753
 21
10.03494631525621
 31
0.0
  0
SOLID
  5
C82
330
C2B
100
AcDbEntity
  8
0
100
AcDbTrace
 10
14.22367341168756
 20
12.71059282851718
 30
0.0
 11
16.25367341168753
 21
10.03494631525621
 31
0.0
 12
14.22367341168756
 22
10.59029825623466
 32
0.0
 13
16.25367341168753
 23
8.360592828517184
 33
0.0
  0
LINE
  5
C83
330
C2B
100
AcDbEntity
  8
0
100
AcDbLine
 10
14.22367341168756
 20
10.59029825623466
 30
0.0
 11
16.25367341168753
 21
8.360592828517184
 31
0.0
  0
LINE
  5
C84
330
C2B
100
AcDbEntity
  8
0
100
AcDbLine
 10
14.22367341168756
 20
10.59029825623463
 30
0.0
 11
14.22367341168756
 21
8.360592828517184
 31
0.0
  0
LINE
  5
C85
330
C2B
100
AcDbEntity
  8
0
100
AcDbLine
 10
16.25367341168753
 20
8.360592828517184
 30
0.0
 11
17.4136734116875
 21
8.360592828517184
 31
0.0
  0
LINE
  5
C86
330
C2B
100
AcDbEntity
  8
0
100
AcDbLine
 10
17.4136734116875
 20
12.71059282851718
 30
0.0
 11
16.25367341168753
 21
12.71059282851718
 31
0.0
  0
ARC
  5
C87
330
C2B
100
AcDbEntity
  8
0
100
AcDbCircle
 10
27.92751027088404
 20
4.005969168044174
 30
0.0
 40
2.029999999999999
100
AcDbArc
 50
90.0
 51
270.0
  0
LWPOLYLINE
  5
C88
330
C2B
100
AcDbEntity
  8
0
100
AcDbPolyline
 90
        6
 70
     0
 43
0.0
 10
22.04851350980532
 20
6.035969168044175
 10
21.61949524083802
 20
6.035969168044175
 10
19.87949524083801
 20
1.975969168044173
 10
21.61949524083802
 20
1.975969168044173
 10
21.87727301861575
 20
2.555969168044185
 10
23.68171746306023
 20
2.555969168044185
  0
LWPOLYLINE
  5
C89
330
C2B
100
AcDbEntity
  8
0
100
AcDbPolyline
 90
        5
 70
     0
 43
0.0
 10
23.68171746306023
 20
2.555969168044185
 10
23.93949524083807
 20
1.975969168044173
 10
25.67949524083808
 20
1.975969168044173
 10
23.93949524083807
 20
6.035969168044175
 10
22.90326944084829
 20
6.035969168044175
  0
LINE
  5
C8A
330
C2B
100
AcDbEntity
  8
0
100
AcDbLine
 10
19.04336733806796
 20
6.035969168044175
 30
0.0
 11
19.04336733806796
 21
1.975969168044173
 31
0.0
  0
LINE
  5
C8B
330
C2B
100
AcDbEntity
  8
0
100
AcDbLine
 10
25.67949524083808
 20
1.975969168044173
 30
0.0
 11
23.93949524083807
 21
6.035969168044175
 31
0.0
  0
LINE
  5
C8C
330
C2B
100
AcDbEntity
  8
0
100
AcDbLine
 10
23.93949524083807
 20
6.035969168044175
 30
0.0
 11
25.67949524083808
 21
1.975969168044173
 31
0.0
  0
LINE
  5
C8D
330
C2B
100
AcDbEntity
  8
0
100
AcDbLine
 10
21.61949524083802
 20
6.035969168044175
 30
0.0
 11
19.87949524083801
 21
1.975969168044173
 31
0.0
  0
LINE
  5
C8E
330
C2B
100
AcDbEntity
  8
0
100
AcDbLine
 10
19.87949524083801
 20
1.975969168044173
 30
0.0
 11
21.61949524083802
 21
6.035969168044175
 31
0.0
  0
LINE
  5
C8F
330
C2B
100
AcDbEntity
  8
0
100
AcDbLine
 10
21.87727301861575
 20
2.555969168044185
 30
0.0
 11
23.68171746306023
 21
2.555969168044185
 31
0.0
  0
LINE
  5
C90
330
C2B
100
AcDbEntity
  8
0
100
AcDbLine
 10
22.77949524083799
 20
4.585969168044158
 30
0.0
 11
23.38527301861579
 21
3.222969168044159
 31
0.0
  0
LINE
  5
C91
330
C2B
100
AcDbEntity
  8
0
100
AcDbLine
 10
22.17371746306019
 20
3.222969168044159
 30
0.0
 11
23.38527301861579
 21
3.222969168044159
 31
0.0
  0
LINE
  5
C92
330
C2B
100
AcDbEntity
  8
0
100
AcDbLine
 10
21.87727301861575
 20
2.555969168044185
 30
0.0
 11
23.68171746306023
 21
2.555969168044185
 31
0.0
  0
LINE
  5
C93
330
C2B
100
AcDbEntity
  8
0
100
AcDbLine
 10
19.87949524083801
 20
1.975969168044173
 30
0.0
 11
21.61949524083802
 21
1.975969168044173
 31
0.0
  0
LINE
  5
C94
330
C2B
100
AcDbEntity
  8
0
100
AcDbLine
 10
19.87949524083801
 20
1.975969168044173
 30
0.0
 11
21.61949524083802
 21
1.975969168044173
 31
0.0
  0
LINE
  5
C95
330
C2B
100
AcDbEntity
  8
0
100
AcDbLine
 10
21.61949524083802
 20
1.975969168044173
 30
0.0
 11
21.87727301861575
 21
2.555969168044185
 31
0.0
  0
LINE
  5
C96
330
C2B
100
AcDbEntity
  8
0
100
AcDbLine
 10
22.17371746306019
 20
3.222969168044159
 30
0.0
 11
22.77949524083799
 21
4.585969168044158
 31
0.0
  0
LINE
  5
C97
330
C2B
100
AcDbEntity
  8
0
100
AcDbLine
 10
21.61949524083802
 20
1.975969168044173
 30
0.0
 11
21.87727301861575
 21
2.555969168044185
 31
0.0
  0
LINE
  5
C98
330
C2B
100
AcDbEntity
  8
0
100
AcDbLine
 10
23.93949524083807
 20
1.975969168044173
 30
0.0
 11
25.67949524083808
 21
1.975969168044173
 31
0.0
  0
LINE
  5
C99
330
C2B
100
AcDbEntity
  8
0
100
AcDbLine
 10
23.93949524083807
 20
1.975969168044173
 30
0.0
 11
25.67949524083808
 21
1.975969168044173
 31
0.0
  0
LINE
  5
C9A
330
C2B
100
AcDbEntity
  8
0
100
AcDbLine
 10
23.68171746306023
 20
2.555969168044185
 30
0.0
 11
23.93949524083807
 21
1.975969168044173
 31
0.0
  0
LINE
  5
C9B
330
C2B
100
AcDbEntity
  8
0
100
AcDbLine
 10
23.68171746306023
 20
2.555969168044185
 30
0.0
 11
23.93949524083807
 21
1.975969168044173
 31
0.0
  0
LINE
  5
C9C
330
C2B
100
AcDbEntity
  8
0
100
AcDbLine
 10
23.93949524083807
 20
6.035969168044175
 30
0.0
 11
22.96221806301177
 21
6.035969168044175
 31
0.0
  0
LINE
  5
C9D
330
C2B
100
AcDbEntity
  8
0
100
AcDbLine
 10
21.61949524083802
 20
6.035969168044175
 30
0.0
 11
23.93949524083807
 21
6.035969168044175
 31
0.0
  0
LINE
  5
C9E
330
C2B
100
AcDbEntity
  8
0
100
AcDbLine
 10
22.68563784844996
 20
12.71059282851718
 30
0.0
 11
22.68563784844996
 21
8.360592828517184
 31
0.0
  0
SOLID
  5
C9F
330
C2B
100
AcDbEntity
  8
0
100
AcDbTrace
 10
19.4956378484499
 20
12.71059282851718
 30
0.0
 11
21.52563784844999
 21
10.03494631525621
 31
0.0
 12
19.4956378484499
 22
10.59029825623466
 32
0.0
 13
21.52563784844999
 23
8.360592828517184
 33
0.0
  0
SOLID
  5
CA0
330
C2B
100
AcDbEntity
  8
0
100
AcDbTrace
 10
21.52563784844999
 20
12.71059282851718
 30
0.0
 11
22.68563784844996
 21
12.71059282851718
 31
0.0
 12
21.52563784844999
 22
8.360592828517184
 32
0.0
 13
22.68563784844996
 23
8.360592828517184
 33
0.0
  0
LINE
  5
CA1
330
C2B
100
AcDbEntity
  8
0
100
AcDbLine
 10
19.4956378484499
 20
12.71059282851718
 30
0.0
 11
21.52563784844999
 21
10.03494631525621
 31
0.0
  0
LINE
  5
CA2
330
C2B
100
AcDbEntity
  8
0
100
AcDbLine
 10
21.52563784844999
 20
12.71059282851718
 30
0.0
 11
21.52563784844999
 21
10.03494631525621
 31
0.0
  0
LINE
  5
CA3
330
C2B
100
AcDbEntity
  8
0
100
AcDbLine
 10
19.4956378484499
 20
10.59029825623466
 30
0.0
 11
21.52563784844999
 21
8.360592828517184
 31
0.0
  0
LINE
  5
CA4
330
C2B
100
AcDbEntity
  8
0
100
AcDbLine
 10
19.4956378484499
 20
10.59029825623463
 30
0.0
 11
19.4956378484499
 21
8.360592828517184
 31
0.0
  0
LINE
  5
CA5
330
C2B
100
AcDbEntity
  8
0
100
AcDbLine
 10
21.52563784844999
 20
8.360592828517184
 30
0.0
 11
22.68563784844996
 21
8.360592828517184
 31
0.0
  0
LINE
  5
CA6
330
C2B
100
AcDbEntity
  8
0
100
AcDbLine
 10
22.34325690052201
 20
6.035969168044175
 30
0.0
 11
21.61949524083802
 21
6.035969168044175
 31
0.0
  0
LINE
  5
CA7
330
C2B
100
AcDbEntity
  8
0
100
AcDbLine
 10
22.68563784844996
 20
12.71059282851718
 30
0.0
 11
21.52563784844999
 21
12.71059282851718
 31
0.0
  0
SOLID
  5
CA8
330
C2B
100
AcDbEntity
  8
0
100
AcDbTrace
 10
24.57232746314064
 20
11.84059282851717
 30
0.0
 11
26.45732746314063
 21
11.84059282851717
 31
0.0
 12
23.55732746314054
 22
12.71059282851718
 32
0.0
 13
26.45732746314063
 23
12.71059282851718
 33
0.0
  0
LINE
  5
CA9
330
C2B
100
AcDbEntity
  8
0
100
AcDbLine
 10
26.45732746314063
 20
12.71059282851718
 30
0.0
 11
26.45732746314063
 21
11.84059282851717
 31
0.0
  0
LINE
  5
CAA
330
C2B
100
AcDbEntity
  8
0
100
AcDbLine
 10
23.55732746314054
 20
12.71059282851718
 30
0.0
 11
23.55732746314054
 21
8.360592828517184
 31
0.0
  0
SOLID
  5
CAB
330
C2B
100
AcDbEntity
  8
0
100
AcDbTrace
 10
23.55732746314054
 20
12.71059282851718
 30
0.0
 11
23.55732746314054
 21
8.360592828517184
 31
0.0
 12
24.57232746314064
 22
11.84059282851717
 32
0.0
 13
24.57232746314064
 23
9.230592828517188
 33
0.0
  0
LINE
  5
CAC
330
C2B
100
AcDbEntity
  8
0
100
AcDbLine
 10
26.45732746314063
 20
11.84059282851717
 30
0.0
 11
24.57232746314053
 21
11.84059282851717
 31
0.0
  0
LINE
  5
CAD
330
C2B
100
AcDbEntity
  8
0
100
AcDbLine
 10
23.55732746314054
 20
8.360592828517184
 30
0.0
 11
26.45732746314063
 21
8.360592828517184
 31
0.0
  0
LINE
  5
CAE
330
C2B
100
AcDbEntity
  8
0
100
AcDbLine
 10
24.57232746314064
 20
9.230592828517188
 30
0.0
 11
26.45732746314063
 21
9.230592828517188
 31
0.0
  0
LINE
  5
CAF
330
C2B
100
AcDbEntity
  8
0
100
AcDbLine
 10
24.57232746314064
 20
10.18759282851721
 30
0.0
 11
26.45732746314063
 21
10.18759282851721
 31
0.0
  0
LINE
  5
CB0
330
C2B
100
AcDbEntity
  8
0
100
AcDbLine
 10
26.45732746314063
 20
10.88359282851718
 30
0.0
 11
24.57232746314064
 21
10.88359282851718
 31
0.0
  0
SOLID
  5
CB1
330
C2B
100
AcDbEntity
  8
0
100
AcDbTrace
 10
26.45732746314063
 20
10.88359282851718
 30
0.0
 11
26.45732746314063
 21
10.18759282851721
 31
0.0
 12
24.57232746314064
 22
10.88359282851718
 32
0.0
 13
24.57232746314064
 23
10.18759282851721
 33
0.0
  0
SOLID
  5
CB2
330
C2B
100
AcDbEntity
  8
0
100
AcDbTrace
 10
26.45732746314063
 20
9.230592828517188
 30
0.0
 11
26.45732746314063
 21
8.360592828517184
 31
0.0
 12
24.57232746314064
 22
9.230592828517188
 32
0.0
 13
23.55732746314054
 23
8.360592828517184
 33
0.0
  0
LINE
  5
CB3
330
C2B
100
AcDbEntity
  8
0
100
AcDbLine
 10
24.57232746314064
 20
10.18759282851721
 30
0.0
 11
24.57232746314064
 21
9.230592828517188
 31
0.0
  0
LINE
  5
CB4
330
C2B
100
AcDbEntity
  8
0
100
AcDbLine
 10
24.57232746314064
 20
11.84059282851717
 30
0.0
 11
24.57232746314064
 21
10.88359282851718
 31
0.0
  0
ARC
  5
CB5
330
C2B
100
AcDbEntity
  8
0
100
AcDbCircle
 10
27.87885295336951
 20
11.77859699928532
 30
0.0
 40
0.6498164412710881
100
AcDbArc
 50
134.0454032738328
 51
165.1691195883342
  0
ARC
  5
CB6
330
C2B
100
AcDbEntity
  8
0
100
AcDbCircle
 10
30.1421207486225
 20
11.47954864771293
 30
0.0
 40
2.928648209834197
100
AcDbArc
 50
170.856597395888
 51
181.6695435531189
  0
ARC
  5
CB7
330
C2B
100
AcDbEntity
  8
0
100
AcDbCircle
 10
28.31865983294147
 20
11.38629532333698
 30
0.0
 40
1.103972512221106
100
AcDbArc
 50
179.5885658598939
 51
199.0826692789739
  0
ARC
  5
CB8
330
C2B
100
AcDbEntity
  8
0
100
AcDbCircle
 10
28.80945397967927
 20
11.76019198691281
 30
0.0
 40
1.701007720199239
100
AcDbArc
 50
205.5940045082651
 51
230.3394820629443
  0
ARC
  5
CB9
330
C2B
100
AcDbEntity
  8
0
100
AcDbCircle
 10
28.81922230119965
 20
13.89580299676345
 30
0.0
 40
4.801487255683797
100
AcDbArc
 50
250.7345188126701
 51
259.3390053129418
  0
LINE
  5
CBA
330
C2B
100
AcDbEntity
  8
0
100
AcDbLine
 10
27.2349921128346
 20
8.62433966193447
 30
0.0
 11
27.2349921128346
 21
9.363199486994801
 31
0.0
  0
LINE
  5
CBB
330
C2B
100
AcDbEntity
  8
0
100
AcDbLine
 10
26.45732746314063
 20
9.230592828517188
 30
0.0
 11
26.45732746314063
 21
8.360592828517184
 31
0.0
  0
LINE
  5
CBC
330
C2B
100
AcDbEntity
  8
0
100
AcDbLine
 10
26.45732746314063
 20
10.88359282851718
 30
0.0
 11
26.45732746314063
 21
10.18759282851721
 31
0.0
  0
LINE
  5
CBD
330
C2B
100
AcDbEntity
  8
0
100
AcDbLine
 10
26.45732746314063
 20
12.71059282851718
 30
0.0
 11
23.55732746314054
 21
12.71059282851718
 31
0.0
  0
LINE
  5
CBE
330
C2B
100
AcDbEntity
  8
0
100
AcDbLine
 10
30.4669081706591
 20
4.585969168044186
 30
0.0
 11
30.4669081706591
 21
6.035969168044175
 31
0.0
  0
LINE
  5
CBF
330
C2B
100
AcDbEntity
  8
0
100
AcDbLine
 10
29.37751027088398
 20
3.860969168044192
 30
0.0
 11
31.48190817065908
 21
3.860969168044192
 31
0.0
  0
LWPOLYLINE
  5
CC0
330
C2B
100
AcDbEntity
  8
0
100
AcDbPolyline
 90
        2
 70
     0
 43
0.0
 10
30.4669081706591
 20
4.585969168044158
 10
28.21751027088401
 20
4.585969168044158
 42
1.0
  0
LINE
  5
CC1
330
C2B
100
AcDbEntity
  8
0
100
AcDbLine
 10
31.48190817065908
 20
1.975969168044173
 30
0.0
 11
31.48190817065908
 21
3.860969168044192
 31
0.0
  0
LINE
  5
CC2
330
C2B
100
AcDbEntity
  8
0
100
AcDbLine
 10
32.95715850452864
 20
12.71059282851718
 30
0.0
 11
31.50715850452871
 21
12.71059282851718
 31
0.0
  0
LINE
  5
CC3
330
C2B
100
AcDbEntity
  8
0
100
AcDbLine
 10
33.75465850452865
 20
8.360592828517184
 30
0.0
 11
32.52215850452869
 21
10.88759231326366
 31
0.0
  0
SOLID
  5
CC4
330
C2B
100
AcDbEntity
  8
0
100
AcDbTrace
 10
32.95715850452864
 20
12.71059282851718
 30
0.0
 11
32.52215850452869
 21
10.88759231326366
 31
0.0
 12
34.2621585045287
 22
10.03494631525621
 32
0.0
 13
33.75465850452865
 23
8.360592828517184
 33
0.0
  0
SOLID
  5
CC5
330
C2B
100
AcDbEntity
  8
0
100
AcDbTrace
 10
31.50715850452871
 20
12.71059282851718
 30
0.0
 11
32.95715850452864
 21
12.71059282851718
 31
0.0
 12
31.50715850452871
 22
8.360592828517184
 32
0.0
 13
32.52215850452869
 23
10.88759231326366
 33
0.0
  0
LINE
  5
CC6
330
C2B
100
AcDbEntity
  8
0
100
AcDbLine
 10
30.51120742076959
 20
12.46917801985546
 30
0.0
 11
30.51120742076959
 21
11.73031819479513
 31
0.0
  0
SOLID
  5
CC7
330
C2B
100
AcDbEntity
  8
0
100
AcDbTrace
 10
32.52215850452869
 20
8.360592828517184
 30
0.0
 11
31.50715850452871
 21
8.360592828517184
 31
0.0
 12
32.52215850452869
 22
10.88759231326366
 32
0.0
 13
31.50715850452871
 23
12.71059282851718
 33
0.0
  0
LINE
  5
CC8
330
C2B
100
AcDbEntity
  8
0
100
AcDbLine
 10
31.50715850452871
 20
12.71059282851718
 30
0.0
 11
31.50715850452871
 21
8.360592828517184
 31
0.0
  0
ARC
  5
CC9
330
C2B
100
AcDbEntity
  8
0
100
AcDbCircle
 10
28.92697723240467
 20
7.197714685026511
 30
0.0
 40
4.801487255683797
100
AcDbArc
 50
70.73451881267006
 51
79.33900531294175
  0
ARC
  5
CCA
330
C2B
100
AcDbEntity
  8
0
100
AcDbCircle
 10
29.07121040485349
 20
10.19943328542706
 30
0.0
 40
1.839586035715127
100
AcDbArc
 50
288.9241660710542
 51
312.7158447178866
  0
ARC
  5
CCB
330
C2B
100
AcDbEntity
  8
0
100
AcDbCircle
 10
28.93674555392504
 20
9.333325694877146
 30
0.0
 40
1.701007720199239
100
AcDbArc
 50
25.59400450827578
 51
50.33948206294429
  0
ARC
  5
CCC
330
C2B
100
AcDbEntity
  8
0
100
AcDbCircle
 10
28.85377988570751
 20
7.613581051905498
 30
0.0
 40
4.408854546809234
100
AcDbArc
 50
77.4040038370662
 51
93.66514609241917
  0
ARC
  5
CCD
330
C2B
100
AcDbEntity
  8
0
100
AcDbCircle
 10
29.69819735961669
 20
17.64651774341899
 30
0.0
 40
7.657149559417455
100
AcDbArc
 50
260.3660466637705
 51
266.2004658575498
  0
ARC
  5
CCE
330
C2B
100
AcDbEntity
  8
0
100
AcDbCircle
 10
29.13549269483819
 20
9.528788343261282
 30
0.0
 40
0.480602046059761
100
AcDbArc
 50
21.01832223341452
 51
83.39296852603315
  0
ARC
  5
CCF
330
C2B
100
AcDbEntity
  8
0
100
AcDbCircle
 10
29.0247336032118
 20
9.585077114453667
 30
0.0
 40
0.5713032469003038
100
AcDbArc
 50
331.3355395479445
 51
11.72396983130695
  0
ARC
  5
CD0
330
C2B
100
AcDbEntity
  8
0
100
AcDbCircle
 10
29.09708778920519
 20
9.581017072636512
 30
0.0
 40
0.5068268021555121
100
AcDbArc
 50
278.7578663398666
 51
327.812512247667
  0
ARC
  5
CD1
330
C2B
100
AcDbEntity
  8
0
100
AcDbCircle
 10
28.66441447765753
 20
12.70368468765349
 30
0.0
 40
4.361398403766882
100
AcDbArc
 50
268.7247394624481
 51
283.3008820411698
  0
ARC
  5
CD2
330
C2B
100
AcDbEntity
  8
0
100
AcDbCircle
 10
28.70896579912794
 20
8.923135815020145
 30
0.0
 40
2.163893051484705
100
AcDbArc
 50
52.62898263849079
 51
73.33687314973002
  0
ARC
  5
CD3
330
C2B
100
AcDbEntity
  8
0
100
AcDbCircle
 10
28.04800217398763
 20
3.446999938370964
 30
0.0
 40
7.657149559417455
100
AcDbArc
 50
80.3660466637705
 51
86.20046585754984
  0
ARC
  5
CD4
330
C2B
100
AcDbEntity
  8
0
100
AcDbCircle
 10
28.61070683876601
 20
11.56472933852865
 30
0.0
 40
0.480602046059761
100
AcDbArc
 50
201.0183222334251
 51
263.3929685260331
  0
ARC
  5
CD5
330
C2B
100
AcDbEntity
  8
0
100
AcDbCircle
 10
28.7214659303924
 20
11.50844056733626
 30
0.0
 40
0.5713032469003038
100
AcDbArc
 50
151.3355395479444
 51
191.7239698313146
  0
ARC
  5
CD6
330
C2B
100
AcDbEntity
  8
0
100
AcDbCircle
 10
28.64911174439901
 20
11.51250060915342
 30
0.0
 40
0.5068268021555121
100
AcDbArc
 50
98.75786633986663
 51
147.812512247667
  0
ARC
  5
CD7
330
C2B
100
AcDbEntity
  8
0
100
AcDbCircle
 10
29.8673465802347
 20
9.314920682504634
 30
0.0
 40
0.6498164412710881
100
AcDbArc
 50
314.0454032738329
 51
345.1691195883342
  0
ARC
  5
CD8
330
C2B
100
AcDbEntity
  8
0
100
AcDbCircle
 10
27.6040787849817
 20
9.613969034077001
 30
0.0
 40
2.928648209834197
100
AcDbArc
 50
350.856597395888
 51
1.669543553118977
  0
ARC
  5
CD9
330
C2B
100
AcDbEntity
  8
0
100
AcDbCircle
 10
29.42753970066285
 20
9.707222358452952
 30
0.0
 40
1.103972512221106
100
AcDbArc
 50
359.5885658598939
 51
19.08266927897393
  0
LINE
  5
CDA
330
C2B
100
AcDbEntity
  8
0
100
AcDbLine
 10
32.52215850452869
 20
10.88759231326366
 30
0.0
 11
32.52215850452869
 21
8.360592828517184
 31
0.0
  0
LINE
  5
CDB
330
C2B
100
AcDbEntity
  8
0
100
AcDbLine
 10
31.50715850452871
 20
8.360592828517184
 30
0.0
 11
32.52215850452869
 21
8.360592828517184
 31
0.0
  0
ARC
  5
CDC
330
C2B
100
AcDbEntity
  8
0
100
AcDbCircle
 10
29.02622121909433
 20
8.726929686059605
 30
0.0
 40
4.026115573473278
100
AcDbArc
 50
68.35600108479828
 51
87.82740230149016
  0
ARC
  5
CDD
330
C2B
100
AcDbEntity
  8
0
100
AcDbCircle
 10
29.08178505594667
 20
8.38983299413644
 30
0.0
 40
4.361398403766882
100
AcDbArc
 50
88.72473946244808
 51
103.3008820411699
  0
LWPOLYLINE
  5
CDE
330
C2B
100
AcDbEntity
  8
0
100
AcDbPolyline
 90
        3
 70
     0
 43
0.0
 10
35.56715850452865
 20
12.71059282851718
 10
34.2621585045287
 20
10.03494631525621
 10
32.95715850452864
 20
12.71059282851718
  0
SOLID
  5
CDF
330
C2B
100
AcDbEntity
  8
0
100
AcDbTrace
 10
36.00215850452871
 20
10.88759231326366
 30
0.0
 11
37.01715850452869
 21
12.71059282851718
 31
0.0
 12
36.00215850452871
 22
8.360592828517184
 32
0.0
 13
37.01715850452869
 23
8.360592828517184
 33
0.0
  0
SOLID
  5
CE0
330
C2B
100
AcDbEntity
  8
0
100
AcDbTrace
 10
35.56715850452865
 20
12.71059282851718
 30
0.0
 11
37.01715850452869
 21
12.71059282851718
 31
0.0
 12
36.00215850452871
 22
10.88759231326366
 32
0.0
 13
37.01715850452869
 23
8.360592828517184
 33
0.0
  0
SOLID
  5
CE1
330
C2B
100
AcDbEntity
  8
0
100
AcDbTrace
 10
35.56715850452865
 20
12.71059282851718
 30
0.0
 11
36.00215850452871
 21
10.88759231326366
 31
0.0
 12
34.2621585045287
 22
10.03494631525621
 32
0.0
 13
34.76965850452863
 23
8.360592828517184
 33
0.0
  0
LINE
  5
CE2
330
C2B
100
AcDbEntity
  8
0
100
AcDbLine
 10
37.01715850452869
 20
8.360592828517184
 30
0.0
 11
37.01715850452869
 21
12.71059282851718
 31
0.0
  0
LINE
  5
CE3
330
C2B
100
AcDbEntity
  8
0
100
AcDbLine
 10
34.76965850452863
 20
8.360592828517184
 30
0.0
 11
36.00215850452871
 21
10.88759231326366
 31
0.0
  0
SOLID
  5
CE4
330
C2B
100
AcDbEntity
  8
0
100
AcDbTrace
 10
33.75465850452865
 20
8.360592828517184
 30
0.0
 11
34.76965850452863
 21
8.360592828517184
 31
0.0
 12
34.2621585045287
 22
10.03494631525621
 32
0.0
 13
34.2621585045287
 23
10.03494631525621
 33
0.0
  0
LINE
  5
CE5
330
C2B
100
AcDbEntity
  8
0
100
AcDbLine
 10
33.75465850452865
 20
8.360592828517184
 30
0.0
 11
34.76965850452863
 21
8.360592828517184
 31
0.0
  0
LINE
  5
CE6
330
C2B
100
AcDbEntity
  8
0
100
AcDbLine
 10
36.00215850452871
 20
8.360592828517184
 30
0.0
 11
36.00215850452871
 21
10.88759231326366
 31
0.0
  0
LINE
  5
CE7
330
C2B
100
AcDbEntity
  8
0
100
AcDbLine
 10
36.00215850452871
 20
8.360592828517184
 30
0.0
 11
37.01715850452869
 21
8.360592828517184
 31
0.0
  0
LINE
  5
CE8
330
C2B
100
AcDbEntity
  8
0
100
AcDbLine
 10
37.01715850452869
 20
12.71059282851718
 30
0.0
 11
35.56715850452865
 21
12.71059282851718
 31
0.0
  0
LINE
  5
CE9
330
C2B
100
AcDbEntity
  8
0
100
AcDbLine
 10
41.36128133826246
 20
8.360592828517184
 30
0.0
 11
42.52128133826253
 21
8.360592828517184
 31
0.0
  0
SOLID
  5
CEA
330
C2B
100
AcDbEntity
  8
0
100
AcDbTrace
 10
40.9380108192045
 20
12.71059282851718
 30
0.0
 11
40.12865586531158
 21
11.74720348209459
 31
0.0
 12
42.52128133826253
 22
8.360592828517184
 32
0.0
 13
41.36128133826256
 23
8.360592828517184
 33
0.0
  0
LINE
  5
CEB
330
C2B
100
AcDbEntity
  8
0
100
AcDbLine
 10
42.52128133826253
 20
8.360592828517184
 30
0.0
 11
40.9380108192045
 21
12.71059282851718
 31
0.0
  0
LINE
  5
CEC
330
C2B
100
AcDbEntity
  8
0
100
AcDbLine
 10
37.73603039236052
 20
8.360592828517184
 30
0.0
 11
39.31930091141855
 21
12.71059282851718
 31
0.0
  0
SOLID
  5
CED
330
C2B
100
AcDbEntity
  8
0
100
AcDbTrace
 10
40.12865586531158
 20
11.74720348209459
 30
0.0
 11
39.31930091141855
 21
12.71059282851718
 31
0.0
 12
38.8960303923606
 22
8.360592828517212
 32
0.0
 13
37.73603039236052
 23
8.360592828517212
 33
0.0
  0
SOLID
  5
CEE
330
C2B
100
AcDbEntity
  8
0
100
AcDbTrace
 10
39.31930091141855
 20
12.71059282851718
 30
0.0
 11
40.9380108192045
 21
12.71059282851718
 31
0.0
 12
40.12865586531158
 22
11.74720348209459
 32
0.0
 13
40.12865586531158
 23
11.74720348209459
 33
0.0
  0
LINE
  5
CEF
330
C2B
100
AcDbEntity
  8
0
100
AcDbLine
 10
39.42378723204654
 20
9.810592828517201
 30
0.0
 11
40.83352449857652
 21
9.810592828517201
 31
0.0
  0
LINE
  5
CF0
330
C2B
100
AcDbEntity
  8
0
100
AcDbLine
 10
39.42378723204654
 20
9.810592828517201
 30
0.0
 11
40.12865586531158
 21
11.74720348209459
 31
0.0
  0
SOLID
  5
CF1
330
C2B
100
AcDbEntity
  8
0
100
AcDbTrace
 10
40.83352449857652
 20
9.810592828517201
 30
0.0
 11
39.42378723204654
 21
9.810592828517201
 31
0.0
 12
41.04462723445094
 22
9.230592828517188
 32
0.0
 13
39.21268449617212
 23
9.230592828517217
 33
0.0
  0
LINE
  5
CF2
330
C2B
100
AcDbEntity
  8
0
100
AcDbLine
 10
39.21268449617212
 20
9.230592828517217
 30
0.0
 11
41.04462723445094
 21
9.230592828517188
 31
0.0
  0
LINE
  5
CF3
330
C2B
100
AcDbEntity
  8
0
100
AcDbLine
 10
38.89603039236049
 20
8.360592828517184
 30
0.0
 11
39.21268449617212
 21
9.230592828517217
 31
0.0
  0
LINE
  5
CF4
330
C2B
100
AcDbEntity
  8
0
100
AcDbLine
 10
37.73603039236052
 20
8.360592828517212
 30
0.0
 11
38.8960303923606
 21
8.360592828517212
 31
0.0
  0
LINE
  5
CF5
330
C2B
100
AcDbEntity
  8
0
100
AcDbLine
 10
41.36128133826256
 20
8.360592828517184
 30
0.0
 11
41.04462723445094
 21
9.230592828517217
 31
0.0
  0
LINE
  5
CF6
330
C2B
100
AcDbEntity
  8
0
100
AcDbLine
 10
40.83352449857652
 20
9.810592828517201
 30
0.0
 11
40.12865586531158
 21
11.74720348209459
 31
0.0
  0
LINE
  5
CF7
330
C2B
100
AcDbEntity
  8
0
100
AcDbLine
 10
39.31930091141855
 20
12.71059282851718
 30
0.0
 11
40.9380108192045
 21
12.71059282851718
 31
0.0
  0
SOLID
  5
CF8
330
C2B
100
AcDbEntity
  8
0
100
AcDbTrace
 10
44.34723366110111
 20
12.71059282851718
 30
0.0
 11
46.37723366110108
 21
10.03494631525621
 31
0.0
 12
44.34723366110111
 22
10.59029825623466
 32
0.0
 13
46.37723366110108
 23
8.360592828517184
 33
0.0
  0
SOLID
  5
CF9
330
C2B
100
AcDbEntity
  8
0
100
AcDbTrace
 10
43.18723366110105
 20
12.71059282851718
 30
0.0
 11
44.34723366110111
 21
12.71059282851718
 31
0.0
 12
43.18723366110105
 22
8.360592828517184
 32
0.0
 13
44.34723366110111
 23
8.360592828517184
 33
0.0
  0
LINE
  5
CFA
330
C2B
100
AcDbEntity
  8
0
100
AcDbLine
 10
43.18723366110105
 20
12.71059282851718
 30
0.0
 11
43.18723366110105
 21
8.360592828517184
 31
0.0
  0
LINE
  5
CFB
330
C2B
100
AcDbEntity
  8
0
100
AcDbLine
 10
44.34723366110111
 20
12.71059282851718
 30
0.0
 11
46.37723366110108
 21
10.03494631525621
 31
0.0
  0
LINE
  5
CFC
330
C2B
100
AcDbEntity
  8
0
100
AcDbLine
 10
46.37723366110108
 20
12.71059282851718
 30
0.0
 11
46.37723366110108
 21
10.03494631525621
 31
0.0
  0
LINE
  5
CFD
330
C2B
100
AcDbEntity
  8
0
100
AcDbLine
 10
44.34723366110111
 20
10.59029825623466
 30
0.0
 11
46.37723366110108
 21
8.360592828517184
 31
0.0
  0
LINE
  5
CFE
330
C2B
100
AcDbEntity
  8
0
100
AcDbLine
 10
44.34723366110111
 20
10.59029825623463
 30
0.0
 11
44.34723366110111
 21
8.360592828517184
 31
0.0
  0
LINE
  5
CFF
330
C2B
100
AcDbEntity
  8
0
100
AcDbLine
 10
43.18723366110105
 20
8.360592828517184
 30
0.0
 11
44.34723366110111
 21
8.360592828517184
 31
0.0
  0
LINE
  5
D00
330
C2B
100
AcDbEntity
  8
0
100
AcDbLine
 10
44.347233661101
 20
12.71059282851718
 30
0.0
 11
43.18723366110105
 21
12.71059282851718
 31
0.0
  0
SOLID
  5
D01
330
C2B
100
AcDbEntity
  8
0
100
AcDbTrace
 10
49.61919809786346
 20
12.71059282851718
 30
0.0
 11
51.64919809786344
 21
10.03494631525621
 31
0.0
 12
49.61919809786346
 22
10.59029825623466
 32
0.0
 13
51.64919809786344
 23
8.360592828517184
 33
0.0
  0
LINE
  5
D02
330
C2B
100
AcDbEntity
  8
0
100
AcDbLine
 10
49.61919809786346
 20
10.59029825623466
 30
0.0
 11
51.64919809786344
 21
8.360592828517184
 31
0.0
  0
LINE
  5
D03
330
C2B
100
AcDbEntity
  8
0
100
AcDbLine
 10
49.61919809786346
 20
12.71059282851718
 30
0.0
 11
51.64919809786344
 21
10.03494631525621
 31
0.0
  0
SOLID
  5
D04
330
C2B
100
AcDbEntity
  8
0
100
AcDbTrace
 10
49.61919809786346
 20
8.360592828517184
 30
0.0
 11
48.45919809786337
 21
8.360592828517184
 31
0.0
 12
49.61919809786346
 22
12.71059282851718
 32
0.0
 13
48.45919809786337
 23
12.71059282851718
 33
0.0
  0
LINE
  5
D05
330
C2B
100
AcDbEntity
  8
0
100
AcDbLine
 10
48.45919809786337
 20
12.71059282851718
 30
0.0
 11
48.45919809786337
 21
8.360592828517184
 31
0.0
  0
LINE
  5
D06
330
C2B
100
AcDbEntity
  8
0
100
AcDbLine
 10
47.53723366110105
 20
12.71059282851718
 30
0.0
 11
47.53723366110105
 21
8.360592828517184
 31
0.0
  0
LINE
  5
D07
330
C2B
100
AcDbEntity
  8
0
100
AcDbLine
 10
48.45919809786337
 20
8.360592828517184
 30
0.0
 11
49.61919809786346
 21
8.360592828517184
 31
0.0
  0
LINE
  5
D08
330
C2B
100
AcDbEntity
  8
0
100
AcDbLine
 10
49.61919809786346
 20
10.59029825623463
 30
0.0
 11
49.61919809786346
 21
8.360592828517184
 31
0.0
  0
LINE
  5
D09
330
C2B
100
AcDbEntity
  8
0
100
AcDbLine
 10
49.61919809786346
 20
12.71059282851718
 30
0.0
 11
48.45919809786337
 21
12.71059282851718
 31
0.0
  0
SOLID
  5
D0A
330
C2B
100
AcDbEntity
  8
0
100
AcDbTrace
 10
51.64919809786344
 20
12.71059282851718
 30
0.0
 11
52.8091980978634
 21
12.71059282851718
 31
0.0
 12
51.64919809786344
 22
8.360592828517184
 32
0.0
 13
52.8091980978634
 23
8.360592828517184
 33
0.0
  0
LINE
  5
D0B
330
C2B
100
AcDbEntity
  8
0
100
AcDbLine
 10
51.64919809786344
 20
12.71059282851718
 30
0.0
 11
51.64919809786344
 21
10.03494631525621
 31
0.0
  0
LINE
  5
D0C
330
C2B
100
AcDbEntity
  8
0
100
AcDbLine
 10
52.8091980978634
 20
12.71059282851718
 30
0.0
 11
52.8091980978634
 21
8.360592828517184
 31
0.0
  0
LINE
  5
D0D
330
C2B
100
AcDbEntity
  8
0
100
AcDbLine
 10
51.64919809786344
 20
8.360592828517184
 30
0.0
 11
52.8091980978634
 21
8.360592828517184
 31
0.0
  0
LINE
  5
D0E
330
C2B
100
AcDbEntity
  8
0
100
AcDbLine
 10
52.8091980978634
 20
12.71059282851718
 30
0.0
 11
51.64919809786344
 21
12.71059282851718
 31
0.0
  0
ENDBLK
  5
D10
330
C2B
100
AcDbEntity
  8
0
 48
10.0
100
AcDbBlockEnd
  0
BLOCK
  5
1449
330
1447
100
AcDbEntity
  8
0
 48
10.0
100
AcDbBlockBegin
  2
GENAXEH
 70
     0
 10
0.0
 20
0.0
 30
0.0
  3
GENAXEH
  1

  0
LINE
  5
1448
330
1447
100
AcDbEntity
  8
0
100
AcDbLine
 10
-1.0
 20
0.0
 30
0.0
 11
1.0
 21
0.0
 31
0.0
  0
ENDBLK
  5
144A
330
1447
100
AcDbEntity
  8
0
 48
10.0
100
AcDbBlockEnd
  0
BLOCK
  5
1CE2
330
1CD8
100
AcDbEntity
  8
0
 48
10.0
100
AcDbBlockBegin
  2
*D3
 70
     1
 10
0.0
 20
0.0
 30
0.0
  3
*D3
  1

  0
LINE
  5
1F41
330
1CD8
100
AcDbEntity
  8
LINIE
440
 16777216
 48
10.0
370
    -2
100
AcDbLine
 10
390.8029697836139
 20
292.2516883087632
 30
0.0
 11
380.6701838336999
 21
292.2516883087632
 31
0.0
  0
LINE
  5
1F42
330
1CD8
100
AcDbEntity
  8
LINIE
440
 16777216
 48
10.0
370
    -2
100
AcDbLine
 10
394.3560837786565
 20
208.2516883087631
 30
0.0
 11
380.6701838336999
 21
208.2516883087631
 31
0.0
  0
LINE
  5
1F43
330
1CD8
100
AcDbEntity
  8
LINIE
440
 16777216
 48
10.0
370
    -2
100
AcDbLine
 10
381.9201838336999
 20
285.2516883087632
 30
0.0
 11
381.9201838336999
 21
215.2516883087632
 31
0.0
  0
SOLID
  5
1F44
330
1CD8
100
AcDbEntity
  8
LINIE
440
 16777216
 48
10.0
100
AcDbTrace
 10
380.7535171670332
 20
285.2516883087632
 30
0.0
 11
383.0868505003666
 21
285.2516883087632
 31
0.0
 12
381.9201838336999
 22
292.2516883087632
 32
0.0
 13
381.9201838336999
 23
292.2516883087632
 33
0.0
  0
SOLID
  5
1F45
330
1CD8
100
AcDbEntity
  8
LINIE
440
 16777216
 48
10.0
100
AcDbTrace
 10
380.7535171670332
 20
215.2516883087632
 30
0.0
 11
383.0868505003666
 21
215.2516883087632
 31
0.0
 12
381.9201838336999
 22
208.2516883087631
 32
0.0
 13
381.9201838336999
 23
208.2516883087631
 33
0.0
  0
MTEXT
  5
1F46
330
1CD8
100
AcDbEntity
  8
LINIE
440
 16777216
 48
10.0
100
AcDbMText
 10
375.4201838336998
 20
250.2516883087633
 30
0.0
 40
7.0
 41
0.0
 46
0.0
 71
     5
 72
     1
  1
\A1;%%c42
 11
0.0000000000000001
 21
1.0
 31
0.0
 73
     1
 44
1.0
  0
POINT
  5
1F47
330
1CD8
100
AcDbEntity
  8
Defpoints
 62
     0
440
 16777216
 48
10.0
100
AcDbPoint
 10
390.8029697836139
 20
292.2516883087632
 30
0.0
  0
POINT
  5
1F48
330
1CD8
100
AcDbEntity
  8
Defpoints
 62
     0
440
 16777216
 48
10.0
100
AcDbPoint
 10
394.3560837786565
 20
208.2516883087631
 30
0.0
  0
POINT
  5
1F49
330
1CD8
100
AcDbEntity
  8
Defpoints
 62
     0
440
 16777216
 48
10.0
100
AcDbPoint
 10
381.9201838336999
 20
208.2516883087631
 30
0.0
  0
ENDBLK
  5
1CE3
330
1CD8
100
AcDbEntity
  8
0
 48
10.0
100
AcDbBlockEnd
  0
BLOCK
  5
1CEE
330
1CE4
100
AcDbEntity
  8
0
 48
10.0
100
AcDbBlockBegin
  2
*D4
 70
     1
 10
0.0
 20
0.0
 30
0.0
  3
*D4
  1

  0
LINE
  5
1F4A
330
1CE4
100
AcDbEntity
  8
LINIE
440
 16777216
 48
10.0
370
    -2
100
AcDbLine
 10
523.372294856199
 20
292.2516883087632
 30
0.0
 11
523.372294856199
 21
371.996622514648
 31
0.0
  0
LINE
  5
1F4B
330
1CE4
100
AcDbEntity
  8
LINIE
440
 16777216
 48
10.0
370
    -2
100
AcDbLine
 10
283.3722948561992
 20
289.7516883087632
 30
0.0
 11
283.3722948561992
 21
371.996622514648
 31
0.0
  0
LINE
  5
1F4C
330
1CE4
100
AcDbEntity
  8
LINIE
440
 16777216
 48
10.0
370
    -2
100
AcDbLine
 10
516.3722948561989
 20
370.746622514648
 30
0.0
 11
290.3722948561992
 21
370.746622514648
 31
0.0
  0
SOLID
  5
1F4D
330
1CE4
100
AcDbEntity
  8
LINIE
440
 16777216
 48
10.0
100
AcDbTrace
 10
516.3722948561989
 20
371.9132891813147
 30
0.0
 11
516.3722948561989
 21
369.5799558479814
 31
0.0
 12
523.372294856199
 22
370.746622514648
 32
0.0
 13
523.372294856199
 23
370.746622514648
 33
0.0
  0
SOLID
  5
1F4E
330
1CE4
100
AcDbEntity
  8
LINIE
440
 16777216
 48
10.0
100
AcDbTrace
 10
290.3722948561992
 20
371.9132891813147
 30
0.0
 11
290.3722948561992
 21
369.5799558479814
 31
0.0
 12
283.3722948561992
 22
370.746622514648
 32
0.0
 13
283.3722948561992
 23
370.746622514648
 33
0.0
  0
MTEXT
  5
1F4F
330
1CE4
100
AcDbEntity
  8
LINIE
440
 16777216
 48
10.0
100
AcDbMText
 10
403.3722948561991
 20
377.2466225146481
 30
0.0
 40
7.0
 41
0.0
 46
0.0
 71
     5
 72
     1
  1
\A1;120
 73
     1
 44
1.0
  0
POINT
  5
1F50
330
1CE4
100
AcDbEntity
  8
Defpoints
 62
     0
440
 16777216
 48
10.0
100
AcDbPoint
 10
523.372294856199
 20
292.2516883087632
 30
0.0
  0
POINT
  5
1F51
330
1CE4
100
AcDbEntity
  8
Defpoints
 62
     0
440
 16777216
 48
10.0
100
AcDbPoint
 10
283.3722948561992
 20
289.7516883087632
 30
0.0
  0
POINT
  5
1F52
330
1CE4
100
AcDbEntity
  8
Defpoints
 62
     0
440
 16777216
 48
10.0
100
AcDbPoint
 10
283.3722948561992
 20
370.746622514648
 30
0.0
  0
ENDBLK
  5
1CEF
330
1CE4
100
AcDbEntity
  8
0
 48
10.0
100
AcDbBlockEnd
  0
BLOCK
  5
1CFA
330
1CF0
100
AcDbEntity
  8
0
 48
10.0
100
AcDbBlockBegin
  2
*D5
 70
     1
 10
0.0
 20
0.0
 30
0.0
  3
*D5
  1

  0
LINE
  5
1F53
330
1CF0
100
AcDbEntity
  8
LINIE
440
 16777216
 48
10.0
370
    -2
100
AcDbLine
 10
325.372294856199
 20
292.2516883087632
 30
0.0
 11
325.372294856199
 21
346.0578663199088
 31
0.0
  0
LINE
  5
1F54
330
1CF0
100
AcDbEntity
  8
LINIE
440
 16777216
 48
10.0
370
    -2
100
AcDbLine
 10
523.372294856199
 20
292.2516883087632
 30
0.0
 11
523.372294856199
 21
346.0578663199088
 31
0.0
  0
LINE
  5
1F55
330
1CF0
100
AcDbEntity
  8
LINIE
440
 16777216
 48
10.0
370
    -2
100
AcDbLine
 10
332.372294856199
 20
344.8078663199088
 30
0.0
 11
516.3722948561989
 21
344.8078663199088
 31
0.0
  0
SOLID
  5
1F56
330
1CF0
100
AcDbEntity
  8
LINIE
440
 16777216
 48
10.0
100
AcDbTrace
 10
332.372294856199
 20
345.9745329865755
 30
0.0
 11
332.372294856199
 21
343.6411996532422
 31
0.0
 12
325.372294856199
 22
344.8078663199088
 32
0.0
 13
325.372294856199
 23
344.8078663199088
 33
0.0
  0
SOLID
  5
1F57
330
1CF0
100
AcDbEntity
  8
LINIE
440
 16777216
 48
10.0
100
AcDbTrace
 10
516.3722948561989
 20
345.9745329865755
 30
0.0
 11
516.3722948561989
 21
343.6411996532422
 31
0.0
 12
523.372294856199
 22
344.8078663199088
 32
0.0
 13
523.372294856199
 23
344.8078663199088
 33
0.0
  0
MTEXT
  5
1F58
330
1CF0
100
AcDbEntity
  8
LINIE
440
 16777216
 48
10.0
100
AcDbMText
 10
424.3722948561989
 20
351.3078663199089
 30
0.0
 40
7.0
 41
0.0
 46
0.0
 71
     5
 72
     1
  1
\A1;99
 73
     1
 44
1.0
  0
POINT
  5
1F59
330
1CF0
100
AcDbEntity
  8
Defpoints
 62
     0
440
 16777216
 48
10.0
100
AcDbPoint
 10
325.372294856199
 20
292.2516883087632
 30
0.0
  0
POINT
  5
1F5A
330
1CF0
100
AcDbEntity
  8
Defpoints
 62
     0
440
 16777216
 48
10.0
100
AcDbPoint
 10
523.372294856199
 20
292.2516883087632
 30
0.0
  0
POINT
  5
1F5B
330
1CF0
100
AcDbEntity
  8
Defpoints
 62
     0
440
 16777216
 48
10.0
100
AcDbPoint
 10
523.372294856199
 20
344.8078663199088
 30
0.0
  0
ENDBLK
  5
1CFB
330
1CF0
100
AcDbEntity
  8
0
 48
10.0
100
AcDbBlockEnd
  0
BLOCK
  5
1D06
330
1CFC
100
AcDbEntity
  8
0
 48
10.0
100
AcDbBlockBegin
  2
*D6
 70
     1
 10
0.0
 20
0.0
 30
0.0
  3
*D6
  1

  0
LINE
  5
1F5C
330
1CFC
100
AcDbEntity
  8
LINIE
440
 16777216
 48
10.0
370
    -2
100
AcDbLine
 10
185.4569251338149
 20
271.251688308763
 30
0.0
 11
185.4569251338149
 21
397.476285217498
 31
0.0
  0
LINE
  5
1F5D
330
1CFC
100
AcDbEntity
  8
LINIE
440
 16777216
 48
10.0
370
    -2
100
AcDbLine
 10
523.372294856199
 20
292.2516883087632
 30
0.0
 11
523.372294856199
 21
397.476285217498
 31
0.0
  0
LINE
  5
1F5E
330
1CFC
100
AcDbEntity
  8
LINIE
440
 16777216
 48
10.0
370
    -2
100
AcDbLine
 10
192.4569251338149
 20
396.226285217498
 30
0.0
 11
516.3722948561989
 21
396.226285217498
 31
0.0
  0
SOLID
  5
1F5F
330
1CFC
100
AcDbEntity
  8
LINIE
440
 16777216
 48
10.0
100
AcDbTrace
 10
192.4569251338149
 20
397.3929518841647
 30
0.0
 11
192.4569251338149
 21
395.0596185508313
 31
0.0
 12
185.4569251338149
 22
396.226285217498
 32
0.0
 13
185.4569251338149
 23
396.226285217498
 33
0.0
  0
SOLID
  5
1F60
330
1CFC
100
AcDbEntity
  8
LINIE
440
 16777216
 48
10.0
100
AcDbTrace
 10
516.3722948561989
 20
397.3929518841647
 30
0.0
 11
516.3722948561989
 21
395.0596185508313
 31
0.0
 12
523.372294856199
 22
396.226285217498
 32
0.0
 13
523.372294856199
 23
396.226285217498
 33
0.0
  0
MTEXT
  5
1F61
330
1CFC
100
AcDbEntity
  8
LINIE
440
 16777216
 48
10.0
100
AcDbMText
 10
354.414609995007
 20
402.7262852174979
 30
0.0
 40
7.0
 41
0.0
 46
0.0
 71
     5
 72
     1
  1
\A1;169
 73
     1
 44
1.0
  0
POINT
  5
1F62
330
1CFC
100
AcDbEntity
  8
Defpoints
 62
     0
440
 16777216
 48
10.0
100
AcDbPoint
 10
185.4569251338149
 20
271.251688308763
 30
0.0
  0
POINT
  5
1F63
330
1CFC
100
AcDbEntity
  8
Defpoints
 62
     0
440
 16777216
 48
10.0
100
AcDbPoint
 10
523.372294856199
 20
292.2516883087632
 30
0.0
  0
POINT
  5
1F64
330
1CFC
100
AcDbEntity
  8
Defpoints
 62
     0
440
 16777216
 48
10.0
100
AcDbPoint
 10
523.372294856199
 20
396.226285217498
 30
0.0
  0
ENDBLK
  5
1D07
330
1CFC
100
AcDbEntity
  8
0
 48
10.0
100
AcDbBlockEnd
  0
BLOCK
  5
1D12
330
1D08
100
AcDbEntity
  8
0
 48
10.0
100
AcDbBlockBegin
  2
*D7
 70
     1
 10
0.0
 20
0.0
 30
0.0
  3
*D7
  1

  0
LINE
  5
1F65
330
1D08
100
AcDbEntity
  8
LINIE
440
 16777216
 48
10.0
370
    -2
100
AcDbLine
 10
285.3722948561992
 20
291.7516883087632
 30
0.0
 11
305.3500215842032
 21
291.7516883087632
 31
0.0
  0
LINE
  5
1F66
330
1D08
100
AcDbEntity
  8
LINIE
440
 16777216
 48
10.0
370
    -2
100
AcDbLine
 10
285.3722948561992
 20
208.7516883087631
 30
0.0
 11
305.3500215842032
 21
208.7516883087631
 31
0.0
  0
LINE
  5
1F67
330
1D08
100
AcDbEntity
  8
LINIE
440
 16777216
 48
10.0
370
    -2
100
AcDbLine
 10
304.1000215842032
 20
284.7516883087632
 30
0.0
 11
304.1000215842032
 21
215.7516883087631
 31
0.0
  0
SOLID
  5
1F68
330
1D08
100
AcDbEntity
  8
LINIE
440
 16777216
 48
10.0
100
AcDbTrace
 10
302.9333549175365
 20
284.7516883087632
 30
0.0
 11
305.2666882508699
 21
284.7516883087632
 31
0.0
 12
304.1000215842032
 22
291.7516883087632
 32
0.0
 13
304.1000215842032
 23
291.7516883087632
 33
0.0
  0
SOLID
  5
1F69
330
1D08
100
AcDbEntity
  8
LINIE
440
 16777216
 48
10.0
100
AcDbTrace
 10
302.9333549175365
 20
215.7516883087631
 30
0.0
 11
305.2666882508699
 21
215.7516883087631
 31
0.0
 12
304.1000215842032
 22
208.7516883087631
 32
0.0
 13
304.1000215842032
 23
208.7516883087631
 33
0.0
  0
MTEXT
  5
1F6A
330
1D08
100
AcDbEntity
  8
LINIE
440
 16777216
 48
10.0
100
AcDbMText
 10
297.6000215842031
 20
250.2516883087632
 30
0.0
 40
7.0
 41
0.0
 46
0.0
 71
     5
 72
     1
  1
\A1;%%c41.5
 11
0.0000000000000001
 21
1.0
 31
0.0
 73
     1
 44
1.0
  0
POINT
  5
1F6B
330
1D08
100
AcDbEntity
  8
Defpoints
 62
     0
440
 16777216
 48
10.0
100
AcDbPoint
 10
285.3722948561992
 20
291.7516883087632
 30
0.0
  0
POINT
  5
1F6C
330
1D08
100
AcDbEntity
  8
Defpoints
 62
     0
440
 16777216
 48
10.0
100
AcDbPoint
 10
285.3722948561992
 20
208.7516883087631
 30
0.0
  0
POINT
  5
1F6D
330
1D08
100
AcDbEntity
  8
Defpoints
 62
     0
440
 16777216
 48
10.0
100
AcDbPoint
 10
304.1000215842032
 20
208.7516883087631
 30
0.0
  0
ENDBLK
  5
1D13
330
1D08
100
AcDbEntity
  8
0
 48
10.0
100
AcDbBlockEnd
  0
BLOCK
  5
1D1E
330
1D14
100
AcDbEntity
  8
0
 48
10.0
100
AcDbBlockBegin
  2
*D8
 70
     1
 10
0.0
 20
0.0
 30
0.0
  3
*D8
  1

  0
LINE
  5
1F6E
330
1D14
100
AcDbEntity
  8
LINIE
440
 16777216
 48
10.0
370
    -2
100
AcDbLine
 10
187.4569251338149
 20
273.251688308763
 30
0.0
 11
147.1390945211454
 21
273.251688308763
 31
0.0
  0
LINE
  5
1F6F
330
1D14
100
AcDbEntity
  8
LINIE
440
 16777216
 48
10.0
370
    -2
100
AcDbLine
 10
187.4569251338149
 20
227.2516883087631
 30
0.0
 11
147.1390945211454
 21
227.2516883087631
 31
0.0
  0
LINE
  5
1F70
330
1D14
100
AcDbEntity
  8
LINIE
440
 16777216
 48
10.0
370
    -2
100
AcDbLine
 10
148.3890945211454
 20
266.2516883087631
 30
0.0
 11
148.3890945211454
 21
234.251688308763
 31
0.0
  0
SOLID
  5
1F71
330
1D14
100
AcDbEntity
  8
LINIE
440
 16777216
 48
10.0
100
AcDbTrace
 10
147.2224278544788
 20
266.2516883087631
 30
0.0
 11
149.5557611878121
 21
266.2516883087631
 31
0.0
 12
148.3890945211454
 22
273.251688308763
 32
0.0
 13
148.3890945211454
 23
273.251688308763
 33
0.0
  0
SOLID
  5
1F72
330
1D14
100
AcDbEntity
  8
LINIE
440
 16777216
 48
10.0
100
AcDbTrace
 10
147.2224278544788
 20
234.251688308763
 30
0.0
 11
149.5557611878121
 21
234.251688308763
 31
0.0
 12
148.3890945211454
 22
227.2516883087631
 32
0.0
 13
148.3890945211454
 23
227.2516883087631
 33
0.0
  0
MTEXT
  5
1F73
330
1D14
100
AcDbEntity
  8
LINIE
440
 16777216
 48
10.0
100
AcDbMText
 10
141.8890945211454
 20
250.2516883087631
 30
0.0
 40
7.0
 41
0.0
 46
0.0
 71
     5
 72
     1
  1
\A1;%%c23
 11
0.0000000000000001
 21
1.0
 31
0.0
 73
     1
 44
1.0
  0
POINT
  5
1F74
330
1D14
100
AcDbEntity
  8
Defpoints
 62
     0
440
 16777216
 48
10.0
100
AcDbPoint
 10
187.4569251338149
 20
273.251688308763
 30
0.0
  0
POINT
  5
1F75
330
1D14
100
AcDbEntity
  8
Defpoints
 62
     0
440
 16777216
 48
10.0
100
AcDbPoint
 10
187.4569251338149
 20
227.2516883087631
 30
0.0
  0
POINT
  5
1F76
330
1D14
100
AcDbEntity
  8
Defpoints
 62
     0
440
 16777216
 48
10.0
100
AcDbPoint
 10
148.3890945211454
 20
227.2516883087631
 30
0.0
  0
ENDBLK
  5
1D1F
330
1D14
100
AcDbEntity
  8
0
 48
10.0
100
AcDbBlockEnd
  0
BLOCK
  5
1D2A
330
1D20
100
AcDbEntity
  8
0
 48
10.0
100
AcDbBlockBegin
  2
*D9
 70
     1
 10
0.0
 20
0.0
 30
0.0
  3
*D9
  1

  0
LINE
  5
1F77
330
1D20
100
AcDbEntity
  8
LINIE
440
 16777216
 48
10.0
370
    -2
100
AcDbLine
 10
523.372294856199
 20
291.7516883087629
 30
0.0
 11
560.3870700687918
 21
291.7516883087629
 31
0.0
  0
LINE
  5
1F78
330
1D20
100
AcDbEntity
  8
LINIE
440
 16777216
 48
10.0
370
    -2
100
AcDbLine
 10
523.372294856199
 20
208.751688308763
 30
0.0
 11
560.3870700687917
 21
208.751688308763
 31
0.0
  0
LINE
  5
1F79
330
1D20
100
AcDbEntity
  8
LINIE
440
 16777216
 48
10.0
370
    -2
100
AcDbLine
 10
559.1370700687917
 20
284.7516883087629
 30
0.0
 11
559.1370700687916
 21
215.751688308763
 31
0.0
  0
SOLID
  5
1F7A
330
1D20
100
AcDbEntity
  8
LINIE
440
 16777216
 48
10.0
100
AcDbTrace
 10
557.9704034021252
 20
284.7516883087629
 30
0.0
 11
560.3037367354584
 21
284.7516883087629
 31
0.0
 12
559.1370700687917
 22
291.7516883087629
 32
0.0
 13
559.1370700687917
 23
291.7516883087629
 33
0.0
  0
SOLID
  5
1F7B
330
1D20
100
AcDbEntity
  8
LINIE
440
 16777216
 48
10.0
100
AcDbTrace
 10
557.970403402125
 20
215.751688308763
 30
0.0
 11
560.3037367354582
 21
215.751688308763
 31
0.0
 12
559.1370700687916
 22
208.751688308763
 32
0.0
 13
559.1370700687916
 23
208.751688308763
 33
0.0
  0
MTEXT
  5
1F7C
330
1D20
100
AcDbEntity
  8
LINIE
440
 16777216
 48
10.0
100
AcDbMText
 10
552.6370700687916
 20
249.4682947156531
 30
0.0
 40
7.0
 41
0.0
 46
0.0
 71
     5
 72
     1
  1
\A1;%%c41.5
 11
0.0000000000000001
 21
1.0
 31
0.0
 73
     1
 44
1.0
  0
POINT
  5
1F7D
330
1D20
100
AcDbEntity
  8
Defpoints
 62
     0
440
 16777216
 48
10.0
100
AcDbPoint
 10
523.372294856199
 20
291.7516883087629
 30
0.0
  0
POINT
  5
1F7E
330
1D20
100
AcDbEntity
  8
Defpoints
 62
     0
440
 16777216
 48
10.0
100
AcDbPoint
 10
523.372294856199
 20
208.751688308763
 30
0.0
  0
POINT
  5
1F7F
330
1D20
100
AcDbEntity
  8
Defpoints
 62
     0
440
 16777216
 48
10.0
100
AcDbPoint
 10
559.1370700687916
 20
208.751688308763
 30
0.0
  0
ENDBLK
  5
1D2B
330
1D20
100
AcDbEntity
  8
0
 48
10.0
100
AcDbBlockEnd
  0
BLOCK
  5
1D36
330
1D2C
100
AcDbEntity
  8
0
 48
10.0
100
AcDbBlockBegin
  2
*D10
 70
     1
 10
0.0
 20
0.0
 30
0.0
  3
*D10
  1

  0
LINE
  5
1F80
330
1D2C
100
AcDbEntity
  8
LINIE
440
 16777216
 48
10.0
370
    -2
100
AcDbLine
 10
523.372294856199
 20
292.2516883087629
 30
0.0
 11
523.372294856199
 21
322.1850293614824
 31
0.0
  0
LINE
  5
1F81
330
1D2C
100
AcDbEntity
  8
LINIE
440
 16777216
 48
10.0
370
    -2
100
AcDbLine
 10
453.3722948561999
 20
292.2516883087629
 30
0.0
 11
453.3722948561999
 21
322.1850293614824
 31
0.0
  0
LINE
  5
1F82
330
1D2C
100
AcDbEntity
  8
LINIE
440
 16777216
 48
10.0
370
    -2
100
AcDbLine
 10
516.3722948561989
 20
320.9350293614824
 30
0.0
 11
460.3722948561999
 21
320.9350293614824
 31
0.0
  0
SOLID
  5
1F83
330
1D2C
100
AcDbEntity
  8
LINIE
440
 16777216
 48
10.0
100
AcDbTrace
 10
516.3722948561989
 20
322.1016960281491
 30
0.0
 11
516.3722948561989
 21
319.7683626948157
 31
0.0
 12
523.372294856199
 22
320.9350293614824
 32
0.0
 13
523.372294856199
 23
320.9350293614824
 33
0.0
  0
SOLID
  5
1F84
330
1D2C
100
AcDbEntity
  8
LINIE
440
 16777216
 48
10.0
100
AcDbTrace
 10
460.3722948561999
 20
322.1016960281491
 30
0.0
 11
460.3722948561999
 21
319.7683626948157
 31
0.0
 12
453.3722948561999
 22
320.9350293614824
 32
0.0
 13
453.3722948561999
 23
320.9350293614824
 33
0.0
  0
MTEXT
  5
1F85
330
1D2C
100
AcDbEntity
  8
LINIE
440
 16777216
 48
10.0
100
AcDbMText
 10
488.3722948561994
 20
327.4350293614824
 30
0.0
 40
7.0
 41
0.0
 46
0.0
 71
     5
 72
     1
  1
\A1;35
 73
     1
 44
1.0
  0
POINT
  5
1F86
330
1D2C
100
AcDbEntity
  8
Defpoints
 62
     0
440
 16777216
 48
10.0
100
AcDbPoint
 10
523.372294856199
 20
292.2516883087629
 30
0.0
  0
POINT
  5
1F87
330
1D2C
100
AcDbEntity
  8
Defpoints
 62
     0
440
 16777216
 48
10.0
100
AcDbPoint
 10
453.3722948561999
 20
292.2516883087629
 30
0.0
  0
POINT
  5
1F88
330
1D2C
100
AcDbEntity
  8
Defpoints
 62
     0
440
 16777216
 48
10.0
100
AcDbPoint
 10
453.3722948561999
 20
320.9350293614824
 30
0.0
  0
ENDBLK
  5
1D37
330
1D2C
100
AcDbEntity
  8
0
 48
10.0
100
AcDbBlockEnd
  0
BLOCK
  5
1D43
330
1D38
100
AcDbEntity
  8
0
 48
10.0
100
AcDbBlockBegin
  2
*D11
 70
     1
 10
0.0
 20
0.0
 30
0.0
  3
*D11
  1

  0
LINE
  5
1F89
330
1D38
100
AcDbEntity
  8
LINIE
440
 16777216
 48
10.0
370
    -2
100
AcDbLine
 10
30.50473994909783
 20
250.2516883087632
 30
0.0
 11
12.41470585979687
 21
250.2516883087632
 31
0.0
  0
LINE
  5
1F8A
330
1D38
100
AcDbEntity
  8
LINIE
440
 16777216
 48
10.0
370
    -2
100
AcDbLine
 10
90.90709207633073
 20
229.2516883087632
 30
0.0
 11
12.41470585979686
 21
229.2516883087632
 31
0.0
  0
LINE
  5
1F8B
330
1D38
100
AcDbEntity
  8
LINIE
440
 16777216
 48
10.0
370
    -2
100
AcDbLine
 10
13.66470585979687
 20
243.2516883087632
 30
0.0
 11
13.66470585979687
 21
236.2516883087632
 31
0.0
  0
LINE
  5
1F8C
330
1D38
100
AcDbEntity
  8
LINIE
440
 16777216
 48
10.0
370
    -2
100
AcDbLine
 10
13.66470585979687
 20
229.2516883087632
 30
0.0
 11
13.66470585979686
 21
195.9183549754298
 31
0.0
  0
SOLID
  5
1F8D
330
1D38
100
AcDbEntity
  8
LINIE
440
 16777216
 48
10.0
100
AcDbTrace
 10
12.4980391931302
 20
243.2516883087632
 30
0.0
 11
14.83137252646353
 21
243.2516883087632
 31
0.0
 12
13.66470585979687
 22
250.2516883087632
 32
0.0
 13
13.66470585979687
 23
250.2516883087632
 33
0.0
  0
SOLID
  5
1F8E
330
1D38
100
AcDbEntity
  8
LINIE
440
 16777216
 48
10.0
100
AcDbTrace
 10
12.4980391931302
 20
236.2516883087632
 30
0.0
 11
14.83137252646353
 21
236.2516883087632
 31
0.0
 12
13.66470585979687
 22
229.2516883087632
 32
0.0
 13
13.66470585979687
 23
229.2516883087632
 33
0.0
  0
MTEXT
  5
1F8F
330
1D38
100
AcDbEntity
  8
LINIE
440
 16777216
 48
10.0
100
AcDbMText
 10
7.164705859796828
 20
209.0850216420965
 30
0.0
 40
7.0
 41
0.0
 46
0.0
 71
     5
 72
     1
  1
\A1;10.5
 11
0.0000000000000001
 21
1.0
 31
0.0
 73
     1
 44
1.0
  0
POINT
  5
1F90
330
1D38
100
AcDbEntity
  8
Defpoints
 62
     0
440
 16777216
 48
10.0
100
AcDbPoint
 10
30.50473994909783
 20
250.2516883087632
 30
0.0
  0
POINT
  5
1F91
330
1D38
100
AcDbEntity
  8
Defpoints
 62
     0
440
 16777216
 48
10.0
100
AcDbPoint
 10
90.90709207633073
 20
229.2516883087632
 30
0.0
  0
POINT
  5
1F92
330
1D38
100
AcDbEntity
  8
Defpoints
 62
     0
440
 16777216
 48
10.0
100
AcDbPoint
 10
13.66470585979687
 20
229.2516883087632
 30
0.0
  0
ENDBLK
  5
1D44
330
1D38
100
AcDbEntity
  8
0
 48
10.0
100
AcDbBlockEnd
  0
BLOCK
  5
1D51
330
1D45
100
AcDbEntity
  8
0
 48
10.0
100
AcDbBlockBegin
  2
*D12
 70
     1
 10
0.0
 20
0.0
 30
0.0
  3
*D12
  1

  0
LINE
  5
1F93
330
1D45
100
AcDbEntity
  8
LINIE
440
 16777216
 48
10.0
370
    -2
100
AcDbLine
 10
40.92400691674391
 20
265.2516883087632
 30
0.0
 11
12.41470585979691
 21
265.2516883087632
 31
0.0
  0
LINE
  5
1F94
330
1D45
100
AcDbEntity
  8
LINIE
440
 16777216
 48
10.0
370
    -2
100
AcDbLine
 10
30.50473994909783
 20
250.2516883087632
 30
0.0
 11
12.4147058597969
 21
250.2516883087632
 31
0.0
  0
LINE
  5
1F95
330
1D45
100
AcDbEntity
  8
LINIE
440
 16777216
 48
10.0
370
    -2
100
AcDbLine
 10
13.6647058597969
 20
243.2516883087632
 30
0.0
 11
13.6647058597969
 21
236.2516883087632
 31
0.0
  0
LINE
  5
1F96
330
1D45
100
AcDbEntity
  8
LINIE
440
 16777216
 48
10.0
370
    -2
100
AcDbLine
 10
13.66470585979691
 20
272.2516883087632
 30
0.0
 11
13.66470585979691
 21
299.91835497543
 31
0.0
  0
LINE
  5
1F97
330
1D45
100
AcDbEntity
  8
LINIE
440
 16777216
 48
10.0
370
    -2
100
AcDbLine
 10
13.6647058597969
 20
250.2516883087632
 30
0.0
 11
13.66470585979691
 21
265.2516883087632
 31
0.0
  0
SOLID
  5
1F98
330
1D45
100
AcDbEntity
  8
LINIE
440
 16777216
 48
10.0
100
AcDbTrace
 10
12.49803919313024
 20
243.2516883087632
 30
0.0
 11
14.83137252646357
 21
243.2516883087632
 31
0.0
 12
13.6647058597969
 22
250.2516883087632
 32
0.0
 13
13.6647058597969
 23
250.2516883087632
 33
0.0
  0
SOLID
  5
1F99
330
1D45
100
AcDbEntity
  8
LINIE
440
 16777216
 48
10.0
100
AcDbTrace
 10
12.49803919313024
 20
272.2516883087632
 30
0.0
 11
14.83137252646358
 21
272.2516883087632
 31
0.0
 12
13.66470585979691
 22
265.2516883087632
 32
0.0
 13
13.66470585979691
 23
265.2516883087632
 33
0.0
  0
MTEXT
  5
1F9A
330
1D45
100
AcDbEntity
  8
LINIE
440
 16777216
 48
10.0
100
AcDbMText
 10
7.164705859796868
 20
289.5850216420966
 30
0.0
 40
7.0
 41
0.0
 46
0.0
 71
     5
 72
     1
  1
\A1;7.5
 11
0.0000000000000001
 21
1.0
 31
0.0
 73
     1
 44
1.0
  0
POINT
  5
1F9B
330
1D45
100
AcDbEntity
  8
Defpoints
 62
     0
440
 16777216
 48
10.0
100
AcDbPoint
 10
40.92400691674391
 20
265.2516883087632
 30
0.0
  0
POINT
  5
1F9C
330
1D45
100
AcDbEntity
  8
Defpoints
 62
     0
440
 16777216
 48
10.0
100
AcDbPoint
 10
30.50473994909783
 20
250.2516883087632
 30
0.0
  0
POINT
  5
1F9D
330
1D45
100
AcDbEntity
  8
Defpoints
 62
     0
440
 16777216
 48
10.0
100
AcDbPoint
 10
13.6647058597969
 20
250.2516883087632
 30
0.0
  0
ENDBLK
  5
1D52
330
1D45
100
AcDbEntity
  8
0
 48
10.0
100
AcDbBlockEnd
  0
BLOCK
  5
1D5F
330
1D53
100
AcDbEntity
  8
0
 48
10.0
100
AcDbBlockBegin
  2
*D13
 70
     1
 10
0.0
 20
0.0
 30
0.0
  3
*D13
  1

  0
LINE
  5
1F9E
330
1D53
100
AcDbEntity
  8
LINIE
440
 16777216
 48
10.0
370
    -2
100
AcDbLine
 10
56.26974904772078
 20
278.4086883087631
 30
0.0
 11
56.26974904772079
 21
338.5108556892183
 31
0.0
  0
LINE
  5
1F9F
330
1D53
100
AcDbEntity
  8
LINIE
440
 16777216
 48
10.0
370
    -2
100
AcDbLine
 10
74.26974904772078
 20
291.7516883087632
 30
0.0
 11
74.26974904772078
 21
338.5108556892183
 31
0.0
  0
LINE
  5
1FA0
330
1D53
100
AcDbEntity
  8
LINIE
440
 16777216
 48
10.0
370
    -2
100
AcDbLine
 10
49.26974904772079
 20
337.2608556892183
 30
0.0
 11
42.26974904772078
 21
337.2608556892183
 31
0.0
  0
LINE
  5
1FA1
330
1D53
100
AcDbEntity
  8
LINIE
440
 16777216
 48
10.0
370
    -2
100
AcDbLine
 10
81.26974904772078
 20
337.2608556892183
 30
0.0
 11
88.26974904772077
 21
337.2608556892183
 31
0.0
  0
LINE
  5
1FA2
330
1D53
100
AcDbEntity
  8
LINIE
440
 16777216
 48
10.0
370
    -2
100
AcDbLine
 10
56.26974904772079
 20
337.2608556892183
 30
0.0
 11
74.26974904772078
 21
337.2608556892183
 31
0.0
  0
SOLID
  5
1FA3
330
1D53
100
AcDbEntity
  8
LINIE
440
 16777216
 48
10.0
100
AcDbTrace
 10
49.26974904772079
 20
338.4275223558849
 30
0.0
 11
49.26974904772079
 21
336.0941890225516
 31
0.0
 12
56.26974904772079
 22
337.2608556892183
 32
0.0
 13
56.26974904772079
 23
337.2608556892183
 33
0.0
  0
SOLID
  5
1FA4
330
1D53
100
AcDbEntity
  8
LINIE
440
 16777216
 48
10.0
100
AcDbTrace
 10
81.26974904772078
 20
338.4275223558849
 30
0.0
 11
81.26974904772078
 21
336.0941890225516
 31
0.0
 12
74.26974904772078
 22
337.2608556892183
 32
0.0
 13
74.26974904772078
 23
337.2608556892183
 33
0.0
  0
MTEXT
  5
1FA5
330
1D53
100
AcDbEntity
  8
LINIE
440
 16777216
 48
10.0
100
AcDbMText
 10
65.26974904772078
 20
343.7608556892183
 30
0.0
 40
7.0
 41
0.0
 46
0.0
 71
     5
 72
     1
  1
\A1;9
 73
     1
 44
1.0
  0
POINT
  5
1FA6
330
1D53
100
AcDbEntity
  8
Defpoints
 62
     0
440
 16777216
 48
10.0
100
AcDbPoint
 10
56.26974904772078
 20
278.4086883087631
 30
0.0
  0
POINT
  5
1FA7
330
1D53
100
AcDbEntity
  8
Defpoints
 62
     0
440
 16777216
 48
10.0
100
AcDbPoint
 10
74.26974904772078
 20
291.7516883087632
 30
0.0
  0
POINT
  5
1FA8
330
1D53
100
AcDbEntity
  8
Defpoints
 62
     0
440
 16777216
 48
10.0
100
AcDbPoint
 10
74.26974904772078
 20
337.2608556892183
 30
0.0
  0
ENDBLK
  5
1D60
330
1D53
100
AcDbEntity
  8
0
 48
10.0
100
AcDbBlockEnd
  0
BLOCK
  5
1D6B
330
1D61
100
AcDbEntity
  8
0
 48
10.0
100
AcDbBlockBegin
  2
*D14
 70
     1
 10
0.0
 20
0.0
 30
0.0
  3
*D14
  1

  0
LINE
  5
1FA9
330
1D61
100
AcDbEntity
  8
LINIE
440
 16777216
 48
10.0
370
    -2
100
AcDbLine
 10
38.26974904772078
 20
229.6058654866998
 30
0.0
 11
38.26974904772077
 21
157.8673947516266
 31
0.0
  0
LINE
  5
1FAA
330
1D61
100
AcDbEntity
  8
LINIE
440
 16777216
 48
10.0
370
    -2
100
AcDbLine
 10
110.2697490477207
 20
229.6058654867014
 30
0.0
 11
110.2697490477207
 21
157.8673947516266
 31
0.0
  0
LINE
  5
1FAB
330
1D61
100
AcDbEntity
  8
LINIE
440
 16777216
 48
10.0
370
    -2
100
AcDbLine
 10
45.26974904772077
 20
159.1173947516266
 30
0.0
 11
103.2697490477207
 21
159.1173947516266
 31
0.0
  0
SOLID
  5
1FAC
330
1D61
100
AcDbEntity
  8
LINIE
440
 16777216
 48
10.0
100
AcDbTrace
 10
45.26974904772077
 20
160.2840614182932
 30
0.0
 11
45.26974904772077
 21
157.9507280849599
 31
0.0
 12
38.26974904772077
 22
159.1173947516266
 32
0.0
 13
38.26974904772077
 23
159.1173947516266
 33
0.0
  0
SOLID
  5
1FAD
330
1D61
100
AcDbEntity
  8
LINIE
440
 16777216
 48
10.0
100
AcDbTrace
 10
103.2697490477207
 20
160.2840614182932
 30
0.0
 11
103.2697490477207
 21
157.9507280849599
 31
0.0
 12
110.2697490477207
 22
159.1173947516266
 32
0.0
 13
110.2697490477207
 23
159.1173947516266
 33
0.0
  0
MTEXT
  5
1FAE
330
1D61
100
AcDbEntity
  8
LINIE
440
 16777216
 48
10.0
100
AcDbMText
 10
74.26974904772078
 20
165.6173947516266
 30
0.0
 40
7.0
 41
0.0
 46
0.0
 71
     5
 72
     1
  1
\A1;SW36
 73
     1
 44
1.0
  0
POINT
  5
1FAF
330
1D61
100
AcDbEntity
  8
Defpoints
 62
     0
440
 16777216
 48
10.0
100
AcDbPoint
 10
38.26974904772078
 20
229.6058654866998
 30
0.0
  0
POINT
  5
1FB0
330
1D61
100
AcDbEntity
  8
Defpoints
 62
     0
440
 16777216
 48
10.0
100
AcDbPoint
 10
110.2697490477207
 20
229.6058654867014
 30
0.0
  0
POINT
  5
1FB1
330
1D61
100
AcDbEntity
  8
Defpoints
 62
     0
440
 16777216
 48
10.0
100
AcDbPoint
 10
110.2697490477207
 20
159.1173947516266
 30
0.0
  0
ENDBLK
  5
1D6C
330
1D61
100
AcDbEntity
  8
0
 48
10.0
100
AcDbBlockEnd
  0
BLOCK
  5
1D77
330
1D6D
100
AcDbEntity
  8
0
 48
10.0
100
AcDbBlockBegin
  2
*D15
 70
     1
 10
0.0
 20
0.0
 30
0.0
  3
*D15
  1

  0
LINE
  5
1FB2
330
1D6D
100
AcDbEntity
  8
LINIE
440
 16777216
 48
10.0
370
    -2
100
AcDbLine
 10
87.42644554515596
 20
229.2516883087632
 30
0.0
 11
87.42644554515596
 21
181.3464023941706
 31
0.0
  0
LINE
  5
1FB3
330
1D6D
100
AcDbEntity
  8
LINIE
440
 16777216
 48
10.0
370
    -2
100
AcDbLine
 10
61.1130525502856
 20
229.2516883087632
 30
0.0
 11
61.1130525502856
 21
181.3464023941706
 31
0.0
  0
LINE
  5
1FB4
330
1D6D
100
AcDbEntity
  8
LINIE
440
 16777216
 48
10.0
370
    -2
100
AcDbLine
 10
80.42644554515595
 20
182.5964023941706
 30
0.0
 11
68.1130525502856
 21
182.5964023941706
 31
0.0
  0
SOLID
  5
1FB5
330
1D6D
100
AcDbEntity
  8
LINIE
440
 16777216
 48
10.0
100
AcDbTrace
 10
80.42644554515595
 20
183.7630690608372
 30
0.0
 11
80.42644554515595
 21
181.4297357275039
 31
0.0
 12
87.42644554515596
 22
182.5964023941706
 32
0.0
 13
87.42644554515596
 23
182.5964023941706
 33
0.0
  0
SOLID
  5
1FB6
330
1D6D
100
AcDbEntity
  8
LINIE
440
 16777216
 48
10.0
100
AcDbTrace
 10
68.1130525502856
 20
183.7630690608372
 30
0.0
 11
68.1130525502856
 21
181.4297357275039
 31
0.0
 12
61.1130525502856
 22
182.5964023941706
 32
0.0
 13
61.1130525502856
 23
182.5964023941706
 33
0.0
  0
MTEXT
  5
1FB7
330
1D6D
100
AcDbEntity
  8
LINIE
440
 16777216
 48
10.0
100
AcDbMText
 10
74.26974904772078
 20
190.9297357275039
 30
0.0
 40
7.0
 41
0.0
 46
0.0
 71
     5
 72
     1
  1
\A1;G1/4"
 73
     1
 44
1.0
  0
POINT
  5
1FB8
330
1D6D
100
AcDbEntity
  8
Defpoints
 62
     0
440
 16777216
 48
10.0
100
AcDbPoint
 10
87.42644554515596
 20
229.2516883087632
 30
0.0
  0
POINT
  5
1FB9
330
1D6D
100
AcDbEntity
  8
Defpoints
 62
     0
440
 16777216
 48
10.0
100
AcDbPoint
 10
61.1130525502856
 20
229.2516883087632
 30
0.0
  0
POINT
  5
1FBA
330
1D6D
100
AcDbEntity
  8
Defpoints
 62
     0
440
 16777216
 48
10.0
100
AcDbPoint
 10
61.1130525502856
 20
182.5964023941706
 30
0.0
  0
ENDBLK
  5
1D78
330
1D6D
100
AcDbEntity
  8
0
 48
10.0
100
AcDbBlockEnd
  0
BLOCK
  5
1D84
330
1D79
100
AcDbEntity
  8
0
 48
10.0
100
AcDbBlockBegin
  2
*D16
 70
     1
 10
0.0
 20
0.0
 30
0.0
  3
*D16
  1

  0
LINE
  5
1FBB
330
1D79
100
AcDbEntity
  8
LINIE
440
 16777216
 48
10.0
370
    -2
100
AcDbLine
 10
43.11274904772074
 20
265.2516883087632
 30
0.0
 11
43.11274904772074
 21
317.7306033033008
 31
0.0
  0
LINE
  5
1FBC
330
1D79
100
AcDbEntity
  8
LINIE
440
 16777216
 48
10.0
370
    -2
100
AcDbLine
 10
69.4267490477207
 20
265.2516883087632
 30
0.0
 11
69.4267490477207
 21
317.7306033033008
 31
0.0
  0
LINE
  5
1FBD
330
1D79
100
AcDbEntity
  8
LINIE
440
 16777216
 48
10.0
370
    -2
100
AcDbLine
 10
62.4267490477207
 20
316.4806033033008
 30
0.0
 11
50.11274904772074
 21
316.4806033033008
 31
0.0
  0
LINE
  5
1FBE
330
1D79
100
AcDbEntity
  8
LINIE
440
 16777216
 48
10.0
370
    -2
100
AcDbLine
 10
43.11274904772074
 20
316.4806033033008
 30
0.0
 11
-2.053917618945966
 21
316.4806033033008
 31
0.0
  0
SOLID
  5
1FBF
330
1D79
100
AcDbEntity
  8
LINIE
440
 16777216
 48
10.0
100
AcDbTrace
 10
62.4267490477207
 20
317.6472699699675
 30
0.0
 11
62.4267490477207
 21
315.3139366366341
 31
0.0
 12
69.4267490477207
 22
316.4806033033008
 32
0.0
 13
69.4267490477207
 23
316.4806033033008
 33
0.0
  0
SOLID
  5
1FC0
330
1D79
100
AcDbEntity
  8
LINIE
440
 16777216
 48
10.0
100
AcDbTrace
 10
50.11274904772074
 20
317.6472699699675
 30
0.0
 11
50.11274904772074
 21
315.3139366366341
 31
0.0
 12
43.11274904772074
 22
316.4806033033008
 32
0.0
 13
43.11274904772074
 23
316.4806033033008
 33
0.0
  0
MTEXT
  5
1FC1
330
1D79
100
AcDbEntity
  8
LINIE
440
 16777216
 48
10.0
100
AcDbMText
 10
16.27941571438737
 20
324.8139366366341
 30
0.0
 40
7.0
 41
0.0
 46
0.0
 71
     5
 72
     1
  1
\A1;G1/4"
 73
     1
 44
1.0
  0
POINT
  5
1FC2
330
1D79
100
AcDbEntity
  8
Defpoints
 62
     0
440
 16777216
 48
10.0
100
AcDbPoint
 10
43.11274904772074
 20
265.2516883087632
 30
0.0
  0
POINT
  5
1FC3
330
1D79
100
AcDbEntity
  8
Defpoints
 62
     0
440
 16777216
 48
10.0
100
AcDbPoint
 10
69.4267490477207
 20
265.2516883087632
 30
0.0
  0
POINT
  5
1FC4
330
1D79
100
AcDbEntity
  8
Defpoints
 62
     0
440
 16777216
 48
10.0
100
AcDbPoint
 10
69.4267490477207
 20
316.4806033033008
 30
0.0
  0
ENDBLK
  5
1D85
330
1D79
100
AcDbEntity
  8
0
 48
10.0
100
AcDbBlockEnd
  0
ENDSEC
  0
SECTION
  2
ENTITIES
  0
TEXT
  5
1213
330
2
100
AcDbEntity
  8
LINIE
100
AcDbText
 10
521.7400591214925
 20
21.01183466785582
 30
0.0
 40
2.5
  1

100
AcDbText
  0
TEXT
  5
13B2
330
2
100
AcDbEntity
  8
LINIE
100
AcDbText
 10
522.530229395368
 20
21.09418569404531
 30
0.0
 40
2.5
  1

100
AcDbText
  0
LINE
  5
1C5F
330
2
100
AcDbEntity
  8
0
 48
10.0
100
AcDbLine
 10
301.3722948561991
 20
271.251688308763
 30
0.0
 11
365.3722948561996
 21
271.251688308763
 31
0.0
  0
LINE
  5
1C60
330
2
100
AcDbEntity
  8
0
 48
10.0
100
AcDbLine
 10
365.3722948561996
 20
271.0016883087629
 30
0.0
 11
400.3722948561991
 21
271.0016883087629
 31
0.0
  0
LINE
  5
1C61
330
2
100
AcDbEntity
  8
0
 48
10.0
100
AcDbLine
 10
301.3722948561991
 20
229.251688308763
 30
0.0
 11
365.372294856199
 21
229.251688308763
 31
0.0
  0
LINE
  5
1C62
330
2
100
AcDbEntity
  8
0
 48
10.0
100
AcDbLine
 10
365.3722948561991
 20
229.501688308763
 30
0.0
 11
400.3722948561991
 21
229.501688308763
 31
0.0
  0
LINE
  5
1C63
330
2
100
AcDbEntity
  8
0
 48
10.0
100
AcDbLine
 10
281.3722948561992
 20
271.001688308763
 30
0.0
 11
299.8722948561992
 21
271.001688308763
 31
0.0
  0
LINE
  5
1C64
330
2
100
AcDbEntity
  8
0
 48
10.0
100
AcDbLine
 10
281.3722948561992
 20
229.501688308763
 30
0.0
 11
299.8722948561992
 21
229.501688308763
 31
0.0
  0
LINE
  5
1C65
330
2
100
AcDbEntity
  8
0
 48
10.0
100
AcDbLine
 10
280.3722948561993
 20
270.0016883087631
 30
0.0
 11
280.3722948561993
 21
230.5016883087629
 31
0.0
  0
LINE
  5
1C66
330
2
100
AcDbEntity
  8
0
 48
10.0
100
AcDbLine
 10
281.3722948561992
 20
229.501688308763
 30
0.0
 11
280.3722948561993
 21
230.501688308763
 31
0.0
  0
LINE
  5
1C67
330
2
100
AcDbEntity
  8
0
 48
10.0
100
AcDbLine
 10
281.3722948561992
 20
271.001688308763
 30
0.0
 11
280.3722948561993
 21
270.001688308763
 31
0.0
  0
LINE
  5
1C68
330
2
100
AcDbEntity
  8
0
 48
10.0
100
AcDbLine
 10
299.8722948561992
 20
232.251688308763
 30
0.0
 11
301.3722948561991
 21
232.251688308763
 31
0.0
  0
LINE
  5
1C69
330
2
100
AcDbEntity
  8
LINIE
 48
10.0
100
AcDbLine
 10
299.8722948561992
 20
233.171688308763
 30
0.0
 11
301.3722948561991
 21
233.171688308763
 31
0.0
  0
LINE
  5
1C6A
330
2
100
AcDbEntity
  8
0
 48
10.0
100
AcDbLine
 10
299.8722948561991
 20
268.2516883087631
 30
0.0
 11
301.3722948561991
 21
268.2516883087631
 31
0.0
  0
LINE
  5
1C6B
330
2
100
AcDbEntity
  8
LINIE
 48
10.0
100
AcDbLine
 10
299.8722948561991
 20
267.331688308763
 30
0.0
 11
301.3722948561991
 21
267.331688308763
 31
0.0
  0
LINE
  5
1C6C
330
2
100
AcDbEntity
  8
0
 48
10.0
100
AcDbLine
 10
301.3722948561991
 20
271.251688308763
 30
0.0
 11
301.3722948561991
 21
229.251688308763
 31
0.0
  0
LINE
  5
1C6D
330
2
100
AcDbEntity
  8
0
 48
10.0
100
AcDbLine
 10
299.8722948561991
 20
271.001688308763
 30
0.0
 11
299.8722948561992
 21
229.501688308763
 31
0.0
  0
LINE
  5
1C71
330
2
100
AcDbEntity
  8
0
100
AcDbLine
 10
400.3722948561991
 20
271.251688308763
 30
0.0
 11
400.3722948561991
 21
229.251688308763
 31
0.0
  0
LINE
  5
1C78
330
2
100
AcDbEntity
  8
0
 48
10.0
100
AcDbLine
 10
277.3722948561992
 20
269.251688308763
 30
0.0
 11
277.3722948561992
 21
231.2516883087629
 31
0.0
  0
ARC
  5
1C79
330
2
100
AcDbEntity
  8
0
 48
10.0
100
AcDbCircle
 10
273.1946695452444
 20
235.2516883087629
 30
0.0
 40
3.0
100
AcDbArc
 50
14.99999999999917
 51
90.0
  0
LINE
  5
1C7D
330
2
100
AcDbEntity
  8
0
 48
10.0
100
AcDbLine
 10
277.3722948561992
 20
231.2516883087629
 30
0.0
 11
280.3722948561993
 21
231.2516883087629
 31
0.0
  0
LINE
  5
1C7E
330
2
100
AcDbEntity
  8
0
 48
10.0
100
AcDbLine
 10
277.3722948561992
 20
231.2516883087629
 30
0.0
 11
276.0924470241117
 21
236.0281454440705
 31
0.0
  0
LINE
  5
1C80
330
2
100
AcDbEntity
  8
0
 48
10.0
100
AcDbLine
 10
277.3722948561992
 20
269.251688308763
 30
0.0
 11
280.3722948561993
 21
269.251688308763
 31
0.0
  0
LINE
  5
1C82
330
2
100
AcDbEntity
  8
0
 48
10.0
100
AcDbLine
 10
249.414609995007
 20
240.7516883087629
 30
0.0
 11
267.3722948561992
 21
240.7516883087629
 31
0.0
  0
LINE
  5
1C83
330
2
100
AcDbEntity
  8
0
 48
10.0
100
AcDbLine
 10
249.414609995007
 20
259.7516883087629
 30
0.0
 11
267.3722948561992
 21
259.751688308763
 31
0.0
  0
LINE
  5
1C84
330
2
100
AcDbEntity
  8
LINIE
 48
10.0
100
AcDbLine
 10
232.414609995007
 20
255.9305966545632
 30
0.0
 11
238.414609995007
 21
244.5727799629627
 31
0.0
  0
LINE
  5
1C85
330
2
100
AcDbEntity
  8
LINIE
 48
10.0
100
AcDbLine
 10
238.414609995007
 20
255.9305966545632
 30
0.0
 11
232.414609995007
 21
244.5727799629627
 31
0.0
  0
ELLIPSE
  5
1C86
330
2
100
AcDbEntity
  8
0
 48
10.0
100
AcDbEllipse
 10
232.414609995007
 20
250.2516883087629
 30
0.0
 11
-0.0000000000000071
 21
5.678908345800266
 31
0.0
210
0.0
220
0.0
230
1.0
 40
0.1760901812651262
 41
0.0
 42
3.141592653589793
  0
LINE
  5
1C87
330
2
100
AcDbEntity
  8
0
100
AcDbLine
 10
238.414609995007
 20
255.9305966545632
 30
0.0
 11
238.414609995007
 21
244.5727799629627
 31
0.0
1001
ACAD
1000
ASC_BOUNDS
1002
{
1070
    19
1005
0
1002
}
  0
LINE
  5
1C88
330
2
100
AcDbEntity
  8
0
 48
10.0
100
AcDbLine
 10
253.3722948561996
 20
240.751688308763
 30
0.0
 11
253.3722948561996
 21
259.7516883087629
 31
0.0
  0
LINE
  5
1C89
330
2
100
AcDbEntity
  8
0
100
AcDbLine
 10
249.4146099950069
 20
261.751688308763
 30
0.0
 11
249.414609995007
 21
238.7516883087629
 31
0.0
1001
ACAD
1000
ASC_BOUNDS
1002
{
1070
    19
1005
0
1002
}
  0
LINE
  5
1C8A
330
2
100
AcDbEntity
  8
0
100
AcDbLine
 10
231.414609995007
 20
260.751688308763
 30
0.0
 11
231.414609995007
 21
250.2516883087629
 31
0.0
1001
ACAD
1000
ASC_BOUNDS
1002
{
1070
    19
1005
0
1002
}
  0
LINE
  5
1C8B
330
2
100
AcDbEntity
  8
0
100
AcDbLine
 10
249.414609995007
 20
238.7516883087629
 30
0.0
 11
232.414609995007
 21
238.7516883087629
 31
0.0
1001
ACAD
1000
ASC_BOUNDS
1002
{
1070
    19
1005
0
1002
}
  0
LINE
  5
1C8C
330
2
100
AcDbEntity
  8
0
100
AcDbLine
 10
231.414609995007
 20
239.751688308763
 30
0.0
 11
231.414609995007
 21
250.2516883087629
 31
0.0
1001
ACAD
1000
ASC_BOUNDS
1002
{
1070
    19
1005
0
1002
}
  0
LINE
  5
1C8D
330
2
100
AcDbEntity
  8
0
100
AcDbLine
 10
231.414609995007
 20
250.2516883087629
 30
0.0
 11
231.414609995007
 21
244.0610893855214
 31
0.0
  0
LINE
  5
1C8E
330
2
100
AcDbEntity
  8
0
 48
10.0
100
AcDbLine
 10
232.414609995007
 20
244.5727799629627
 30
0.0
 11
238.414609995007
 21
244.5727799629627
 31
0.0
  0
LINE
  5
1C8F
330
2
100
AcDbEntity
  8
0
 48
10.0
100
AcDbLine
 10
232.414609995007
 20
244.5727799629627
 30
0.0
 11
232.414609995007
 21
238.7516883087629
 31
0.0
  0
LINE
  5
1C90
330
2
100
AcDbEntity
  8
0
 48
10.0
100
AcDbLine
 10
231.414609995007
 20
239.7516883087629
 30
0.0
 11
232.414609995007
 21
238.7516883087629
 31
0.0
  0
LINE
  5
1C92
330
2
100
AcDbEntity
  8
LINIE
 48
10.0
100
AcDbLine
 10
249.414609995007
 20
241.401688308763
 30
0.0
 11
253.3722948561996
 21
241.4016883087629
 31
0.0
  0
LINE
  5
1C93
330
2
100
AcDbEntity
  8
0
100
AcDbLine
 10
249.414609995007
 20
261.7516883087629
 30
0.0
 11
232.414609995007
 21
261.7516883087629
 31
0.0
1001
ACAD
1000
ASC_BOUNDS
1002
{
1070
    19
1005
0
1002
}
  0
LINE
  5
1C94
330
2
100
AcDbEntity
  8
0
 48
10.0
100
AcDbLine
 10
232.414609995007
 20
255.9305966545632
 30
0.0
 11
238.414609995007
 21
255.9305966545632
 31
0.0
  0
LINE
  5
1C95
330
2
100
AcDbEntity
  8
0
 48
10.0
100
AcDbLine
 10
232.414609995007
 20
261.7516883087629
 30
0.0
 11
232.414609995007
 21
255.9305966545632
 31
0.0
  0
LINE
  5
1C96
330
2
100
AcDbEntity
  8
0
 48
10.0
100
AcDbLine
 10
232.414609995007
 20
261.7516883087629
 30
0.0
 11
231.414609995007
 21
260.751688308763
 31
0.0
  0
LINE
  5
1C97
330
2
100
AcDbEntity
  8
LINIE
 48
10.0
100
AcDbLine
 10
249.414609995007
 20
259.1016883087629
 30
0.0
 11
253.3722948561996
 21
259.1016883087629
 31
0.0
  0
LINE
  5
1C98
330
2
100
AcDbEntity
  8
0
 48
10.0
100
AcDbLine
 10
267.3722948561992
 20
262.2516883087629
 30
0.0
 11
267.3722948561992
 21
238.2516883087629
 31
0.0
  0
LINE
  5
1C99
330
2
100
AcDbEntity
  8
LINIE
 48
10.0
100
AcDbLine
 10
256.3722948561996
 20
254.4943289958824
 30
0.0
 11
266.3722948561996
 21
246.0090476216435
 31
0.0
  0
LINE
  5
1C9A
330
2
100
AcDbEntity
  8
LINIE
 48
10.0
100
AcDbLine
 10
256.3722948561996
 20
246.0090476216435
 30
0.0
 11
266.3722948561996
 21
254.4943289958824
 31
0.0
  0
LINE
  5
1C9B
330
2
100
AcDbEntity
  8
0
 48
10.0
100
AcDbLine
 10
266.3722948561996
 20
246.0090476216435
 30
0.0
 11
266.3722948561996
 21
254.4943289958824
 31
0.0
  0
LINE
  5
1C9C
330
2
100
AcDbEntity
  8
0
 48
10.0
100
AcDbLine
 10
256.3722948561996
 20
246.0090476216435
 30
0.0
 11
256.3722948561996
 21
254.4943289958824
 31
0.0
  0
LINE
  5
1C9E
330
2
100
AcDbEntity
  8
0
 48
10.0
100
AcDbLine
 10
266.3722948561996
 20
246.0090476216435
 30
0.0
 11
256.3722948561996
 21
246.0090476216435
 31
0.0
  0
LINE
  5
1CA0
330
2
100
AcDbEntity
  8
0
 48
10.0
100
AcDbLine
 10
267.3722948561992
 20
238.2516883087629
 30
0.0
 11
273.1946695452444
 21
238.2516883087629
 31
0.0
  0
LINE
  5
1CA1
330
2
100
AcDbEntity
  8
0
 48
10.0
100
AcDbLine
 10
266.3722948561996
 20
254.4943289958824
 30
0.0
 11
256.3722948561996
 21
254.4943289958824
 31
0.0
  0
ARC
  5
1CA2
330
2
100
AcDbEntity
  8
0
 48
10.0
100
AcDbCircle
 10
273.1946695452444
 20
265.251688308763
 30
0.0
 40
3.0
100
AcDbArc
 50
270.0
 51
345.0000000000009
  0
LINE
  5
1CA3
330
2
100
AcDbEntity
  8
0
 48
10.0
100
AcDbLine
 10
267.3722948561992
 20
262.2516883087629
 30
0.0
 11
273.1946695452444
 21
262.2516883087629
 31
0.0
  0
LINE
  5
1CA4
330
2
100
AcDbEntity
  8
0
 48
10.0
100
AcDbLine
 10
277.3722948561992
 20
269.251688308763
 30
0.0
 11
276.0924470241117
 21
264.4752311734554
 31
0.0
  0
LINE
  5
1CAF
330
2
100
AcDbEntity
  8
0
 48
10.0
100
AcDbLine
 10
281.3722948561994
 20
271.0016883087631
 30
0.0
 11
281.3722948561992
 21
229.501688308763
 31
0.0
  0
LINE
  5
1CB0
330
2
100
AcDbEntity
  8
MITTE
 48
10.0
100
AcDbLine
 10
403.1576199633847
 20
250.251688308763
 30
0.0
 11
228.8412828902003
 21
250.251688308763
 31
0.0
  0
LINE
  5
1CB4
330
2
100
AcDbEntity
  8
0
 48
10.0
100
AcDbLine
 10
365.372294856199
 20
231.901688308763
 30
0.0
 11
365.372294856199
 21
229.2516883087631
 31
0.0
  0
LINE
  5
1CB5
330
2
100
AcDbEntity
  8
0
 48
10.0
100
AcDbLine
 10
365.3722948561991
 20
231.901688308763
 30
0.0
 11
365.3722948561991
 21
229.251688308763
 31
0.0
1001
ACAD
1000
ASC_BOUNDS
1002
{
1070
    19
1002
}
  0
LINE
  5
1CB6
330
2
100
AcDbEntity
  8
0
 48
10.0
100
AcDbLine
 10
365.3722948561996
 20
271.251688308763
 30
0.0
 11
365.3722948561991
 21
229.501688308763
 31
0.0
  0
LINE
  5
1CB7
330
2
100
AcDbEntity
  8
0
 48
10.0
100
AcDbLine
 10
365.3722948561991
 20
231.901688308763
 30
0.0
 11
365.3722948561991
 21
231.251688308763
 31
0.0
1001
ACAD
1000
ASC_BOUNDS
1002
{
1070
    19
1002
}
  0
LINE
  5
1CB8
330
2
100
AcDbEntity
  8
0
 48
10.0
100
AcDbLine
 10
365.3722948561991
 20
231.901688308763
 30
0.0
 11
365.3722948561991
 21
231.2516883087629
 31
0.0
1001
ACAD
1000
ASC_BOUNDS
1002
{
1070
    19
1002
}
  0
CIRCLE
  5
1CBC
330
2
100
AcDbEntity
  8
0
 48
10.0
100
AcDbCircle
 10
197.8207804591166
 20
250.251688308763
 30
0.0
 40
20.75
  0
LINE
  5
1CBD
330
2
100
AcDbEntity
  8
MITTE
 48
10.0
100
AcDbLine
 10
212.6821292018481
 20
250.251688308763
 30
0.0
 11
206.7760974803227
 21
250.251688308763
 31
0.0
  0
LINE
  5
1CBE
330
2
100
AcDbEntity
  8
MITTE
 48
10.0
100
AcDbLine
 10
175.9382759098053
 20
250.251688308763
 30
0.0
 11
219.2173457745897
 21
250.251688308763
 31
0.0
  0
LINE
  5
1CBF
330
2
100
AcDbEntity
  8
MITTE
 48
10.0
100
AcDbLine
 10
197.8207804591168
 20
271.7140958358383
 30
0.0
 11
197.8207804591168
 21
229.1423233780561
 31
0.0
  0
LINE
  5
1CC0
330
2
100
AcDbEntity
  8
MITTE
 48
10.0
100
AcDbLine
 10
182.9594317163855
 20
250.251688308763
 30
0.0
 11
187.7955610914998
 21
250.251688308763
 31
0.0
  0
LINE
  5
1CC1
330
2
100
AcDbEntity
  8
MITTE
 48
10.0
100
AcDbLine
 10
187.7955610914998
 20
250.251688308763
 30
0.0
 11
188.8654634379109
 21
250.251688308763
 31
0.0
  0
LINE
  5
1CC2
330
2
100
AcDbEntity
  8
MITTE
 48
10.0
100
AcDbLine
 10
188.8207804591168
 20
265.3796877178321
 30
0.0
 11
188.8207804591168
 21
249.4804789919271
 31
0.0
  0
LINE
  5
1CC3
330
2
100
AcDbEntity
  8
MITTE
 48
10.0
100
AcDbLine
 10
196.8403278607429
 20
257.7516883087631
 30
0.0
 11
181.1479093936283
 21
257.7516883087631
 31
0.0
  0
CIRCLE
  5
1CC4
330
2
100
AcDbEntity
  8
0
 48
10.0
100
AcDbCircle
 10
188.8207804591168
 20
257.7516883087631
 30
0.0
 40
5.7225
  0
ARC
  5
1CC5
330
2
100
AcDbEntity
  8
LINIE
 48
10.0
100
AcDbCircle
 10
188.8207804591168
 20
257.7516883087631
 30
0.0
 40
6.5785
100
AcDbArc
 50
68.69003504227577
 51
16.22291202216739
  0
ARC
  5
1CC6
330
2
100
AcDbEntity
  8
LINIE
 48
10.0
100
AcDbCircle
 10
197.8207804591168
 20
239.707005329969
 30
0.0
 40
6.5785
100
AcDbArc
 50
163.7770879778326
 51
111.3099649577242
  0
CIRCLE
  5
1CC7
330
2
100
AcDbEntity
  8
0
 48
10.0
100
AcDbCircle
 10
197.8207804591168
 20
239.707005329969
 30
0.0
 40
5.7225
  0
TEXT
  5
1CCB
330
2
100
AcDbEntity
  8
0
100
AcDbText
 10
204.2528479462971
 20
241.9934807236255
 30
0.0
 40
4.0
  1
EXH
 41
0.85
100
AcDbText
  0
LINE
  5
1CCC
330
2
100
AcDbEntity
  8
MITTE
 48
10.0
100
AcDbLine
 10
188.3216037977188
 20
239.7516883087631
 30
0.0
 11
206.1394519734218
 21
239.7516883087631
 31
0.0
  0
LINE
  5
1CD0
330
2
100
AcDbEntity
  8
0
 48
10.0
100
AcDbLine
 10
179.8207804591168
 20
260.5745997197947
 30
0.0
 11
179.8207804591168
 21
239.9287768977313
 31
0.0
  0
LINE
  5
1CD1
330
2
100
AcDbEntity
  8
0
 48
10.0
100
AcDbLine
 10
215.8207804591168
 20
260.5745997197939
 30
0.0
 11
215.8207804591168
 21
239.9287768977322
 31
0.0
  0
TEXT
  5
1CD5
330
2
100
AcDbEntity
  8
0
100
AcDbText
 10
190.9280007380371
 20
264.6377059092606
 30
0.0
 40
4.0
  1
L
 41
0.85
100
AcDbText
  0
ENDSEC
  0
SECTION
  2
OBJECTS
  0
DICTIONARY
  5
1A
330
0
100
AcDbDictionary
281
     1
  3
ACAD_CIP_PREVIOUS_PRODUCT_INFO
350
2001
  3
ACAD_COLOR
350
13C3
  3
ACAD_DETAILVIEWSTYLE
350
1FF9
  3
ACAD_GROUP
350
18
  3
ACAD_LAYOUT
350
99
  3
ACAD_MATERIAL
350
13C2
  3
ACAD_MLEADERSTYLE
350
1E65
  3
ACAD_MLINESTYLE
350
19
  3
ACAD_PLOTSETTINGS
350
9A
  3
ACAD_PLOTSTYLENAME
350
97
  3
ACAD_SCALELIST
350
1E43
  3
ACAD_SECTIONVIEWSTYLE
350
1FF7
  3
ACAD_TABLESTYLE
350
1458
  3
ACAD_VISUALSTYLE
350
19F4
  3
ACDB_RECOMPOSE_DATA
350
202D
  3
ACDBVARIABLEDICTIONARY
350
7D
  3
AcmDictionary
350
AF
  3
AMG
350
A0
  3
AMGSNAPSETTINGS
350
C0
  3
ASE_INDEX_DICTIONARY
350
2026
  0
DICTIONARY
  5
1EA0
330
8
100
AcDbDictionary
280
     1
281
     1
  3
ADSK_XREC_LAYER_RECONCILED
360
1EA1
  0
DICTIONARY
  5
1EA2
330
27
100
AcDbDictionary
280
     1
281
     1
  3
ADSK_XREC_LAYER_RECONCILED
360
1EA3
  0
DICTIONARY
  5
1EA4
330
22
100
AcDbDictionary
280
     1
281
     1
  3
ADSK_XREC_LAYER_RECONCILED
360
1EA5
  0
DICTIONARY
  5
1EA8
330
20
100
AcDbDictionary
280
     1
281
     1
  3
ADSK_XREC_LAYER_RECONCILED
360
1EA9
  0
DICTIONARY
  5
7F
330
2
100
AcDbDictionary
280
     1
281
     1
  3
ACAD_SORTENTS
360
14ED
  0
XRECORD
  5
2001
102
{ACAD_REACTORS
330
1A
102
}
330
1A
100
AcDbXrecord
280
     1
300
AMECH_PP
300
2013
300
PDSP_F_S
  0
DICTIONARY
  5
13C3
102
{ACAD_REACTORS
330
1A
102
}
330
1A
100
AcDbDictionary
281
     1
  0
DICTIONARY
  5
1FF9
102
{ACAD_REACTORS
330
1A
102
}
330
1A
100
AcDbDictionary
281
     1
  3
Imperial24
350
1FFA
  0
DICTIONARY
  5
18
102
{ACAD_REACTORS
330
1A
102
}
330
1A
100
AcDbDictionary
281
     1
  0
DICTIONARY
  5
99
102
{ACAD_REACTORS
330
1A
102
}
330
1A
100
AcDbDictionary
281
     1
  3
Layout1
350
9C
  3
Model
350
9B
  0
DICTIONARY
  5
13C2
102
{ACAD_REACTORS
330
1A
102
}
330
1A
100
AcDbDictionary
281
     1
  3
ByBlock
350
19F2
  3
ByLayer
350
19F1
  3
Global
350
19F3
  0
DICTIONARY
  5
1E65
102
{ACAD_REACTORS
330
1A
102
}
330
1A
100
AcDbDictionary
281
     1
  3
Standard
350
1E66
  0
DICTIONARY
  5
19
102
{ACAD_REACTORS
330
1A
102
}
330
1A
100
AcDbDictionary
281
     1
  3
STANDARD
350
1C
  0
DICTIONARY
  5
9A
102
{ACAD_REACTORS
330
1A
102
}
330
1A
100
AcDbDictionary
281
     1
  0
ACDBDICTIONARYWDFLT
  5
97
102
{ACAD_REACTORS
330
1A
102
}
330
1A
100
AcDbDictionary
281
     1
  3
Normal
350
98
100
AcDbDictionaryWithDefault
340
98
  0
DICTIONARY
  5
1E43
102
{ACAD_REACTORS
330
1A
102
}
330
1A
100
AcDbDictionary
281
     1
  3
A0
350
1E44
  3
A1
350
1E45
  3
A2
350
1E46
  3
A3
350
1E47
  3
A4
350
1E48
  3
A5
350
1E49
  3
A6
350
1E4A
  3
A7
350
1E4B
  3
A8
350
1E4C
  3
A9
350
1E4D
  3
B0
350
1E4E
  3
B1
350
1E4F
  3
B2
350
1E50
  3
B3
350
1E51
  3
B4
350
1E52
  3
B5
350
1E53
  3
B6
350
1E54
  3
B7
350
1E55
  3
B8
350
1E56
  3
B9
350
1E57
  3
C0
350
1E58
  3
C1
350
1E59
  3
C2
350
1E5A
  3
C3
350
1E5B
  3
C4
350
1E5C
  3
C5
350
1E5D
  3
C6
350
1E5E
  3
C7
350
1E5F
  3
C8
350
1E60
  3
C9
350
1E61
  3
D0
350
1E62
  3
D1
350
1E63
  3
D2
350
1E64
  0
DICTIONARY
  5
1FF7
102
{ACAD_REACTORS
330
1A
102
}
330
1A
100
AcDbDictionary
281
     1
  3
Imperial24
350
1FF8
  0
DICTIONARY
  5
1458
102
{ACAD_REACTORS
330
1A
102
}
330
1A
100
AcDbDictionary
281
     1
  3
Standard
350
1459
  0
DICTIONARY
  5
19F4
102
{ACAD_REACTORS
330
1A
102
}
330
1A
100
AcDbDictionary
281
     1
  3
2dWireframe
350
19FA
  3
3D Hidden
350
19FC
  3
3dWireframe
350
19FB
  3
Basic
350
19F9
  3
Brighten
350
1A00
  3
ColorChange
350
1A04
  3
Conceptual
350
19FD
  3
Dim
350
19FF
  3
EdgeColorOff
350
1FF6
  3
Facepattern
350
1A03
  3
Flat
350
19F5
  3
FlatWithEdges
350
19F6
  3
Gouraud
350
19F7
  3
GouraudWithEdges
350
19F8
  3
Hidden
350
1FEE
  3
JitterOff
350
1FF4
  3
Linepattern
350
1A02
  3
OverhangOff
350
1FF5
  3
Realistic
350
19FE
  3
Shaded
350
1FF3
  3
Shaded with edges
350
1FF2
  3
Shades of Gray
350
1FEF
  3
Sketchy
350
1FF0
  3
Thicken
350
1A01
  3
Wireframe
350
1FED
  3
X-Ray
350
1FF1
  0
XRECORD
  5
202D
102
{ACAD_REACTORS
330
1A
102
}
330
1A
100
AcDbXrecord
280
     1
 90
        1
330
1459
  0
DICTIONARY
  5
7D
102
{ACAD_REACTORS
330
1A
102
}
330
1A
100
AcDbDictionary
281
     1
  3
CANNOSCALE
350
1EB4
  3
CMLEADERSTYLE
350
1EB2
  3
CTABLESTYLE
350
1483
  3
CVIEWDETAILSTYLE
350
2028
  3
CVIEWSECTIONSTYLE
350
2029
  3
DIMASSOC
350
128C
  3
INDEXCTL
350
7E
  3
LAYEREVAL
350
202A
  3
LAYERNOTIFY
350
202B
  3
LIGHTINGUNITS
350
1EB5
  3
MSLTSCALE
350
1EB3
  3
SORTENTS
350
B9A
  0
DICTIONARY
  5
AF
102
{ACAD_REACTORS
330
1A
102
}
330
1A
100
AcDbDictionary
281
     1
  3
AcmStdDictionary
350
142B
  3
AMDTSECTSYM_ARROWCOLOR
350
147A
  0
DICTIONARY
  5
A0
102
{ACAD_REACTORS
330
1A
102
}
330
1A
100
AcDbDictionary
281
     1
  0
DICTIONARY
  5
C0
102
{ACAD_REACTORS
330
1A
102
}
330
1A
100
AcDbDictionary
281
     1
  0
DICTIONARY
  5
2026
102
{ACAD_REACTORS
330
1A
102
}
330
1A
100
AcDbDictionary
281
     1
  3
ASEBlockHierarchyIndexRecord
350
2027
1001
DCO15
1040
1789458773.52
  0
XRECORD
  5
1EA1
102
{ACAD_REACTORS
330
1EA0
102
}
330
1EA0
100
AcDbXrecord
280
     1
290
     1
  0
XRECORD
  5
1EA3
102
{ACAD_REACTORS
330
1EA2
102
}
330
1EA2
100
AcDbXrecord
280
     1
290
     1
  0
XRECORD
  5
1EA5
102
{ACAD_REACTORS
330
1EA4
102
}
330
1EA4
100
AcDbXrecord
280
     1
290
     1
  0
XRECORD
  5
1EA9
102
{ACAD_REACTORS
330
1EA8
102
}
330
1EA8
100
AcDbXrecord
280
     1
290
     1
  0
SORTENTSTABLE
  5
14ED
102
{ACAD_REACTORS
330
7F
102
}
330
7F
100
AcDbSortentsTable
330
2
331
1CA2
  5
1CA2
331
1C65
  5
1C65
331
13B2
  5
1598
331
1CB4
  5
1CB4
331
1C89
  5
1C89
331
1CC6
  5
1CC6
331
1C6C
  5
1C6C
331
1C7E
  5
1C7E
331
1C9A
  5
1C9A
331
1CBE
  5
1CBE
331
1C93
  5
1C93
331
1CD0
  5
1CD0
331
1CA1
  5
1CA1
331
1C64
  5
1C64
331
1C88
  5
1C88
331
1CC5
  5
1CC5
331
1C6B
  5
1C6B
331
1C7D
  5
1C7D
331
1C99
  5
1C99
331
1C8F
  5
1C8F
331
1CBD
  5
1CBD
331
1C80
  5
1C80
331
1C92
  5
1C92
331
1CA0
  5
1CA0
331
1C63
  5
1C63
331
1CC4
  5
1CC4
331
1C87
  5
1C87
331
1C6A
  5
1C6A
331
1C98
  5
1C98
331
1C8E
  5
1C8E
331
1CBC
  5
1CBC
331
1C5F
  5
1C5F
331
1C62
  5
1C62
331
1CC3
  5
1CC3
331
1C86
  5
1C86
331
1CD5
  5
1CD5
331
1C69
  5
1C69
331
1C8D
  5
1C8D
331
1C90
  5
1C90
331
1C9E
  5
1C9E
331
1C61
  5
1C61
331
1CB0
  5
1CB0
331
1CC2
  5
1CC2
331
1C85
  5
1C85
331
1C97
  5
1C97
331
1C68
  5
1C68
331
1CB7
  5
1CB7
331
1C8C
  5
1C8C
331
1CCC
  5
1CCC
331
1C60
  5
1C60
331
1213
  5
1356
331
1CAF
  5
1CAF
331
1CC1
  5
1CC1
331
1C84
  5
1C84
331
1C96
  5
1C96
331
1CA4
  5
1CA4
331
1C67
  5
1C67
331
1CB6
  5
1CB6
331
1C79
  5
1C79
331
1C8B
  5
1C8B
331
1CCB
  5
1CCB
331
1C9C
  5
1C9C
331
1C71
  5
1C71
331
1CC0
  5
1CC0
331
1C83
  5
1C83
331
1C95
  5
1C95
331
1CA3
  5
1CA3
331
1C66
  5
1C66
331
1CB5
  5
1CB5
331
1C78
  5
1C78
331
1C8A
  5
1C8A
331
1CC7
  5
1CC7
331
1CB8
  5
1CB8
331
1C6D
  5
1C6D
331
1C9B
  5
1C9B
331
1CBF
  5
1CBF
331
1C82
  5
1C82
331
1C94
  5
1C94
331
1CD1
  5
1CD1
  0
ACDBDETAILVIEWSTYLE
  5
1FFA
102
{ACAD_REACTORS
330
1FF9
102
}
330
1FF9
100
AcDbModelDocViewStyle
 70
     0
  3
Imperial24
290
     0
100
AcDbDetailViewStyle
 70
     0
 71
     0
 90
        3
 71
     1
340
D
 62
   256
 40
0.24
340
0
 62
   256
 40
0.24
300

 40
0.36
280
     3
 71
     2
340
A
 90
       25
 62
   256
 71
     3
340
D
 62
   256
 40
0.24
 90
        1
 40
0.75
 90
        1
300
%<\AcVar ViewType \f "%tc1">% %<\AcVar ViewDetailId>%\PVARIA %<\AcVar ViewScale \f "%sn">%
 71
     4
340
A
 90
       25
 62
   256
340
A
 90
       25
 62
   256
280
     0
  0
LAYOUT
  5
9C
102
{ACAD_REACTORS
330
99
102
}
330
99
100
AcDbPlotSettings
  1

  2
HP LaserJet 6P
  4

  6

 40
0.0
 41
0.0
 42
0.0
 43
0.0
 44
0.0
 45
0.0
 46
0.0
 47
0.0
 48
0.0
 49
0.0
140
0.0
141
0.0
142
1.0
143
1.0
 70
   688
 72
     0
 73
     0
 74
     5
  7
Zeich.ctb
 75
    16
147
1.0
 76
     0
 77
     2
 78
   300
148
0.0
149
0.0
100
AcDbLayout
  1
Layout1
 70
     0
 71
     1
 10
0.0
 20
0.0
 11
420.0
 21
297.0
 12
0.0
 22
0.0
 32
0.0
 14
1.000000000000000E+20
 24
1.000000000000000E+20
 34
1.000000000000000E+20
 15
-1.000000000000000E+20
 25
-1.000000000000000E+20
 35
-1.000000000000000E+20
146
0.0
 13
0.0
 23
0.0
 33
0.0
 16
1.0
 26
0.0
 36
0.0
 17
0.0
 27
1.0
 37
0.0
 76
     0
330
3
  0
LAYOUT
  5
9B
102
{ACAD_REACTORS
330
99
102
}
330
99
100
AcDbPlotSettings
  1

  2
Konstruktion
  4
A4
  6

 40
7.143749713897705
 41
7.186082363128662
 42
7.059066772460937
 43
5.027069091796875
 44
209.9733276367187
 45
296.9683227539062
 46
28.30789828897643
 47
0.0
 48
4.999999999999886
 49
20.0
140
588.0000000000001
141
430.0
142
1.0
143
1.975488431661075
 70
 11956
 72
     1
 73
     1
 74
     1
  7
Zeich.ctb
 75
     0
147
0.5062039260635697
 76
     0
 77
     2
 78
   300
148
2.098603375373841
149
-131.3415539350146
100
AcDbLayout
  1
Model
 70
     1
 71
     0
 10
0.0
 20
0.0
 11
12.0
 21
9.0
 12
0.0
 22
0.0
 32
0.0
 14
0.0
 24
0.0
 34
0.0
 15
0.0
 25
0.0
 35
0.0
146
0.0
 13
0.0
 23
0.0
 33
0.0
 16
1.0
 26
0.0
 36
0.0
 17
0.0
 27
1.0
 37
0.0
 76
     0
330
2
331
19EF
1001
ACAD_PSEXT
1000
Konstruktion
1000
Kyocera FS-1030D
1000
IP_192.168.10.181
1000

1070
     0
  0
MATERIAL
  5
19F2
102
{ACAD_REACTORS
330
13C2
102
}
330
13C2
100
AcDbMaterial
  1
ByBlock
 73
     1
 78
     1
172
     1
176
     1
270
     1
274
     1
 94
       63
  0
MATERIAL
  5
19F1
102
{ACAD_REACTORS
330
13C2
102
}
330
13C2
100
AcDbMaterial
  1
ByLayer
 73
     1
 78
     1
172
     1
176
     1
270
     1
274
     1
 94
       63
  0
MATERIAL
  5
19F3
102
{ACAD_REACTORS
330
13C2
102
}
330
13C2
100
AcDbMaterial
  1
Global
 73
     1
 78
     1
172
     1
176
     1
270
     1
274
     1
 94
       63
  0
MLEADERSTYLE
  5
1E66
102
{ACAD_REACTORS
330
1E65
102
}
330
1E65
100
AcDbMLeaderStyle
170
     2
171
     1
172
     0
 90
        2
 40
0.0
 41
0.0
173
     1
 91
-1056964608
340
F
 92
       -2
290
     1
 42
0.09
291
     1
 43
0.36
  3
Standard
 44
0.18
300

342
D
174
     1
178
     6
175
     1
176
     0
 93
-1056964608
 45
0.18
292
     0
297
     0
 46
0.18
 94
-1056964608
 47
1.0
 49
1.0
140
1.0
293
     1
141
0.0
294
     1
177
     0
142
1.0
295
     0
296
     0
143
0.125
1001
ACAD_MLEADERVER
1070
     2
  0
MLINESTYLE
  5
1C
102
{ACAD_REACTORS
330
19
102
}
330
19
100
AcDbMlineStyle
  2
STANDARD
 70
     0
  3

 62
     0
 51
90.0
 52
90.0
 71
     2
 49
0.5
 62
   256
  6
BYLAYER
 49
-0.5
 62
   256
  6
BYLAYER
  0
ACDBPLACEHOLDER
  5
98
102
{ACAD_REACTORS
330
97
102
}
330
97
  0
SCALE
  5
1E44
102
{ACAD_REACTORS
330
1E43
102
}
330
1E43
100
AcDbScale
 70
     0
300
1:1
140
1.0
141
1.0
290
     1
  0
SCALE
  5
1E45
102
{ACAD_REACTORS
330
1E43
102
}
330
1E43
100
AcDbScale
 70
     0
300
1:2
140
1.0
141
2.0
290
     0
  0
SCALE
  5
1E46
102
{ACAD_REACTORS
330
1E43
102
}
330
1E43
100
AcDbScale
 70
     0
300
1:4
140
1.0
141
4.0
290
     0
  0
SCALE
  5
1E47
102
{ACAD_REACTORS
330
1E43
102
}
330
1E43
100
AcDbScale
 70
     0
300
1:5
140
1.0
141
5.0
290
     0
  0
SCALE
  5
1E48
102
{ACAD_REACTORS
330
1E43
102
}
330
1E43
100
AcDbScale
 70
     0
300
1:8
140
1.0
141
8.0
290
     0
  0
SCALE
  5
1E49
102
{ACAD_REACTORS
330
1E43
102
}
330
1E43
100
AcDbScale
 70
     0
300
1:10
140
1.0
141
10.0
290
     0
  0
SCALE
  5
1E4A
102
{ACAD_REACTORS
330
1E43
102
}
330
1E43
100
AcDbScale
 70
     0
300
1:16
140
1.0
141
16.0
290
     0
  0
SCALE
  5
1E4B
102
{ACAD_REACTORS
330
1E43
102
}
330
1E43
100
AcDbScale
 70
     0
300
1:20
140
1.0
141
20.0
290
     0
  0
SCALE
  5
1E4C
102
{ACAD_REACTORS
330
1E43
102
}
330
1E43
100
AcDbScale
 70
     0
300
1:30
140
1.0
141
30.0
290
     0
  0
SCALE
  5
1E4D
102
{ACAD_REACTORS
330
1E43
102
}
330
1E43
100
AcDbScale
 70
     0
300
1:40
140
1.0
141
40.0
290
     0
  0
SCALE
  5
1E4E
102
{ACAD_REACTORS
330
1E43
102
}
330
1E43
100
AcDbScale
 70
     0
300
1:50
140
1.0
141
50.0
290
     0
  0
SCALE
  5
1E4F
102
{ACAD_REACTORS
330
1E43
102
}
330
1E43
100
AcDbScale
 70
     0
300
1:100
140
1.0
141
100.0
290
     0
  0
SCALE
  5
1E50
102
{ACAD_REACTORS
330
1E43
102
}
330
1E43
100
AcDbScale
 70
     0
300
2:1
140
2.0
141
1.0
290
     0
  0
SCALE
  5
1E51
102
{ACAD_REACTORS
330
1E43
102
}
330
1E43
100
AcDbScale
 70
     0
300
4:1
140
4.0
141
1.0
290
     0
  0
SCALE
  5
1E52
102
{ACAD_REACTORS
330
1E43
102
}
330
1E43
100
AcDbScale
 70
     0
300
8:1
140
8.0
141
1.0
290
     0
  0
SCALE
  5
1E53
102
{ACAD_REACTORS
330
1E43
102
}
330
1E43
100
AcDbScale
 70
     0
300
10:1
140
10.0
141
1.0
290
     0
  0
SCALE
  5
1E54
102
{ACAD_REACTORS
330
1E43
102
}
330
1E43
100
AcDbScale
 70
     0
300
100:1
140
100.0
141
1.0
290
     0
  0
SCALE
  5
1E55
102
{ACAD_REACTORS
330
1E43
102
}
330
1E43
100
AcDbScale
 70
     0
300
1/128" = 1'-0"
140
0.0078125
141
12.0
290
     0
  0
SCALE
  5
1E56
102
{ACAD_REACTORS
330
1E43
102
}
330
1E43
100
AcDbScale
 70
     0
300
1/64" = 1'-0"
140
0.015625
141
12.0
290
     0
  0
SCALE
  5
1E57
102
{ACAD_REACTORS
330
1E43
102
}
330
1E43
100
AcDbScale
 70
     0
300
1/32" = 1'-0"
140
0.03125
141
12.0
290
     0
  0
SCALE
  5
1E58
102
{ACAD_REACTORS
330
1E43
102
}
330
1E43
100
AcDbScale
 70
     0
300
1/16" = 1'-0"
140
0.0625
141
12.0
290
     0
  0
SCALE
  5
1E59
102
{ACAD_REACTORS
330
1E43
102
}
330
1E43
100
AcDbScale
 70
     0
300
3/32" = 1'-0"
140
0.09375
141
12.0
290
     0
  0
SCALE
  5
1E5A
102
{ACAD_REACTORS
330
1E43
102
}
330
1E43
100
AcDbScale
 70
     0
300
1/8" = 1'-0"
140
0.125
141
12.0
290
     0
  0
SCALE
  5
1E5B
102
{ACAD_REACTORS
330
1E43
102
}
330
1E43
100
AcDbScale
 70
     0
300
3/16" = 1'-0"
140
0.1875
141
12.0
290
     0
  0
SCALE
  5
1E5C
102
{ACAD_REACTORS
330
1E43
102
}
330
1E43
100
AcDbScale
 70
     0
300
1/4" = 1'-0"
140
0.25
141
12.0
290
     0
  0
SCALE
  5
1E5D
102
{ACAD_REACTORS
330
1E43
102
}
330
1E43
100
AcDbScale
 70
     0
300
3/8" = 1'-0"
140
0.375
141
12.0
290
     0
  0
SCALE
  5
1E5E
102
{ACAD_REACTORS
330
1E43
102
}
330
1E43
100
AcDbScale
 70
     0
300
1/2" = 1'-0"
140
0.5
141
12.0
290
     0
  0
SCALE
  5
1E5F
102
{ACAD_REACTORS
330
1E43
102
}
330
1E43
100
AcDbScale
 70
     0
300
3/4" = 1'-0"
140
0.75
141
12.0
290
     0
  0
SCALE
  5
1E60
102
{ACAD_REACTORS
330
1E43
102
}
330
1E43
100
AcDbScale
 70
     0
300
1" = 1'-0"
140
1.0
141
12.0
290
     0
  0
SCALE
  5
1E61
102
{ACAD_REACTORS
330
1E43
102
}
330
1E43
100
AcDbScale
 70
     0
300
1-1/2" = 1'-0"
140
1.5
141
12.0
290
     0
  0
SCALE
  5
1E62
102
{ACAD_REACTORS
330
1E43
102
}
330
1E43
100
AcDbScale
 70
     0
300
3" = 1'-0"
140
3.0
141
12.0
290
     0
  0
SCALE
  5
1E63
102
{ACAD_REACTORS
330
1E43
102
}
330
1E43
100
AcDbScale
 70
     0
300
6" = 1'-0"
140
6.0
141
12.0
290
     0
  0
SCALE
  5
1E64
102
{ACAD_REACTORS
330
1E43
102
}
330
1E43
100
AcDbScale
 70
     0
300
1'-0" = 1'-0"
140
12.0
141
12.0
290
     0
  0
ACDBSECTIONVIEWSTYLE
  5
1FF8
102
{ACAD_REACTORS
330
1FF7
102
}
330
1FF7
100
AcDbModelDocViewStyle
 70
     0
  3
Imperial24
290
     0
100
AcDbSectionViewStyle
 70
     0
 71
     0
 90
       78
 71
     1
340
D
 62
   256
 40
0.24
340
0
340
0
 62
   256
 40
0.24
300
I, O, Q, S, X, Z
 40
0.48
 90
        3
 40
0.18
 90
        1
 71
     2
340
BD
 90
       25
 62
   256
340
A
 90
       50
 62
   256
 40
0.24
 40
0.0
 40
0.24
 71
     3
340
D
 62
   256
 40
0.24
 90
        1
 40
0.75
 90
        1
300
%<\AcVar ViewType \f "%tc1">% %<\AcVar ViewSectionStartId>%-%<\AcVar ViewSectionEndId>%\PVARIA %<\AcVar ViewScale \f "%sn">%
 71
     4
 62
   256
 62
   257
300
ANSI31
 40
1.0
 90
        0
290
     0
290
     0
 90
        6
 40
0.0
 40
1.570796326794896
 40
0.2617993877991494
 40
1.308996938995747
 40
-0.2617993877991494
 40
1.832595714594046
  0
TABLESTYLE
  5
1459
102
{ACAD_XDICTIONARY
360
1EAF
102
}
102
{ACAD_REACTORS
330
1458
102
}
330
1458
100
AcDbTableStyle
  3
Standard
 70
     0
 71
     0
 40
0.06
 41
0.06
280
     0
281
     0
  7
STANDARD
140
0.18
170
     2
 62
     0
 63
     7
283
     0
 90
        4
 91
        0
  1

274
    -2
284
     1
 64
     0
275
    -2
285
     1
 65
     0
276
    -2
286
     1
 66
     0
277
    -2
287
     1
 67
     0
278
    -2
288
     1
 68
     0
279
    -2
289
     1
 69
     0
  7
STANDARD
140
0.25
170
     5
 62
     0
 63
     7
283
     0
 90
        4
 91
        0
  1

274
    -2
284
     1
 64
     0
275
    -2
285
     1
 65
     0
276
    -2
286
     1
 66
     0
277
    -2
287
     1
 67
     0
278
    -2
288
     1
 68
     0
279
    -2
289
     1
 69
     0
  7
STANDARD
140
0.18
170
     5
 62
     0
 63
     7
283
     0
 90
        4
 91
        0
  1

274
    -2
284
     1
 64
     0
275
    -2
285
     1
 65
     0
276
    -2
286
     1
 66
     0
277
    -2
287
     1
 67
     0
278
    -2
288
     1
 68
     0
279
    -2
289
     1
 69
     0
  0
VISUALSTYLE
  5
19FA
102
{ACAD_XDICTIONARY
360
2038
102
}
102
{ACAD_REACTORS
330
19F4
102
}
330
19F4
100
AcDbVisualStyle
  2
2dWireframe
 70
     4
 71
     0
 72
     2
 73
     0
 90
        0
 40
-0.6
 41
-30.0
 62
     5
 63
     7
421
 16777215
 74
     1
 91
        4
 64
     7
 65
   257
 75
     1
175
     1
 42
1.0
 92
        0
 66
   257
 43
1.0
 76
     1
 77
     6
 78
     2
 67
     7
 79
     5
170
     0
171
     0
290
     0
174
     0
 93
        1
 44
0.0
173
     0
291
     0
 45
0.0
1001
ACAD
1000
AcDbSavedByObjectVersion
1070
     0
  0
VISUALSTYLE
  5
19FC
102
{ACAD_XDICTIONARY
360
203C
102
}
102
{ACAD_REACTORS
330
19F4
102
}
330
19F4
100
AcDbVisualStyle
  2
3D Hidden
 70
     6
 71
     1
 72
     2
 73
     2
 90
        0
 40
-0.6
 41
-30.0
 62
     5
 63
     7
421
 16777215
 74
     2
 91
        2
 64
     7
 65
   257
 75
     2
175
     1
 42
40.0
 92
        0
 66
   257
 43
1.0
 76
     1
 77
     6
 78
     2
 67
     7
 79
     3
170
     0
171
     0
290
     0
174
     0
 93
        1
 44
0.0
173
     0
291
     0
 45
0.0
1001
ACAD
1000
AcDbSavedByObjectVersion
1070
     0
  0
VISUALSTYLE
  5
19FB
102
{ACAD_XDICTIONARY
360
203A
102
}
102
{ACAD_REACTORS
330
19F4
102
}
330
19F4
100
AcDbVisualStyle
  2
3dWireframe
 70
     5
 71
     0
 72
     2
 73
     0
 90
        0
 40
-0.6
 41
-30.0
 62
     5
 63
     7
421
 16777215
 74
     1
 91
        4
 64
     7
 65
   257
 75
     1
175
     1
 42
1.0
 92
        0
 66
   257
 43
1.0
 76
     1
 77
     6
 78
     2
 67
     7
 79
     5
170
     0
171
     0
290
     0
174
     0
 93
        1
 44
0.0
173
     0
291
     0
 45
0.0
1001
ACAD
1000
AcDbSavedByObjectVersion
1070
     0
  0
VISUALSTYLE
  5
19F9
102
{ACAD_XDICTIONARY
360
2036
102
}
102
{ACAD_REACTORS
330
19F4
102
}
330
19F4
100
AcDbVisualStyle
  2
Basic
 70
     7
 71
     1
 72
     0
 73
     1
 90
        0
 40
-0.6
 41
-30.0
 62
     5
 63
     7
421
 16777215
 74
     0
 91
        4
 64
     7
 65
   257
 75
     1
175
     1
 42
1.0
 92
        8
 66
     7
 43
1.0
 76
     1
 77
     6
 78
     2
 67
     7
 79
     5
170
     0
171
     0
290
     0
174
     0
 93
        1
 44
0.0
173
     0
291
     1
 45
0.0
1001
ACAD
1000
AcDbSavedByObjectVersion
1070
     0
  0
VISUALSTYLE
  5
1A00
102
{ACAD_XDICTIONARY
360
2044
102
}
102
{ACAD_REACTORS
330
19F4
102
}
330
19F4
100
AcDbVisualStyle
  2
Brighten
 70
    12
 71
     2
 72
     2
 73
     0
 90
        0
 40
-0.6
 41
-30.0
 62
     5
 63
     7
421
 16777215
 74
     1
 91
        4
 64
     7
 65
   257
 75
     1
175
     1
 42
1.0
 92
        8
 66
     7
 43
1.0
 76
     1
 77
     6
 78
     2
 67
     7
 79
     5
170
     0
171
     0
290
     0
174
     0
 93
        1
 44
50.0
173
     0
291
     1
 45
0.0
1001
ACAD
1000
AcDbSavedByObjectVersion
1070
     0
  0
VISUALSTYLE
  5
1A04
102
{ACAD_XDICTIONARY
360
204C
102
}
102
{ACAD_REACTORS
330
19F4
102
}
330
19F4
100
AcDbVisualStyle
  2
ColorChange
 70
    16
 71
     2
 72
     2
 73
     3
 90
        0
 40
-0.6
 41
-30.0
 62
     5
 63
     8
421
  8421504
 74
     1
 91
        4
 64
     7
 65
   257
 75
     1
175
     1
 42
1.0
 92
        8
 66
     8
424
  8421504
 43
1.0
 76
     1
 77
     6
 78
     2
 67
     7
 79
     5
170
     0
171
     0
290
     0
174
     0
 93
        1
 44
0.0
173
     0
291
     1
 45
0.0
1001
ACAD
1000
AcDbSavedByObjectVersion
1070
     0
  0
VISUALSTYLE
  5
19FD
102
{ACAD_XDICTIONARY
360
203E
102
}
102
{ACAD_REACTORS
330
19F4
102
}
330
19F4
100
AcDbVisualStyle
  2
Conceptual
 70
     9
 71
     3
 72
     2
 73
     0
 90
        0
 40
-0.6
 41
-30.0
 62
     5
 63
     7
421
 16777215
 74
     2
 91
        2
 64
     7
 65
   257
 75
     1
175
     1
 42
40.0
 92
        8
 66
     7
 43
1.0
 76
     1
 77
     6
 78
     2
 67
     7
 79
     3
170
     0
171
     0
290
     0
174
     0
 93
        1
 44
0.0
173
     0
291
     0
 45
0.0
1001
ACAD
1000
AcDbSavedByObjectVersion
1070
     0
  0
VISUALSTYLE
  5
19FF
102
{ACAD_XDICTIONARY
360
2042
102
}
102
{ACAD_REACTORS
330
19F4
102
}
330
19F4
100
AcDbVisualStyle
  2
Dim
 70
    11
 71
     2
 72
     2
 73
     0
 90
        0
 40
-0.6
 41
-30.0
 62
     5
 63
     7
421
 16777215
 74
     1
 91
        4
 64
     7
 65
   257
 75
     1
175
     1
 42
1.0
 92
        8
 66
     7
 43
1.0
 76
     1
 77
     6
 78
     2
 67
     7
 79
     5
170
     0
171
     0
290
     0
174
     0
 93
        1
 44
-50.0
173
     0
291
     1
 45
0.0
1001
ACAD
1000
AcDbSavedByObjectVersion
1070
     0
  0
VISUALSTYLE
  5
1FF6
102
{ACAD_XDICTIONARY
360
2060
102
}
102
{ACAD_REACTORS
330
19F4
102
}
330
19F4
100
AcDbVisualStyle
  2
EdgeColorOff
 70
    22
 71
     2
 72
     2
 73
     0
 90
        0
 40
-0.6
 41
-30.0
 62
     5
 63
     7
421
 16777215
 74
     1
 91
        4
 64
     7
 65
   257
 75
     1
175
     1
 42
1.0
 92
        8
 66
     7
 43
1.0
 76
     1
 77
     6
 78
     2
 67
     7
 79
     5
170
     0
171
     0
290
     0
174
     0
 93
        1
 44
0.0
173
     0
291
     1
 45
0.0
1001
ACAD
1000
AcDbSavedByObjectVersion
1070
     0
  0
VISUALSTYLE
  5
1A03
102
{ACAD_XDICTIONARY
360
204A
102
}
102
{ACAD_REACTORS
330
19F4
102
}
330
19F4
100
AcDbVisualStyle
  2
Facepattern
 70
    15
 71
     2
 72
     2
 73
     0
 90
        0
 40
-0.6
 41
-30.0
 62
     5
 63
     7
421
 16777215
 74
     1
 91
        4
 64
     7
 65
   257
 75
     1
175
     1
 42
1.0
 92
        8
 66
     7
 43
1.0
 76
     1
 77
     6
 78
     2
 67
     7
 79
     5
170
     0
171
     0
290
     0
174
     0
 93
        1
 44
0.0
173
     0
291
     1
 45
0.0
1001
ACAD
1000
AcDbSavedByObjectVersion
1070
     0
  0
VISUALSTYLE
  5
19F5
102
{ACAD_XDICTIONARY
360
202E
102
}
102
{ACAD_REACTORS
330
19F4
102
}
330
19F4
100
AcDbVisualStyle
  2
Flat
 70
     0
 71
     2
 72
     1
 73
     1
 90
        2
 40
-0.6
 41
30.0
 62
     5
 63
     7
421
 16777215
 74
     0
 91
        4
 64
     7
 65
   257
 75
     1
175
     1
 42
1.0
 92
        8
 66
     7
 43
1.0
 76
     1
 77
     6
 78
     2
 67
     7
 79
     5
170
     0
171
     0
290
     0
174
     0
 93
       13
 44
0.0
173
     0
291
     1
 45
0.0
1001
ACAD
1000
AcDbSavedByObjectVersion
1070
     0
  0
VISUALSTYLE
  5
19F6
102
{ACAD_XDICTIONARY
360
2030
102
}
102
{ACAD_REACTORS
330
19F4
102
}
330
19F4
100
AcDbVisualStyle
  2
FlatWithEdges
 70
     1
 71
     2
 72
     1
 73
     1
 90
        2
 40
-0.6
 41
30.0
 62
     5
 63
     7
421
 16777215
 74
     1
 91
        4
 64
     7
 65
   257
 75
     1
175
     1
 42
1.0
 92
        0
 66
   257
 43
1.0
 76
     1
 77
     6
 78
     2
 67
     7
 79
     5
170
     0
171
     0
290
     0
174
     0
 93
       13
 44
0.0
173
     0
291
     1
 45
0.0
1001
ACAD
1000
AcDbSavedByObjectVersion
1070
     0
  0
VISUALSTYLE
  5
19F7
102
{ACAD_XDICTIONARY
360
2032
102
}
102
{ACAD_REACTORS
330
19F4
102
}
330
19F4
100
AcDbVisualStyle
  2
Gouraud
 70
     2
 71
     2
 72
     2
 73
     1
 90
        2
 40
-0.6
 41
30.0
 62
     5
 63
     7
421
 16777215
 74
     0
 91
        4
 64
     7
 65
   257
 75
     1
175
     1
 42
1.0
 92
        0
 66
     7
 43
1.0
 76
     1
 77
     6
 78
     2
 67
     7
 79
     5
170
     0
171
     0
290
     0
174
     0
 93
       13
 44
0.0
173
     0
291
     1
 45
0.0
1001
ACAD
1000
AcDbSavedByObjectVersion
1070
     0
  0
VISUALSTYLE
  5
19F8
102
{ACAD_XDICTIONARY
360
2034
102
}
102
{ACAD_REACTORS
330
19F4
102
}
330
19F4
100
AcDbVisualStyle
  2
GouraudWithEdges
 70
     3
 71
     2
 72
     2
 73
     1
 90
        2
 40
-0.6
 41
30.0
 62
     5
 63
     7
421
 16777215
 74
     1
 91
        4
 64
     7
 65
   257
 75
     1
175
     1
 42
1.0
 92
        0
 66
   257
 43
1.0
 76
     1
 77
     6
 78
     2
 67
     7
 79
     5
170
     0
171
     0
290
     0
174
     0
 93
       13
 44
0.0
173
     0
291
     1
 45
0.0
1001
ACAD
1000
AcDbSavedByObjectVersion
1070
     0
  0
VISUALSTYLE
  5
1FEE
102
{ACAD_XDICTIONARY
360
2050
102
}
102
{ACAD_REACTORS
330
19F4
102
}
330
19F4
100
AcDbVisualStyle
  2
Hidden
 70
     6
 71
     1
 72
     2
 73
     2
 90
        0
 40
-0.6
 41
-30.0
 62
     5
 63
     7
421
 16777215
 74
     2
 91
        2
 64
     7
 65
   257
 75
     2
175
     1
 42
40.0
 92
        0
 66
   257
 43
1.0
 76
     1
 77
     6
 78
     2
 67
     7
 79
     3
170
     0
171
     0
290
     0
174
     0
 93
        1
 44
0.0
173
     0
291
     0
 45
0.0
1001
ACAD
1000
AcDbSavedByObjectVersion
1070
     0
  0
VISUALSTYLE
  5
1FF4
102
{ACAD_XDICTIONARY
360
205C
102
}
102
{ACAD_REACTORS
330
19F4
102
}
330
19F4
100
AcDbVisualStyle
  2
JitterOff
 70
    20
 71
     2
 72
     2
 73
     0
 90
        0
 40
-0.6
 41
-30.0
 62
     5
 63
     7
421
 16777215
 74
     1
 91
        4
 64
     7
 65
   257
 75
     1
175
     1
 42
1.0
 92
       10
 66
     7
 43
1.0
 76
     1
 77
     6
 78
     2
 67
     7
 79
     5
170
     0
171
     0
290
     0
174
     0
 93
        1
 44
0.0
173
     0
291
     1
 45
0.0
1001
ACAD
1000
AcDbSavedByObjectVersion
1070
     0
  0
VISUALSTYLE
  5
1A02
102
{ACAD_XDICTIONARY
360
2048
102
}
102
{ACAD_REACTORS
330
19F4
102
}
330
19F4
100
AcDbVisualStyle
  2
Linepattern
 70
    14
 71
     2
 72
     2
 73
     0
 90
        0
 40
-0.6
 41
-30.0
 62
     5
 63
     7
421
 16777215
 74
     1
 91
        4
 64
     7
 65
   257
 75
     7
175
     7
 42
1.0
 92
        8
 66
     7
 43
1.0
 76
     1
 77
     6
 78
     2
 67
     7
 79
     5
170
     0
171
     0
290
     0
174
     0
 93
        1
 44
0.0
173
     0
291
     1
 45
0.0
1001
ACAD
1000
AcDbSavedByObjectVersion
1070
     0
  0
VISUALSTYLE
  5
1FF5
102
{ACAD_XDICTIONARY
360
205E
102
}
102
{ACAD_REACTORS
330
19F4
102
}
330
19F4
100
AcDbVisualStyle
  2
OverhangOff
 70
    21
 71
     2
 72
     2
 73
     0
 90
        0
 40
-0.6
 41
-30.0
 62
     5
 63
     7
421
 16777215
 74
     1
 91
        4
 64
     7
 65
   257
 75
     1
175
     1
 42
1.0
 92
        9
 66
     7
 43
1.0
 76
     1
 77
     6
 78
     2
 67
     7
 79
     5
170
     0
171
     0
290
     0
174
     0
 93
        1
 44
0.0
173
     0
291
     1
 45
0.0
1001
ACAD
1000
AcDbSavedByObjectVersion
1070
     0
  0
VISUALSTYLE
  5
19FE
102
{ACAD_XDICTIONARY
360
2040
102
}
102
{ACAD_REACTORS
330
19F4
102
}
330
19F4
100
AcDbVisualStyle
  2
Realistic
 70
     8
 71
     2
 72
     2
 73
     0
 90
        0
 40
-0.6
 41
-30.0
 62
     5
 63
     7
421
 16777215
 74
     1
 91
        0
 64
     7
 65
   257
 75
     1
175
     1
 42
1.0
 92
        8
 66
     8
424
  7895160
 43
1.0
 76
     1
 77
     6
 78
     2
 67
     7
 79
     5
170
     0
171
     0
290
     0
174
     0
 93
       13
 44
0.0
173
     0
291
     0
 45
0.0
1001
ACAD
1000
AcDbSavedByObjectVersion
1070
     0
  0
VISUALSTYLE
  5
1FF3
102
{ACAD_XDICTIONARY
360
205A
102
}
102
{ACAD_REACTORS
330
19F4
102
}
330
19F4
100
AcDbVisualStyle
  2
Shaded
 70
    27
 71
     2
 72
     2
 73
     1
 90
        2
 40
-0.6
 41
30.0
 62
     5
 63
     7
421
 16777215
 74
     0
 91
        4
 64
     7
 65
   257
 75
     1
175
     1
 42
1.0
 92
        8
 66
   257
 43
1.0
 76
     1
 77
     6
 78
     2
 67
     8
425
  7895160
 79
     3
170
     0
171
     0
290
     0
174
     0
 93
        5
 44
0.0
173
     0
291
     0
 45
0.0
1001
ACAD
1000
AcDbSavedByObjectVersion
1070
     0
  0
VISUALSTYLE
  5
1FF2
102
{ACAD_XDICTIONARY
360
2058
102
}
102
{ACAD_REACTORS
330
19F4
102
}
330
19F4
100
AcDbVisualStyle
  2
Shaded with edges
 70
    26
 71
     2
 72
     2
 73
     1
 90
        2
 40
-0.6
 41
30.0
 62
     5
 63
     7
421
 16777215
 74
     1
 91
       10
 64
     7
 65
   257
 75
     2
175
     1
 42
1.0
 92
        8
 66
   257
 43
1.0
 76
     1
 77
     6
 78
     2
 67
     7
 79
     3
170
     0
171
     0
290
     0
174
     0
 93
        5
 44
0.0
173
     0
291
     0
 45
0.0
1001
ACAD
1000
AcDbSavedByObjectVersion
1070
     0
  0
VISUALSTYLE
  5
1FEF
102
{ACAD_XDICTIONARY
360
2052
102
}
102
{ACAD_REACTORS
330
19F4
102
}
330
19F4
100
AcDbVisualStyle
  2
Shades of Gray
 70
    23
 71
     2
 72
     2
 73
     3
 90
        0
 40
-0.6
 41
-30.0
 62
     5
 63
     7
421
 16777215
 74
     2
 91
        2
 64
     7
 65
     7
 75
     1
175
     1
 42
40.0
 92
        8
 66
     7
 43
1.0
 76
     1
 77
     6
 78
     2
 67
     7
 79
     3
170
     0
171
     0
290
     0
174
     0
 93
        1
 44
0.0
173
     0
291
     0
 45
0.0
1001
ACAD
1000
AcDbSavedByObjectVersion
1070
     0
  0
VISUALSTYLE
  5
1FF0
102
{ACAD_XDICTIONARY
360
2054
102
}
102
{ACAD_REACTORS
330
19F4
102
}
330
19F4
100
AcDbVisualStyle
  2
Sketchy
 70
    24
 71
     1
 72
     2
 73
     2
 90
        0
 40
-0.6
 41
-30.0
 62
     5
 63
     7
421
 16777215
 74
     2
 91
        2
 64
     7
 65
     7
 75
     1
175
     1
 42
40.0
 92
       11
 66
     7
 43
1.0
 76
     1
 77
     6
 78
     2
 67
     7
 79
     6
170
     0
171
     0
290
     0
174
     0
 93
        1
 44
0.0
173
     0
291
     0
 45
0.0
1001
ACAD
1000
AcDbSavedByObjectVersion
1070
     0
  0
VISUALSTYLE
  5
1A01
102
{ACAD_XDICTIONARY
360
2046
102
}
102
{ACAD_REACTORS
330
19F4
102
}
330
19F4
100
AcDbVisualStyle
  2
Thicken
 70
    13
 71
     2
 72
     2
 73
     0
 90
        0
 40
-0.6
 41
-30.0
 62
     5
 63
     7
421
 16777215
 74
     1
 91
        4
 64
     7
 65
   257
 75
     1
175
     1
 42
1.0
 92
       12
 66
     7
 43
1.0
 76
     1
 77
     6
 78
     2
 67
     7
 79
     5
170
     0
171
     0
290
     0
174
     0
 93
        1
 44
0.0
173
     0
291
     1
 45
0.0
1001
ACAD
1000
AcDbSavedByObjectVersion
1070
     0
  0
VISUALSTYLE
  5
1FED
102
{ACAD_XDICTIONARY
360
204E
102
}
102
{ACAD_REACTORS
330
19F4
102
}
330
19F4
100
AcDbVisualStyle
  2
Wireframe
 70
     5
 71
     0
 72
     2
 73
     0
 90
        0
 40
-0.6
 41
-30.0
 62
     5
 63
     7
421
 16777215
 74
     1
 91
        4
 64
     7
 65
   257
 75
     1
175
     1
 42
1.0
 92
        0
 66
   257
 43
1.0
 76
     1
 77
     6
 78
     2
 67
     7
 79
     3
170
     0
171
     0
290
     0
174
     0
 93
        1
 44
0.0
173
     0
291
     0
 45
0.0
1001
ACAD
1000
AcDbSavedByObjectVersion
1070
     0
  0
VISUALSTYLE
  5
1FF1
102
{ACAD_XDICTIONARY
360
2056
102
}
102
{ACAD_REACTORS
330
19F4
102
}
330
19F4
100
AcDbVisualStyle
  2
X-Ray
 70
    25
 71
     2
 72
     2
 73
     1
 90
        1
 40
0.5
 41
-30.0
 62
     5
 63
     7
421
 16777215
 74
     1
 91
        0
 64
     7
 65
   257
 75
     1
175
     1
 42
1.0
 92
        8
 66
     7
 43
1.0
 76
     1
 77
     6
 78
     2
 67
     7
 79
     3
170
     0
171
     0
290
     0
174
     0
 93
       13
 44
0.0
173
     0
291
     0
 45
0.0
1001
ACAD
1000
AcDbSavedByObjectVersion
1070
     0
  0
DICTIONARYVAR
  5
1EB4
102
{ACAD_REACTORS
330
7D
102
}
330
7D
100
DictionaryVariables
280
     0
  1
1:1
  0
DICTIONARYVAR
  5
1EB2
102
{ACAD_REACTORS
330
7D
102
}
330
7D
100
DictionaryVariables
280
     0
  1
STANDARD
  0
DICTIONARYVAR
  5
1483
102
{ACAD_REACTORS
330
7D
102
}
330
7D
100
DictionaryVariables
280
     0
  1
STANDARD
  0
DICTIONARYVAR
  5
2028
102
{ACAD_REACTORS
330
7D
102
}
330
7D
100
DictionaryVariables
280
     0
  1
Imperial24
  0
DICTIONARYVAR
  5
2029
102
{ACAD_REACTORS
330
7D
102
}
330
7D
100
DictionaryVariables
280
     0
  1
Imperial24
  0
DICTIONARYVAR
  5
128C
102
{ACAD_REACTORS
330
7D
102
}
330
7D
100
DictionaryVariables
280
     0
  1
1
  0
DICTIONARYVAR
  5
7E
102
{ACAD_REACTORS
330
7D
102
}
330
7D
100
DictionaryVariables
280
     0
  1
1
  0
DICTIONARYVAR
  5
202A
102
{ACAD_REACTORS
330
7D
102
}
330
7D
100
DictionaryVariables
280
     0
  1
1
  0
DICTIONARYVAR
  5
202B
102
{ACAD_REACTORS
330
7D
102
}
330
7D
100
DictionaryVariables
280
     0
  1
15
  0
DICTIONARYVAR
  5
1EB5
102
{ACAD_REACTORS
330
7D
102
}
330
7D
100
DictionaryVariables
280
     0
  1
0
  0
DICTIONARYVAR
  5
1EB3
102
{ACAD_REACTORS
330
7D
102
}
330
7D
100
DictionaryVariables
280
     0
  1
0
  0
DICTIONARYVAR
  5
B9A
102
{ACAD_REACTORS
330
7D
102
}
330
7D
100
DictionaryVariables
280
     0
  1
96
  0
DICTIONARY
  5
142B
102
{ACAD_REACTORS
330
AF
102
}
330
AF
100
AcDbDictionary
281
     1
  0
XRECORD
  5
147A
102
{ACAD_REACTORS
330
AF
102
}
330
AF
100
AcDbXrecord
280
     1
 90
-1023410169
  0
XRECORD
  5
2027
102
{ACAD_REACTORS
330
2026
102
}
330
2026
100
AcDbXrecord
280
     1
  0
DICTIONARY
  5
1EAF
330
1459
100
AcDbDictionary
280
     1
281
     1
  3
ACAD_ROUNDTRIP_2008_TABLESTYLE_CELLSTYLEMAP
360
202C
  0
DICTIONARY
  5
2038
330
19FA
100
AcDbDictionary
280
     1
281
     1
  3
ACAD_XREC_ROUNDTRIP
360
2039
  0
DICTIONARY
  5
203C
330
19FC
100
AcDbDictionary
280
     1
281
     1
  3
ACAD_XREC_ROUNDTRIP
360
203D
  0
DICTIONARY
  5
203A
330
19FB
100
AcDbDictionary
280
     1
281
     1
  3
ACAD_XREC_ROUNDTRIP
360
203B
  0
DICTIONARY
  5
2036
330
19F9
100
AcDbDictionary
280
     1
281
     1
  3
ACAD_XREC_ROUNDTRIP
360
2037
  0
DICTIONARY
  5
2044
330
1A00
100
AcDbDictionary
280
     1
281
     1
  3
ACAD_XREC_ROUNDTRIP
360
2045
  0
DICTIONARY
  5
204C
330
1A04
100
AcDbDictionary
280
     1
281
     1
  3
ACAD_XREC_ROUNDTRIP
360
204D
  0
DICTIONARY
  5
203E
330
19FD
100
AcDbDictionary
280
     1
281
     1
  3
ACAD_XREC_ROUNDTRIP
360
203F
  0
DICTIONARY
  5
2042
330
19FF
100
AcDbDictionary
280
     1
281
     1
  3
ACAD_XREC_ROUNDTRIP
360
2043
  0
DICTIONARY
  5
2060
330
1FF6
100
AcDbDictionary
280
     1
281
     1
  3
ACAD_XREC_ROUNDTRIP
360
2061
  0
DICTIONARY
  5
204A
330
1A03
100
AcDbDictionary
280
     1
281
     1
  3
ACAD_XREC_ROUNDTRIP
360
204B
  0
DICTIONARY
  5
202E
330
19F5
100
AcDbDictionary
280
     1
281
     1
  3
ACAD_XREC_ROUNDTRIP
360
202F
  0
DICTIONARY
  5
2030
330
19F6
100
AcDbDictionary
280
     1
281
     1
  3
ACAD_XREC_ROUNDTRIP
360
2031
  0
DICTIONARY
  5
2032
330
19F7
100
AcDbDictionary
280
     1
281
     1
  3
ACAD_XREC_ROUNDTRIP
360
2033
  0
DICTIONARY
  5
2034
330
19F8
100
AcDbDictionary
280
     1
281
     1
  3
ACAD_XREC_ROUNDTRIP
360
2035
  0
DICTIONARY
  5
2050
330
1FEE
100
AcDbDictionary
280
     1
281
     1
  3
ACAD_XREC_ROUNDTRIP
360
2051
  0
DICTIONARY
  5
205C
330
1FF4
100
AcDbDictionary
280
     1
281
     1
  3
ACAD_XREC_ROUNDTRIP
360
205D
  0
DICTIONARY
  5
2048
330
1A02
100
AcDbDictionary
280
     1
281
     1
  3
ACAD_XREC_ROUNDTRIP
360
2049
  0
DICTIONARY
  5
205E
330
1FF5
100
AcDbDictionary
280
     1
281
     1
  3
ACAD_XREC_ROUNDTRIP
360
205F
  0
DICTIONARY
  5
2040
330
19FE
100
AcDbDictionary
280
     1
281
     1
  3
ACAD_XREC_ROUNDTRIP
360
2041
  0
DICTIONARY
  5
205A
330
1FF3
100
AcDbDictionary
280
     1
281
     1
  3
ACAD_XREC_ROUNDTRIP
360
205B
  0
DICTIONARY
  5
2058
330
1FF2
100
AcDbDictionary
280
     1
281
     1
  3
ACAD_XREC_ROUNDTRIP
360
2059
  0
DICTIONARY
  5
2052
330
1FEF
100
AcDbDictionary
280
     1
281
     1
  3
ACAD_XREC_ROUNDTRIP
360
2053
  0
DICTIONARY
  5
2054
330
1FF0
100
AcDbDictionary
280
     1
281
     1
  3
ACAD_XREC_ROUNDTRIP
360
2055
  0
DICTIONARY
  5
2046
330
1A01
100
AcDbDictionary
280
     1
281
     1
  3
ACAD_XREC_ROUNDTRIP
360
2047
  0
DICTIONARY
  5
204E
330
1FED
100
AcDbDictionary
280
     1
281
     1
  3
ACAD_XREC_ROUNDTRIP
360
204F
  0
DICTIONARY
  5
2056
330
1FF1
100
AcDbDictionary
280
     1
281
     1
  3
ACAD_XREC_ROUNDTRIP
360
2057
  0
CELLSTYLEMAP
  5
202C
102
{ACAD_REACTORS
330
1EAF
102
}
330
1EAF
100
AcDbCellStyleMap
 90
        3
300
CELLSTYLE
  1
TABLEFORMAT_BEGIN
 90
        5
170
     1
 91
        0
 92
    32768
 62
   257
 93
        1
300
CONTENTFORMAT
  1
CONTENTFORMAT_BEGIN
 90
        0
 91
        0
 92
        4
 93
        0
300

 40
0.0
140
1.0
 94
        5
 62
     0
340
D
144
0.25
309
CONTENTFORMAT_END
171
     0
 94
        6
 95
        1
302
GRIDFORMAT
  1
GRIDFORMAT_BEGIN
 90
        0
 91
        1
 62
     0
 92
       -2
340
0
 93
        0
 40
0.045
309
GRIDFORMAT_END
 95
        2
302
GRIDFORMAT
  1
GRIDFORMAT_BEGIN
 90
        0
 91
        1
 62
     0
 92
       -2
340
0
 93
        0
 40
0.045
309
GRIDFORMAT_END
 95
        4
302
GRIDFORMAT
  1
GRIDFORMAT_BEGIN
 90
        0
 91
        1
 62
     0
 92
       -2
340
0
 93
        0
 40
0.045
309
GRIDFORMAT_END
 95
        8
302
GRIDFORMAT
  1
GRIDFORMAT_BEGIN
 90
        0
 91
        1
 62
     0
 92
       -2
340
0
 93
        0
 40
0.045
309
GRIDFORMAT_END
 95
       16
302
GRIDFORMAT
  1
GRIDFORMAT_BEGIN
 90
        0
 91
        1
 62
     0
 92
       -2
340
0
 93
        0
 40
0.045
309
GRIDFORMAT_END
 95
       32
302
GRIDFORMAT
  1
GRIDFORMAT_BEGIN
 90
        0
 91
        1
 62
     0
 92
       -2
340
0
 93
        0
 40
0.045
309
GRIDFORMAT_END
309
TABLEFORMAT_END
  1
CELLSTYLE_BEGIN
 90
        1
 91
        1
300
_TITLE
309
CELLSTYLE_END
300
CELLSTYLE
  1
TABLEFORMAT_BEGIN
 90
        5
170
     1
 91
        0
 92
        0
 62
   257
 93
        1
300
CONTENTFORMAT
  1
CONTENTFORMAT_BEGIN
 90
        0
 91
        0
 92
        4
 93
        0
300

 40
0.0
140
1.0
 94
        5
 62
     0
340
D
144
0.18
309
CONTENTFORMAT_END
171
     0
 94
        6
 95
        1
302
GRIDFORMAT
  1
GRIDFORMAT_BEGIN
 90
        0
 91
        1
 62
     0
 92
       -2
340
0
 93
        0
 40
0.045
309
GRIDFORMAT_END
 95
        2
302
GRIDFORMAT
  1
GRIDFORMAT_BEGIN
 90
        0
 91
        1
 62
     0
 92
       -2
340
0
 93
        0
 40
0.045
309
GRIDFORMAT_END
 95
        4
302
GRIDFORMAT
  1
GRIDFORMAT_BEGIN
 90
        0
 91
        1
 62
     0
 92
       -2
340
0
 93
        0
 40
0.045
309
GRIDFORMAT_END
 95
        8
302
GRIDFORMAT
  1
GRIDFORMAT_BEGIN
 90
        0
 91
        1
 62
     0
 92
       -2
340
0
 93
        0
 40
0.045
309
GRIDFORMAT_END
 95
       16
302
GRIDFORMAT
  1
GRIDFORMAT_BEGIN
 90
        0
 91
        1
 62
     0
 92
       -2
340
0
 93
        0
 40
0.045
309
GRIDFORMAT_END
 95
       32
302
GRIDFORMAT
  1
GRIDFORMAT_BEGIN
 90
        0
 91
        1
 62
     0
 92
       -2
340
0
 93
        0
 40
0.045
309
GRIDFORMAT_END
309
TABLEFORMAT_END
  1
CELLSTYLE_BEGIN
 90
        2
 91
        1
300
_HEADER
309
CELLSTYLE_END
300
CELLSTYLE
  1
TABLEFORMAT_BEGIN
 90
        5
170
     1
 91
        0
 92
        0
 62
   257
 93
        1
300
CONTENTFORMAT
  1
CONTENTFORMAT_BEGIN
 90
        0
 91
        0
 92
        4
 93
        0
300

 40
0.0
140
1.0
 94
        2
 62
     0
340
D
144
0.18
309
CONTENTFORMAT_END
171
     0
 94
        6
 95
        1
302
GRIDFORMAT
  1
GRIDFORMAT_BEGIN
 90
        0
 91
        1
 62
     0
 92
       -2
340
0
 93
        0
 40
0.045
309
GRIDFORMAT_END
 95
        2
302
GRIDFORMAT
  1
GRIDFORMAT_BEGIN
 90
        0
 91
        1
 62
     0
 92
       -2
340
0
 93
        0
 40
0.045
309
GRIDFORMAT_END
 95
        4
302
GRIDFORMAT
  1
GRIDFORMAT_BEGIN
 90
        0
 91
        1
 62
     0
 92
       -2
340
0
 93
        0
 40
0.045
309
GRIDFORMAT_END
 95
        8
302
GRIDFORMAT
  1
GRIDFORMAT_BEGIN
 90
        0
 91
        1
 62
     0
 92
       -2
340
0
 93
        0
 40
0.045
309
GRIDFORMAT_END
 95
       16
302
GRIDFORMAT
  1
GRIDFORMAT_BEGIN
 90
        0
 91
        1
 62
     0
 92
       -2
340
0
 93
        0
 40
0.045
309
GRIDFORMAT_END
 95
       32
302
GRIDFORMAT
  1
GRIDFORMAT_BEGIN
 90
        0
 91
        1
 62
     0
 92
       -2
340
0
 93
        0
 40
0.045
309
GRIDFORMAT_END
309
TABLEFORMAT_END
  1
CELLSTYLE_BEGIN
 90
        3
 91
        2
300
_DATA
309
CELLSTYLE_END
  0
XRECORD
  5
2039
102
{ACAD_REACTORS
330
2038
102
}
330
2038
100
AcDbXrecord
280
     1
102
RTVSPost2010Prop28
280
     1
102
RTVSPost2010PropOp28
 70
     1
102
RTVSPost2010Prop29
280
     1
102
RTVSPost2010PropOp29
 70
     1
102
RTVSPost2010Prop30
280
     0
102
RTVSPost2010PropOp30
 70
     1
102
RTVSPost2010Prop31
280
     0
102
RTVSPost2010PropOp31
 70
     1
102
RTVSPost2010Prop32
280
     0
102
RTVSPost2010PropOp32
 70
     1
102
RTVSPost2010Prop33
280
     0
102
RTVSPost2010PropOp33
 70
     1
102
RTVSPost2010Prop34
280
     0
102
RTVSPost2010PropOp34
 70
     1
102
RTVSPost2010Prop35
280
     0
102
RTVSPost2010PropOp35
 70
     1
102
RTVSPost2010Prop36
280
     0
102
RTVSPost2010PropOp36
 70
     1
102
RTVSPost2010Prop37
 90
       50
102
RTVSPost2010PropOp37
 70
     1
102
RTVSPost2010Prop38
140
0.0
102
RTVSPost2010PropOp38
 70
     1
102
RTVSPost2010Prop39
140
1.0
102
RTVSPost2010PropOp39
 70
     1
102
RTVSPost2010Prop40
 90
        0
102
RTVSPost2010PropOp40
 70
     1
102
RTVSPost2010Prop41ColorIndex
 90
       18
102
RTVSPost2010Prop41ColorRGB
 90
        0
102
RTVSPost2010PropOp41
 70
     1
102
RTVSPost2010Prop42
 90
       50
102
RTVSPost2010PropOp42
 70
     1
102
RTVSPost2010Prop43
 90
        3
102
RTVSPost2010PropOp43
 70
     1
102
RTVSPost2010Prop44ColorIndex
 90
        5
102
RTVSPost2010Prop44ColorRGB
 90
      255
102
RTVSPost2010PropOp44
 70
     1
102
RTVSPost2010Prop45
280
     0
102
RTVSPost2010PropOp45
 70
     1
102
RTVSPost2010Prop46
 90
       50
102
RTVSPost2010PropOp46
 70
     1
102
RTVSPost2010Prop47
 90
       50
102
RTVSPost2010PropOp47
 70
     1
102
RTVSPost2010Prop48
 90
       50
102
RTVSPost2010PropOp48
 70
     1
102
RTVSPost2010Prop49
280
     0
102
RTVSPost2010PropOp49
 70
     1
102
RTVSPost2010Prop50
 90
       50
102
RTVSPost2010PropOp50
 70
     1
102
RTVSPost2010Prop51ColorIndex
 90
      256
102
RTVSPost2010Prop51ColorRGB
 90
-16777216
102
RTVSPost2010PropOp51
 70
     0
102
RTVSPost2010Prop52
140
1.0
102
RTVSPost2010PropOp52
 70
     0
102
RTVSPost2010Prop53
 90
        2
102
RTVSPost2010PropOp53
 70
     1
102
RTVSPost2010Prop54
  1
strokes_ogs.tif
102
RTVSPost2010PropOp54
 70
     1
102
RTVSPost2010Prop55
280
     0
102
RTVSPost2010PropOp55
 70
     1
102
RTVSPost2010Prop56
140
1.0
102
RTVSPost2010PropOp56
 70
     1
102
RTVSPost2010Prop57
140
1.0
102
RTVSPost2010PropOp57
 70
     1
102
RTVSPropertyOp0
 70
     1
102
RTVSPropertyOp1
 70
     1
102
RTVSPropertyOp2
 70
     1
102
RTVSPropertyOp3
 70
     1
102
RTVSPropertyOp4
 70
     1
102
RTVSPropertyOp5
 70
     1
102
RTVSPropertyOp6
 70
     1
102
RTVSPropertyOp7
 70
     1
102
RTVSPropertyOp8
 70
     1
102
RTVSPropertyOp9
 70
     1
102
RTVSPropertyOp10
 70
     1
102
RTVSPropertyOp11
 70
     1
102
RTVSPropertyOp12
 70
     1
102
RTVSPropertyOp13
 70
     1
102
RTVSPropertyOp14
 70
     1
102
RTVSPropertyOp15
 70
     1
102
RTVSPropertyOp16
 70
     1
102
RTVSPropertyOp17
 70
     1
102
RTVSPropertyOp18
 70
     1
102
RTVSPropertyOp19
 70
     1
102
RTVSPropertyOp20
 70
     1
102
RTVSPropertyOp21
 70
     1
102
RTVSPropertyOp22
 70
     1
102
RTVSPropertyOp23
 70
     1
102
RTVSPropertyOp24
 70
     1
102
RTVSPropertyOp25
 70
     1
102
RTVSPropertyOp26
 70
     1
102
RTVSPropertyOp27
 70
     1
102
RTVSPropertyOp28
 70
     1
102
RTVSPropertyOp29
 70
     1
102
RTVSPropertyOp30
 70
     1
102
RTVSPropertyOp31
 70
     1
102
RTVSPropertyOp32
 70
     1
102
RTVSPropertyOp33
 70
     1
102
RTVSPropertyOp34
 70
     1
102
RTVSPropertyOp35
 70
     1
102
RTVSPropertyOp36
 70
     1
102
RTVSPropertyOp37
 70
     1
102
RTVSPropertyOp38
 70
     1
102
RTVSPropertyOp39
 70
     1
102
RTVSPropertyOp40
 70
     1
102
RTVSPropertyOp41
 70
     1
102
RTVSPropertyOp42
 70
     1
102
RTVSPropertyOp43
 70
     1
102
RTVSPropertyOp44
 70
     1
102
RTVSPropertyOp45
 70
     1
102
RTVSPropertyOp46
 70
     1
102
RTVSPropertyOp47
 70
     1
102
RTVSPropertyOp48
 70
     1
102
RTVSPropertyOp49
 70
     1
102
RTVSPropertyOp50
 70
     1
102
RTVSPropertyOp51
 70
     0
102
RTVSPropertyOp52
 70
     0
102
RTVSPropertyOp53
 70
     1
102
RTVSPropertyOp54
 70
     1
102
RTVSPropertyOp55
 70
     1
102
RTVSPropertyOp56
 70
     1
102
RTVSPropertyOp57
 70
     1
102
RTVSPropertyOp58
 70
     1
102
RTVSPropertyOp59
 70
     1
102
RTVSPropertyOp60
 70
     1
102
RTVSPropertyOp61
 70
     1
102
RTVSPropertyOp62
 70
     1
  0
XRECORD
  5
203D
102
{ACAD_REACTORS
330
203C
102
}
330
203C
100
AcDbXrecord
280
     1
102
RTVSPost2010Prop28
280
     0
102
RTVSPost2010PropOp28
 70
     1
102
RTVSPost2010Prop29
280
     1
102
RTVSPost2010PropOp29
 70
     1
102
RTVSPost2010Prop30
280
     1
102
RTVSPost2010PropOp30
 70
     1
102
RTVSPost2010Prop31
280
     0
102
RTVSPost2010PropOp31
 70
     1
102
RTVSPost2010Prop32
280
     0
102
RTVSPost2010PropOp32
 70
     1
102
RTVSPost2010Prop33
280
     0
102
RTVSPost2010PropOp33
 70
     1
102
RTVSPost2010Prop34
280
     0
102
RTVSPost2010PropOp34
 70
     1
102
RTVSPost2010Prop35
280
     0
102
RTVSPost2010PropOp35
 70
     1
102
RTVSPost2010Prop36
280
     0
102
RTVSPost2010PropOp36
 70
     1
102
RTVSPost2010Prop37
 90
       50
102
RTVSPost2010PropOp37
 70
     1
102
RTVSPost2010Prop38
140
0.0
102
RTVSPost2010PropOp38
 70
     1
102
RTVSPost2010Prop39
140
1.0
102
RTVSPost2010PropOp39
 70
     1
102
RTVSPost2010Prop40
 90
        0
102
RTVSPost2010PropOp40
 70
     1
102
RTVSPost2010Prop41ColorIndex
 90
       18
102
RTVSPost2010Prop41ColorRGB
 90
        0
102
RTVSPost2010PropOp41
 70
     1
102
RTVSPost2010Prop42
 90
       50
102
RTVSPost2010PropOp42
 70
     1
102
RTVSPost2010Prop43
 90
        3
102
RTVSPost2010PropOp43
 70
     1
102
RTVSPost2010Prop44ColorIndex
 90
        5
102
RTVSPost2010Prop44ColorRGB
 90
      255
102
RTVSPost2010PropOp44
 70
     1
102
RTVSPost2010Prop45
280
     0
102
RTVSPost2010PropOp45
 70
     1
102
RTVSPost2010Prop46
 90
       50
102
RTVSPost2010PropOp46
 70
     1
102
RTVSPost2010Prop47
 90
       50
102
RTVSPost2010PropOp47
 70
     1
102
RTVSPost2010Prop48
 90
       50
102
RTVSPost2010PropOp48
 70
     1
102
RTVSPost2010Prop49
280
     0
102
RTVSPost2010PropOp49
 70
     1
102
RTVSPost2010Prop50
 90
       50
102
RTVSPost2010PropOp50
 70
     1
102
RTVSPost2010Prop51ColorIndex
 90
      256
102
RTVSPost2010Prop51ColorRGB
 90
-16777216
102
RTVSPost2010PropOp51
 70
     0
102
RTVSPost2010Prop52
140
1.0
102
RTVSPost2010PropOp52
 70
     0
102
RTVSPost2010Prop53
 90
        2
102
RTVSPost2010PropOp53
 70
     1
102
RTVSPost2010Prop54
  1
strokes_ogs.tif
102
RTVSPost2010PropOp54
 70
     1
102
RTVSPost2010Prop55
280
     0
102
RTVSPost2010PropOp55
 70
     1
102
RTVSPost2010Prop56
140
1.0
102
RTVSPost2010PropOp56
 70
     1
102
RTVSPost2010Prop57
140
1.0
102
RTVSPost2010PropOp57
 70
     1
102
RTVSPropertyOp0
 70
     1
102
RTVSPropertyOp1
 70
     1
102
RTVSPropertyOp2
 70
     1
102
RTVSPropertyOp3
 70
     1
102
RTVSPropertyOp4
 70
     1
102
RTVSPropertyOp5
 70
     1
102
RTVSPropertyOp6
 70
     1
102
RTVSPropertyOp7
 70
     1
102
RTVSPropertyOp8
 70
     1
102
RTVSPropertyOp9
 70
     1
102
RTVSPropertyOp10
 70
     1
102
RTVSPropertyOp11
 70
     1
102
RTVSPropertyOp12
 70
     1
102
RTVSPropertyOp13
 70
     1
102
RTVSPropertyOp14
 70
     1
102
RTVSPropertyOp15
 70
     1
102
RTVSPropertyOp16
 70
     1
102
RTVSPropertyOp17
 70
     1
102
RTVSPropertyOp18
 70
     1
102
RTVSPropertyOp19
 70
     1
102
RTVSPropertyOp20
 70
     1
102
RTVSPropertyOp21
 70
     1
102
RTVSPropertyOp22
 70
     1
102
RTVSPropertyOp23
 70
     1
102
RTVSPropertyOp24
 70
     1
102
RTVSPropertyOp25
 70
     1
102
RTVSPropertyOp26
 70
     1
102
RTVSPropertyOp27
 70
     1
102
RTVSPropertyOp28
 70
     1
102
RTVSPropertyOp29
 70
     1
102
RTVSPropertyOp30
 70
     1
102
RTVSPropertyOp31
 70
     1
102
RTVSPropertyOp32
 70
     1
102
RTVSPropertyOp33
 70
     1
102
RTVSPropertyOp34
 70
     1
102
RTVSPropertyOp35
 70
     1
102
RTVSPropertyOp36
 70
     1
102
RTVSPropertyOp37
 70
     1
102
RTVSPropertyOp38
 70
     1
102
RTVSPropertyOp39
 70
     1
102
RTVSPropertyOp40
 70
     1
102
RTVSPropertyOp41
 70
     1
102
RTVSPropertyOp42
 70
     1
102
RTVSPropertyOp43
 70
     1
102
RTVSPropertyOp44
 70
     1
102
RTVSPropertyOp45
 70
     1
102
RTVSPropertyOp46
 70
     1
102
RTVSPropertyOp47
 70
     1
102
RTVSPropertyOp48
 70
     1
102
RTVSPropertyOp49
 70
     1
102
RTVSPropertyOp50
 70
     1
102
RTVSPropertyOp51
 70
     0
102
RTVSPropertyOp52
 70
     0
102
RTVSPropertyOp53
 70
     1
102
RTVSPropertyOp54
 70
     1
102
RTVSPropertyOp55
 70
     1
102
RTVSPropertyOp56
 70
     1
102
RTVSPropertyOp57
 70
     1
102
RTVSPropertyOp58
 70
     1
102
RTVSPropertyOp59
 70
     1
102
RTVSPropertyOp60
 70
     1
102
RTVSPropertyOp61
 70
     1
102
RTVSPropertyOp62
 70
     1
  0
XRECORD
  5
203B
102
{ACAD_REACTORS
330
203A
102
}
330
203A
100
AcDbXrecord
280
     1
102
RTVSPost2010Prop28
280
     0
102
RTVSPost2010PropOp28
 70
     1
102
RTVSPost2010Prop29
280
     1
102
RTVSPost2010PropOp29
 70
     1
102
RTVSPost2010Prop30
280
     1
102
RTVSPost2010PropOp30
 70
     1
102
RTVSPost2010Prop31
280
     0
102
RTVSPost2010PropOp31
 70
     1
102
RTVSPost2010Prop32
280
     0
102
RTVSPost2010PropOp32
 70
     1
102
RTVSPost2010Prop33
280
     0
102
RTVSPost2010PropOp33
 70
     1
102
RTVSPost2010Prop34
280
     0
102
RTVSPost2010PropOp34
 70
     1
102
RTVSPost2010Prop35
280
     0
102
RTVSPost2010PropOp35
 70
     1
102
RTVSPost2010Prop36
280
     0
102
RTVSPost2010PropOp36
 70
     1
102
RTVSPost2010Prop37
 90
       50
102
RTVSPost2010PropOp37
 70
     1
102
RTVSPost2010Prop38
140
0.0
102
RTVSPost2010PropOp38
 70
     1
102
RTVSPost2010Prop39
140
1.0
102
RTVSPost2010PropOp39
 70
     1
102
RTVSPost2010Prop40
 90
        0
102
RTVSPost2010PropOp40
 70
     1
102
RTVSPost2010Prop41ColorIndex
 90
       18
102
RTVSPost2010Prop41ColorRGB
 90
        0
102
RTVSPost2010PropOp41
 70
     1
102
RTVSPost2010Prop42
 90
       50
102
RTVSPost2010PropOp42
 70
     1
102
RTVSPost2010Prop43
 90
        3
102
RTVSPost2010PropOp43
 70
     1
102
RTVSPost2010Prop44ColorIndex
 90
        5
102
RTVSPost2010Prop44ColorRGB
 90
      255
102
RTVSPost2010PropOp44
 70
     1
102
RTVSPost2010Prop45
280
     0
102
RTVSPost2010PropOp45
 70
     1
102
RTVSPost2010Prop46
 90
       50
102
RTVSPost2010PropOp46
 70
     1
102
RTVSPost2010Prop47
 90
       50
102
RTVSPost2010PropOp47
 70
     1
102
RTVSPost2010Prop48
 90
       50
102
RTVSPost2010PropOp48
 70
     1
102
RTVSPost2010Prop49
280
     0
102
RTVSPost2010PropOp49
 70
     1
102
RTVSPost2010Prop50
 90
       50
102
RTVSPost2010PropOp50
 70
     1
102
RTVSPost2010Prop51ColorIndex
 90
      256
102
RTVSPost2010Prop51ColorRGB
 90
-16777216
102
RTVSPost2010PropOp51
 70
     0
102
RTVSPost2010Prop52
140
1.0
102
RTVSPost2010PropOp52
 70
     0
102
RTVSPost2010Prop53
 90
        2
102
RTVSPost2010PropOp53
 70
     1
102
RTVSPost2010Prop54
  1
strokes_ogs.tif
102
RTVSPost2010PropOp54
 70
     1
102
RTVSPost2010Prop55
280
     0
102
RTVSPost2010PropOp55
 70
     1
102
RTVSPost2010Prop56
140
1.0
102
RTVSPost2010PropOp56
 70
     1
102
RTVSPost2010Prop57
140
1.0
102
RTVSPost2010PropOp57
 70
     1
102
RTVSPropertyOp0
 70
     1
102
RTVSPropertyOp1
 70
     1
102
RTVSPropertyOp2
 70
     1
102
RTVSPropertyOp3
 70
     1
102
RTVSPropertyOp4
 70
     1
102
RTVSPropertyOp5
 70
     1
102
RTVSPropertyOp6
 70
     1
102
RTVSPropertyOp7
 70
     1
102
RTVSPropertyOp8
 70
     1
102
RTVSPropertyOp9
 70
     1
102
RTVSPropertyOp10
 70
     1
102
RTVSPropertyOp11
 70
     1
102
RTVSPropertyOp12
 70
     1
102
RTVSPropertyOp13
 70
     1
102
RTVSPropertyOp14
 70
     1
102
RTVSPropertyOp15
 70
     1
102
RTVSPropertyOp16
 70
     1
102
RTVSPropertyOp17
 70
     1
102
RTVSPropertyOp18
 70
     1
102
RTVSPropertyOp19
 70
     1
102
RTVSPropertyOp20
 70
     1
102
RTVSPropertyOp21
 70
     1
102
RTVSPropertyOp22
 70
     1
102
RTVSPropertyOp23
 70
     1
102
RTVSPropertyOp24
 70
     1
102
RTVSPropertyOp25
 70
     1
102
RTVSPropertyOp26
 70
     1
102
RTVSPropertyOp27
 70
     1
102
RTVSPropertyOp28
 70
     1
102
RTVSPropertyOp29
 70
     1
102
RTVSPropertyOp30
 70
     1
102
RTVSPropertyOp31
 70
     1
102
RTVSPropertyOp32
 70
     1
102
RTVSPropertyOp33
 70
     1
102
RTVSPropertyOp34
 70
     1
102
RTVSPropertyOp35
 70
     1
102
RTVSPropertyOp36
 70
     1
102
RTVSPropertyOp37
 70
     1
102
RTVSPropertyOp38
 70
     1
102
RTVSPropertyOp39
 70
     1
102
RTVSPropertyOp40
 70
     1
102
RTVSPropertyOp41
 70
     1
102
RTVSPropertyOp42
 70
     1
102
RTVSPropertyOp43
 70
     1
102
RTVSPropertyOp44
 70
     1
102
RTVSPropertyOp45
 70
     1
102
RTVSPropertyOp46
 70
     1
102
RTVSPropertyOp47
 70
     1
102
RTVSPropertyOp48
 70
     1
102
RTVSPropertyOp49
 70
     1
102
RTVSPropertyOp50
 70
     1
102
RTVSPropertyOp51
 70
     0
102
RTVSPropertyOp52
 70
     0
102
RTVSPropertyOp53
 70
     1
102
RTVSPropertyOp54
 70
     1
102
RTVSPropertyOp55
 70
     1
102
RTVSPropertyOp56
 70
     1
102
RTVSPropertyOp57
 70
     1
102
RTVSPropertyOp58
 70
     1
102
RTVSPropertyOp59
 70
     1
102
RTVSPropertyOp60
 70
     1
102
RTVSPropertyOp61
 70
     1
102
RTVSPropertyOp62
 70
     1
  0
XRECORD
  5
2037
102
{ACAD_REACTORS
330
2036
102
}
330
2036
100
AcDbXrecord
280
     1
102
RTVSPost2010Prop28
280
     0
102
RTVSPost2010PropOp28
 70
     1
102
RTVSPost2010Prop29
280
     1
102
RTVSPost2010PropOp29
 70
     1
102
RTVSPost2010Prop30
280
     1
102
RTVSPost2010PropOp30
 70
     1
102
RTVSPost2010Prop31
280
     0
102
RTVSPost2010PropOp31
 70
     1
102
RTVSPost2010Prop32
280
     0
102
RTVSPost2010PropOp32
 70
     1
102
RTVSPost2010Prop33
280
     0
102
RTVSPost2010PropOp33
 70
     1
102
RTVSPost2010Prop34
280
     0
102
RTVSPost2010PropOp34
 70
     1
102
RTVSPost2010Prop35
280
     0
102
RTVSPost2010PropOp35
 70
     1
102
RTVSPost2010Prop36
280
     0
102
RTVSPost2010PropOp36
 70
     1
102
RTVSPost2010Prop37
 90
       50
102
RTVSPost2010PropOp37
 70
     1
102
RTVSPost2010Prop38
140
0.0
102
RTVSPost2010PropOp38
 70
     1
102
RTVSPost2010Prop39
140
1.0
102
RTVSPost2010PropOp39
 70
     1
102
RTVSPost2010Prop40
 90
        0
102
RTVSPost2010PropOp40
 70
     1
102
RTVSPost2010Prop41ColorIndex
 90
       18
102
RTVSPost2010Prop41ColorRGB
 90
        0
102
RTVSPost2010PropOp41
 70
     1
102
RTVSPost2010Prop42
 90
       50
102
RTVSPost2010PropOp42
 70
     1
102
RTVSPost2010Prop43
 90
        3
102
RTVSPost2010PropOp43
 70
     1
102
RTVSPost2010Prop44ColorIndex
 90
        5
102
RTVSPost2010Prop44ColorRGB
 90
      255
102
RTVSPost2010PropOp44
 70
     1
102
RTVSPost2010Prop45
280
     0
102
RTVSPost2010PropOp45
 70
     1
102
RTVSPost2010Prop46
 90
       50
102
RTVSPost2010PropOp46
 70
     1
102
RTVSPost2010Prop47
 90
       50
102
RTVSPost2010PropOp47
 70
     1
102
RTVSPost2010Prop48
 90
       50
102
RTVSPost2010PropOp48
 70
     1
102
RTVSPost2010Prop49
280
     0
102
RTVSPost2010PropOp49
 70
     1
102
RTVSPost2010Prop50
 90
       50
102
RTVSPost2010PropOp50
 70
     1
102
RTVSPost2010Prop51ColorIndex
 90
      256
102
RTVSPost2010Prop51ColorRGB
 90
-16777216
102
RTVSPost2010PropOp51
 70
     0
102
RTVSPost2010Prop52
140
1.0
102
RTVSPost2010PropOp52
 70
     0
102
RTVSPost2010Prop53
 90
        2
102
RTVSPost2010PropOp53
 70
     1
102
RTVSPost2010Prop54
  1
strokes_ogs.tif
102
RTVSPost2010PropOp54
 70
     1
102
RTVSPost2010Prop55
280
     0
102
RTVSPost2010PropOp55
 70
     1
102
RTVSPost2010Prop56
140
1.0
102
RTVSPost2010PropOp56
 70
     1
102
RTVSPost2010Prop57
140
1.0
102
RTVSPost2010PropOp57
 70
     1
102
RTVSPropertyOp0
 70
     1
102
RTVSPropertyOp1
 70
     1
102
RTVSPropertyOp2
 70
     1
102
RTVSPropertyOp3
 70
     1
102
RTVSPropertyOp4
 70
     1
102
RTVSPropertyOp5
 70
     1
102
RTVSPropertyOp6
 70
     1
102
RTVSPropertyOp7
 70
     1
102
RTVSPropertyOp8
 70
     1
102
RTVSPropertyOp9
 70
     1
102
RTVSPropertyOp10
 70
     1
102
RTVSPropertyOp11
 70
     1
102
RTVSPropertyOp12
 70
     1
102
RTVSPropertyOp13
 70
     1
102
RTVSPropertyOp14
 70
     1
102
RTVSPropertyOp15
 70
     1
102
RTVSPropertyOp16
 70
     1
102
RTVSPropertyOp17
 70
     1
102
RTVSPropertyOp18
 70
     1
102
RTVSPropertyOp19
 70
     1
102
RTVSPropertyOp20
 70
     1
102
RTVSPropertyOp21
 70
     1
102
RTVSPropertyOp22
 70
     1
102
RTVSPropertyOp23
 70
     1
102
RTVSPropertyOp24
 70
     1
102
RTVSPropertyOp25
 70
     1
102
RTVSPropertyOp26
 70
     1
102
RTVSPropertyOp27
 70
     1
102
RTVSPropertyOp28
 70
     1
102
RTVSPropertyOp29
 70
     1
102
RTVSPropertyOp30
 70
     1
102
RTVSPropertyOp31
 70
     1
102
RTVSPropertyOp32
 70
     1
102
RTVSPropertyOp33
 70
     1
102
RTVSPropertyOp34
 70
     1
102
RTVSPropertyOp35
 70
     1
102
RTVSPropertyOp36
 70
     1
102
RTVSPropertyOp37
 70
     1
102
RTVSPropertyOp38
 70
     1
102
RTVSPropertyOp39
 70
     1
102
RTVSPropertyOp40
 70
     1
102
RTVSPropertyOp41
 70
     1
102
RTVSPropertyOp42
 70
     1
102
RTVSPropertyOp43
 70
     1
102
RTVSPropertyOp44
 70
     1
102
RTVSPropertyOp45
 70
     1
102
RTVSPropertyOp46
 70
     1
102
RTVSPropertyOp47
 70
     1
102
RTVSPropertyOp48
 70
     1
102
RTVSPropertyOp49
 70
     1
102
RTVSPropertyOp50
 70
     1
102
RTVSPropertyOp51
 70
     0
102
RTVSPropertyOp52
 70
     0
102
RTVSPropertyOp53
 70
     1
102
RTVSPropertyOp54
 70
     1
102
RTVSPropertyOp55
 70
     1
102
RTVSPropertyOp56
 70
     1
102
RTVSPropertyOp57
 70
     1
102
RTVSPropertyOp58
 70
     1
102
RTVSPropertyOp59
 70
     1
102
RTVSPropertyOp60
 70
     1
102
RTVSPropertyOp61
 70
     1
102
RTVSPropertyOp62
 70
     1
  0
XRECORD
  5
2045
102
{ACAD_REACTORS
330
2044
102
}
330
2044
100
AcDbXrecord
280
     1
102
RTVSPost2010Prop28
280
     0
102
RTVSPost2010PropOp28
 70
     1
102
RTVSPost2010Prop29
280
     1
102
RTVSPost2010PropOp29
 70
     1
102
RTVSPost2010Prop30
280
     1
102
RTVSPost2010PropOp30
 70
     1
102
RTVSPost2010Prop31
280
     0
102
RTVSPost2010PropOp31
 70
     1
102
RTVSPost2010Prop32
280
     0
102
RTVSPost2010PropOp32
 70
     1
102
RTVSPost2010Prop33
280
     0
102
RTVSPost2010PropOp33
 70
     1
102
RTVSPost2010Prop34
280
     0
102
RTVSPost2010PropOp34
 70
     1
102
RTVSPost2010Prop35
280
     0
102
RTVSPost2010PropOp35
 70
     1
102
RTVSPost2010Prop36
280
     0
102
RTVSPost2010PropOp36
 70
     1
102
RTVSPost2010Prop37
 90
       50
102
RTVSPost2010PropOp37
 70
     1
102
RTVSPost2010Prop38
140
0.0
102
RTVSPost2010PropOp38
 70
     1
102
RTVSPost2010Prop39
140
1.0
102
RTVSPost2010PropOp39
 70
     1
102
RTVSPost2010Prop40
 90
        0
102
RTVSPost2010PropOp40
 70
     1
102
RTVSPost2010Prop41ColorIndex
 90
       18
102
RTVSPost2010Prop41ColorRGB
 90
        0
102
RTVSPost2010PropOp41
 70
     1
102
RTVSPost2010Prop42
 90
       50
102
RTVSPost2010PropOp42
 70
     1
102
RTVSPost2010Prop43
 90
        3
102
RTVSPost2010PropOp43
 70
     1
102
RTVSPost2010Prop44ColorIndex
 90
        5
102
RTVSPost2010Prop44ColorRGB
 90
      255
102
RTVSPost2010PropOp44
 70
     1
102
RTVSPost2010Prop45
280
     0
102
RTVSPost2010PropOp45
 70
     1
102
RTVSPost2010Prop46
 90
       50
102
RTVSPost2010PropOp46
 70
     1
102
RTVSPost2010Prop47
 90
       50
102
RTVSPost2010PropOp47
 70
     1
102
RTVSPost2010Prop48
 90
       50
102
RTVSPost2010PropOp48
 70
     1
102
RTVSPost2010Prop49
280
     0
102
RTVSPost2010PropOp49
 70
     1
102
RTVSPost2010Prop50
 90
       50
102
RTVSPost2010PropOp50
 70
     1
102
RTVSPost2010Prop51ColorIndex
 90
      256
102
RTVSPost2010Prop51ColorRGB
 90
-16777216
102
RTVSPost2010PropOp51
 70
     0
102
RTVSPost2010Prop52
140
1.0
102
RTVSPost2010PropOp52
 70
     0
102
RTVSPost2010Prop53
 90
        2
102
RTVSPost2010PropOp53
 70
     1
102
RTVSPost2010Prop54
  1
strokes_ogs.tif
102
RTVSPost2010PropOp54
 70
     1
102
RTVSPost2010Prop55
280
     0
102
RTVSPost2010PropOp55
 70
     1
102
RTVSPost2010Prop56
140
1.0
102
RTVSPost2010PropOp56
 70
     1
102
RTVSPost2010Prop57
140
1.0
102
RTVSPost2010PropOp57
 70
     1
102
RTVSPropertyOp0
 70
     1
102
RTVSPropertyOp1
 70
     1
102
RTVSPropertyOp2
 70
     1
102
RTVSPropertyOp3
 70
     1
102
RTVSPropertyOp4
 70
     1
102
RTVSPropertyOp5
 70
     1
102
RTVSPropertyOp6
 70
     1
102
RTVSPropertyOp7
 70
     1
102
RTVSPropertyOp8
 70
     1
102
RTVSPropertyOp9
 70
     1
102
RTVSPropertyOp10
 70
     1
102
RTVSPropertyOp11
 70
     1
102
RTVSPropertyOp12
 70
     1
102
RTVSPropertyOp13
 70
     1
102
RTVSPropertyOp14
 70
     1
102
RTVSPropertyOp15
 70
     1
102
RTVSPropertyOp16
 70
     1
102
RTVSPropertyOp17
 70
     1
102
RTVSPropertyOp18
 70
     1
102
RTVSPropertyOp19
 70
     1
102
RTVSPropertyOp20
 70
     1
102
RTVSPropertyOp21
 70
     1
102
RTVSPropertyOp22
 70
     1
102
RTVSPropertyOp23
 70
     1
102
RTVSPropertyOp24
 70
     1
102
RTVSPropertyOp25
 70
     1
102
RTVSPropertyOp26
 70
     1
102
RTVSPropertyOp27
 70
     1
102
RTVSPropertyOp28
 70
     1
102
RTVSPropertyOp29
 70
     1
102
RTVSPropertyOp30
 70
     1
102
RTVSPropertyOp31
 70
     1
102
RTVSPropertyOp32
 70
     1
102
RTVSPropertyOp33
 70
     1
102
RTVSPropertyOp34
 70
     1
102
RTVSPropertyOp35
 70
     1
102
RTVSPropertyOp36
 70
     1
102
RTVSPropertyOp37
 70
     1
102
RTVSPropertyOp38
 70
     1
102
RTVSPropertyOp39
 70
     1
102
RTVSPropertyOp40
 70
     1
102
RTVSPropertyOp41
 70
     1
102
RTVSPropertyOp42
 70
     1
102
RTVSPropertyOp43
 70
     1
102
RTVSPropertyOp44
 70
     1
102
RTVSPropertyOp45
 70
     1
102
RTVSPropertyOp46
 70
     1
102
RTVSPropertyOp47
 70
     1
102
RTVSPropertyOp48
 70
     1
102
RTVSPropertyOp49
 70
     1
102
RTVSPropertyOp50
 70
     1
102
RTVSPropertyOp51
 70
     0
102
RTVSPropertyOp52
 70
     0
102
RTVSPropertyOp53
 70
     1
102
RTVSPropertyOp54
 70
     1
102
RTVSPropertyOp55
 70
     1
102
RTVSPropertyOp56
 70
     1
102
RTVSPropertyOp57
 70
     1
102
RTVSPropertyOp58
 70
     1
102
RTVSPropertyOp59
 70
     1
102
RTVSPropertyOp60
 70
     1
102
RTVSPropertyOp61
 70
     1
102
RTVSPropertyOp62
 70
     1
  0
XRECORD
  5
204D
102
{ACAD_REACTORS
330
204C
102
}
330
204C
100
AcDbXrecord
280
     1
102
RTVSPost2010Prop28
280
     0
102
RTVSPost2010PropOp28
 70
     1
102
RTVSPost2010Prop29
280
     1
102
RTVSPost2010PropOp29
 70
     1
102
RTVSPost2010Prop30
280
     1
102
RTVSPost2010PropOp30
 70
     1
102
RTVSPost2010Prop31
280
     0
102
RTVSPost2010PropOp31
 70
     1
102
RTVSPost2010Prop32
280
     0
102
RTVSPost2010PropOp32
 70
     1
102
RTVSPost2010Prop33
280
     0
102
RTVSPost2010PropOp33
 70
     1
102
RTVSPost2010Prop34
280
     0
102
RTVSPost2010PropOp34
 70
     1
102
RTVSPost2010Prop35
280
     0
102
RTVSPost2010PropOp35
 70
     1
102
RTVSPost2010Prop36
280
     0
102
RTVSPost2010PropOp36
 70
     1
102
RTVSPost2010Prop37
 90
       50
102
RTVSPost2010PropOp37
 70
     1
102
RTVSPost2010Prop38
140
0.0
102
RTVSPost2010PropOp38
 70
     1
102
RTVSPost2010Prop39
140
1.0
102
RTVSPost2010PropOp39
 70
     1
102
RTVSPost2010Prop40
 90
        0
102
RTVSPost2010PropOp40
 70
     1
102
RTVSPost2010Prop41ColorIndex
 90
       18
102
RTVSPost2010Prop41ColorRGB
 90
        0
102
RTVSPost2010PropOp41
 70
     1
102
RTVSPost2010Prop42
 90
       50
102
RTVSPost2010PropOp42
 70
     1
102
RTVSPost2010Prop43
 90
        3
102
RTVSPost2010PropOp43
 70
     1
102
RTVSPost2010Prop44ColorIndex
 90
        5
102
RTVSPost2010Prop44ColorRGB
 90
      255
102
RTVSPost2010PropOp44
 70
     1
102
RTVSPost2010Prop45
280
     0
102
RTVSPost2010PropOp45
 70
     1
102
RTVSPost2010Prop46
 90
       50
102
RTVSPost2010PropOp46
 70
     1
102
RTVSPost2010Prop47
 90
       50
102
RTVSPost2010PropOp47
 70
     1
102
RTVSPost2010Prop48
 90
       50
102
RTVSPost2010PropOp48
 70
     1
102
RTVSPost2010Prop49
280
     0
102
RTVSPost2010PropOp49
 70
     1
102
RTVSPost2010Prop50
 90
       50
102
RTVSPost2010PropOp50
 70
     1
102
RTVSPost2010Prop51ColorIndex
 90
      256
102
RTVSPost2010Prop51ColorRGB
 90
-16777216
102
RTVSPost2010PropOp51
 70
     0
102
RTVSPost2010Prop52
140
1.0
102
RTVSPost2010PropOp52
 70
     0
102
RTVSPost2010Prop53
 90
        2
102
RTVSPost2010PropOp53
 70
     1
102
RTVSPost2010Prop54
  1
strokes_ogs.tif
102
RTVSPost2010PropOp54
 70
     1
102
RTVSPost2010Prop55
280
     0
102
RTVSPost2010PropOp55
 70
     1
102
RTVSPost2010Prop56
140
1.0
102
RTVSPost2010PropOp56
 70
     1
102
RTVSPost2010Prop57
140
1.0
102
RTVSPost2010PropOp57
 70
     1
102
RTVSPropertyOp0
 70
     1
102
RTVSPropertyOp1
 70
     1
102
RTVSPropertyOp2
 70
     1
102
RTVSPropertyOp3
 70
     1
102
RTVSPropertyOp4
 70
     1
102
RTVSPropertyOp5
 70
     1
102
RTVSPropertyOp6
 70
     1
102
RTVSPropertyOp7
 70
     1
102
RTVSPropertyOp8
 70
     1
102
RTVSPropertyOp9
 70
     1
102
RTVSPropertyOp10
 70
     1
102
RTVSPropertyOp11
 70
     1
102
RTVSPropertyOp12
 70
     1
102
RTVSPropertyOp13
 70
     1
102
RTVSPropertyOp14
 70
     1
102
RTVSPropertyOp15
 70
     1
102
RTVSPropertyOp16
 70
     1
102
RTVSPropertyOp17
 70
     1
102
RTVSPropertyOp18
 70
     1
102
RTVSPropertyOp19
 70
     1
102
RTVSPropertyOp20
 70
     1
102
RTVSPropertyOp21
 70
     1
102
RTVSPropertyOp22
 70
     1
102
RTVSPropertyOp23
 70
     1
102
RTVSPropertyOp24
 70
     1
102
RTVSPropertyOp25
 70
     1
102
RTVSPropertyOp26
 70
     1
102
RTVSPropertyOp27
 70
     1
102
RTVSPropertyOp28
 70
     1
102
RTVSPropertyOp29
 70
     1
102
RTVSPropertyOp30
 70
     1
102
RTVSPropertyOp31
 70
     1
102
RTVSPropertyOp32
 70
     1
102
RTVSPropertyOp33
 70
     1
102
RTVSPropertyOp34
 70
     1
102
RTVSPropertyOp35
 70
     1
102
RTVSPropertyOp36
 70
     1
102
RTVSPropertyOp37
 70
     1
102
RTVSPropertyOp38
 70
     1
102
RTVSPropertyOp39
 70
     1
102
RTVSPropertyOp40
 70
     1
102
RTVSPropertyOp41
 70
     1
102
RTVSPropertyOp42
 70
     1
102
RTVSPropertyOp43
 70
     1
102
RTVSPropertyOp44
 70
     1
102
RTVSPropertyOp45
 70
     1
102
RTVSPropertyOp46
 70
     1
102
RTVSPropertyOp47
 70
     1
102
RTVSPropertyOp48
 70
     1
102
RTVSPropertyOp49
 70
     1
102
RTVSPropertyOp50
 70
     1
102
RTVSPropertyOp51
 70
     0
102
RTVSPropertyOp52
 70
     0
102
RTVSPropertyOp53
 70
     1
102
RTVSPropertyOp54
 70
     1
102
RTVSPropertyOp55
 70
     1
102
RTVSPropertyOp56
 70
     1
102
RTVSPropertyOp57
 70
     1
102
RTVSPropertyOp58
 70
     1
102
RTVSPropertyOp59
 70
     1
102
RTVSPropertyOp60
 70
     1
102
RTVSPropertyOp61
 70
     1
102
RTVSPropertyOp62
 70
     1
  0
XRECORD
  5
203F
102
{ACAD_REACTORS
330
203E
102
}
330
203E
100
AcDbXrecord
280
     1
102
RTVSPost2010Prop28
280
     0
102
RTVSPost2010PropOp28
 70
     1
102
RTVSPost2010Prop29
280
     1
102
RTVSPost2010PropOp29
 70
     1
102
RTVSPost2010Prop30
280
     1
102
RTVSPost2010PropOp30
 70
     1
102
RTVSPost2010Prop31
280
     0
102
RTVSPost2010PropOp31
 70
     1
102
RTVSPost2010Prop32
280
     0
102
RTVSPost2010PropOp32
 70
     1
102
RTVSPost2010Prop33
280
     0
102
RTVSPost2010PropOp33
 70
     1
102
RTVSPost2010Prop34
280
     0
102
RTVSPost2010PropOp34
 70
     1
102
RTVSPost2010Prop35
280
     0
102
RTVSPost2010PropOp35
 70
     1
102
RTVSPost2010Prop36
280
     0
102
RTVSPost2010PropOp36
 70
     1
102
RTVSPost2010Prop37
 90
       50
102
RTVSPost2010PropOp37
 70
     1
102
RTVSPost2010Prop38
140
0.0
102
RTVSPost2010PropOp38
 70
     1
102
RTVSPost2010Prop39
140
1.0
102
RTVSPost2010PropOp39
 70
     1
102
RTVSPost2010Prop40
 90
        0
102
RTVSPost2010PropOp40
 70
     1
102
RTVSPost2010Prop41ColorIndex
 90
       18
102
RTVSPost2010Prop41ColorRGB
 90
        0
102
RTVSPost2010PropOp41
 70
     1
102
RTVSPost2010Prop42
 90
       50
102
RTVSPost2010PropOp42
 70
     1
102
RTVSPost2010Prop43
 90
        3
102
RTVSPost2010PropOp43
 70
     1
102
RTVSPost2010Prop44ColorIndex
 90
        5
102
RTVSPost2010Prop44ColorRGB
 90
      255
102
RTVSPost2010PropOp44
 70
     1
102
RTVSPost2010Prop45
280
     0
102
RTVSPost2010PropOp45
 70
     1
102
RTVSPost2010Prop46
 90
       50
102
RTVSPost2010PropOp46
 70
     1
102
RTVSPost2010Prop47
 90
       50
102
RTVSPost2010PropOp47
 70
     1
102
RTVSPost2010Prop48
 90
       50
102
RTVSPost2010PropOp48
 70
     1
102
RTVSPost2010Prop49
280
     0
102
RTVSPost2010PropOp49
 70
     1
102
RTVSPost2010Prop50
 90
       50
102
RTVSPost2010PropOp50
 70
     1
102
RTVSPost2010Prop51ColorIndex
 90
      256
102
RTVSPost2010Prop51ColorRGB
 90
-16777216
102
RTVSPost2010PropOp51
 70
     0
102
RTVSPost2010Prop52
140
1.0
102
RTVSPost2010PropOp52
 70
     0
102
RTVSPost2010Prop53
 90
        2
102
RTVSPost2010PropOp53
 70
     1
102
RTVSPost2010Prop54
  1
strokes_ogs.tif
102
RTVSPost2010PropOp54
 70
     1
102
RTVSPost2010Prop55
280
     0
102
RTVSPost2010PropOp55
 70
     1
102
RTVSPost2010Prop56
140
1.0
102
RTVSPost2010PropOp56
 70
     1
102
RTVSPost2010Prop57
140
1.0
102
RTVSPost2010PropOp57
 70
     1
102
RTVSPropertyOp0
 70
     1
102
RTVSPropertyOp1
 70
     1
102
RTVSPropertyOp2
 70
     1
102
RTVSPropertyOp3
 70
     1
102
RTVSPropertyOp4
 70
     1
102
RTVSPropertyOp5
 70
     1
102
RTVSPropertyOp6
 70
     1
102
RTVSPropertyOp7
 70
     1
102
RTVSPropertyOp8
 70
     1
102
RTVSPropertyOp9
 70
     1
102
RTVSPropertyOp10
 70
     1
102
RTVSPropertyOp11
 70
     1
102
RTVSPropertyOp12
 70
     1
102
RTVSPropertyOp13
 70
     1
102
RTVSPropertyOp14
 70
     1
102
RTVSPropertyOp15
 70
     1
102
RTVSPropertyOp16
 70
     1
102
RTVSPropertyOp17
 70
     1
102
RTVSPropertyOp18
 70
     1
102
RTVSPropertyOp19
 70
     1
102
RTVSPropertyOp20
 70
     1
102
RTVSPropertyOp21
 70
     1
102
RTVSPropertyOp22
 70
     1
102
RTVSPropertyOp23
 70
     1
102
RTVSPropertyOp24
 70
     1
102
RTVSPropertyOp25
 70
     1
102
RTVSPropertyOp26
 70
     1
102
RTVSPropertyOp27
 70
     1
102
RTVSPropertyOp28
 70
     1
102
RTVSPropertyOp29
 70
     1
102
RTVSPropertyOp30
 70
     1
102
RTVSPropertyOp31
 70
     1
102
RTVSPropertyOp32
 70
     1
102
RTVSPropertyOp33
 70
     1
102
RTVSPropertyOp34
 70
     1
102
RTVSPropertyOp35
 70
     1
102
RTVSPropertyOp36
 70
     1
102
RTVSPropertyOp37
 70
     1
102
RTVSPropertyOp38
 70
     1
102
RTVSPropertyOp39
 70
     1
102
RTVSPropertyOp40
 70
     1
102
RTVSPropertyOp41
 70
     1
102
RTVSPropertyOp42
 70
     1
102
RTVSPropertyOp43
 70
     1
102
RTVSPropertyOp44
 70
     1
102
RTVSPropertyOp45
 70
     1
102
RTVSPropertyOp46
 70
     1
102
RTVSPropertyOp47
 70
     1
102
RTVSPropertyOp48
 70
     1
102
RTVSPropertyOp49
 70
     1
102
RTVSPropertyOp50
 70
     1
102
RTVSPropertyOp51
 70
     0
102
RTVSPropertyOp52
 70
     0
102
RTVSPropertyOp53
 70
     1
102
RTVSPropertyOp54
 70
     1
102
RTVSPropertyOp55
 70
     1
102
RTVSPropertyOp56
 70
     1
102
RTVSPropertyOp57
 70
     1
102
RTVSPropertyOp58
 70
     1
102
RTVSPropertyOp59
 70
     1
102
RTVSPropertyOp60
 70
     1
102
RTVSPropertyOp61
 70
     1
102
RTVSPropertyOp62
 70
     1
  0
XRECORD
  5
2043
102
{ACAD_REACTORS
330
2042
102
}
330
2042
100
AcDbXrecord
280
     1
102
RTVSPost2010Prop28
280
     0
102
RTVSPost2010PropOp28
 70
     1
102
RTVSPost2010Prop29
280
     1
102
RTVSPost2010PropOp29
 70
     1
102
RTVSPost2010Prop30
280
     1
102
RTVSPost2010PropOp30
 70
     1
102
RTVSPost2010Prop31
280
     0
102
RTVSPost2010PropOp31
 70
     1
102
RTVSPost2010Prop32
280
     0
102
RTVSPost2010PropOp32
 70
     1
102
RTVSPost2010Prop33
280
     0
102
RTVSPost2010PropOp33
 70
     1
102
RTVSPost2010Prop34
280
     0
102
RTVSPost2010PropOp34
 70
     1
102
RTVSPost2010Prop35
280
     0
102
RTVSPost2010PropOp35
 70
     1
102
RTVSPost2010Prop36
280
     0
102
RTVSPost2010PropOp36
 70
     1
102
RTVSPost2010Prop37
 90
       50
102
RTVSPost2010PropOp37
 70
     1
102
RTVSPost2010Prop38
140
0.0
102
RTVSPost2010PropOp38
 70
     1
102
RTVSPost2010Prop39
140
1.0
102
RTVSPost2010PropOp39
 70
     1
102
RTVSPost2010Prop40
 90
        0
102
RTVSPost2010PropOp40
 70
     1
102
RTVSPost2010Prop41ColorIndex
 90
       18
102
RTVSPost2010Prop41ColorRGB
 90
        0
102
RTVSPost2010PropOp41
 70
     1
102
RTVSPost2010Prop42
 90
       50
102
RTVSPost2010PropOp42
 70
     1
102
RTVSPost2010Prop43
 90
        3
102
RTVSPost2010PropOp43
 70
     1
102
RTVSPost2010Prop44ColorIndex
 90
        5
102
RTVSPost2010Prop44ColorRGB
 90
      255
102
RTVSPost2010PropOp44
 70
     1
102
RTVSPost2010Prop45
280
     0
102
RTVSPost2010PropOp45
 70
     1
102
RTVSPost2010Prop46
 90
       50
102
RTVSPost2010PropOp46
 70
     1
102
RTVSPost2010Prop47
 90
       50
102
RTVSPost2010PropOp47
 70
     1
102
RTVSPost2010Prop48
 90
       50
102
RTVSPost2010PropOp48
 70
     1
102
RTVSPost2010Prop49
280
     0
102
RTVSPost2010PropOp49
 70
     1
102
RTVSPost2010Prop50
 90
       50
102
RTVSPost2010PropOp50
 70
     1
102
RTVSPost2010Prop51ColorIndex
 90
      256
102
RTVSPost2010Prop51ColorRGB
 90
-16777216
102
RTVSPost2010PropOp51
 70
     0
102
RTVSPost2010Prop52
140
1.0
102
RTVSPost2010PropOp52
 70
     0
102
RTVSPost2010Prop53
 90
        2
102
RTVSPost2010PropOp53
 70
     1
102
RTVSPost2010Prop54
  1
strokes_ogs.tif
102
RTVSPost2010PropOp54
 70
     1
102
RTVSPost2010Prop55
280
     0
102
RTVSPost2010PropOp55
 70
     1
102
RTVSPost2010Prop56
140
1.0
102
RTVSPost2010PropOp56
 70
     1
102
RTVSPost2010Prop57
140
1.0
102
RTVSPost2010PropOp57
 70
     1
102
RTVSPropertyOp0
 70
     1
102
RTVSPropertyOp1
 70
     1
102
RTVSPropertyOp2
 70
     1
102
RTVSPropertyOp3
 70
     1
102
RTVSPropertyOp4
 70
     1
102
RTVSPropertyOp5
 70
     1
102
RTVSPropertyOp6
 70
     1
102
RTVSPropertyOp7
 70
     1
102
RTVSPropertyOp8
 70
     1
102
RTVSPropertyOp9
 70
     1
102
RTVSPropertyOp10
 70
     1
102
RTVSPropertyOp11
 70
     1
102
RTVSPropertyOp12
 70
     1
102
RTVSPropertyOp13
 70
     1
102
RTVSPropertyOp14
 70
     1
102
RTVSPropertyOp15
 70
     1
102
RTVSPropertyOp16
 70
     1
102
RTVSPropertyOp17
 70
     1
102
RTVSPropertyOp18
 70
     1
102
RTVSPropertyOp19
 70
     1
102
RTVSPropertyOp20
 70
     1
102
RTVSPropertyOp21
 70
     1
102
RTVSPropertyOp22
 70
     1
102
RTVSPropertyOp23
 70
     1
102
RTVSPropertyOp24
 70
     1
102
RTVSPropertyOp25
 70
     1
102
RTVSPropertyOp26
 70
     1
102
RTVSPropertyOp27
 70
     1
102
RTVSPropertyOp28
 70
     1
102
RTVSPropertyOp29
 70
     1
102
RTVSPropertyOp30
 70
     1
102
RTVSPropertyOp31
 70
     1
102
RTVSPropertyOp32
 70
     1
102
RTVSPropertyOp33
 70
     1
102
RTVSPropertyOp34
 70
     1
102
RTVSPropertyOp35
 70
     1
102
RTVSPropertyOp36
 70
     1
102
RTVSPropertyOp37
 70
     1
102
RTVSPropertyOp38
 70
     1
102
RTVSPropertyOp39
 70
     1
102
RTVSPropertyOp40
 70
     1
102
RTVSPropertyOp41
 70
     1
102
RTVSPropertyOp42
 70
     1
102
RTVSPropertyOp43
 70
     1
102
RTVSPropertyOp44
 70
     1
102
RTVSPropertyOp45
 70
     1
102
RTVSPropertyOp46
 70
     1
102
RTVSPropertyOp47
 70
     1
102
RTVSPropertyOp48
 70
     1
102
RTVSPropertyOp49
 70
     1
102
RTVSPropertyOp50
 70
     1
102
RTVSPropertyOp51
 70
     0
102
RTVSPropertyOp52
 70
     0
102
RTVSPropertyOp53
 70
     1
102
RTVSPropertyOp54
 70
     1
102
RTVSPropertyOp55
 70
     1
102
RTVSPropertyOp56
 70
     1
102
RTVSPropertyOp57
 70
     1
102
RTVSPropertyOp58
 70
     1
102
RTVSPropertyOp59
 70
     1
102
RTVSPropertyOp60
 70
     1
102
RTVSPropertyOp61
 70
     1
102
RTVSPropertyOp62
 70
     1
  0
XRECORD
  5
2061
102
{ACAD_REACTORS
330
2060
102
}
330
2060
100
AcDbXrecord
280
     1
102
RTVSPost2010Prop28
280
     0
102
RTVSPost2010PropOp28
 70
     0
102
RTVSPost2010Prop29
280
     1
102
RTVSPost2010PropOp29
 70
     0
102
RTVSPost2010Prop30
280
     1
102
RTVSPost2010PropOp30
 70
     0
102
RTVSPost2010Prop31
280
     0
102
RTVSPost2010PropOp31
 70
     0
102
RTVSPost2010Prop32
280
     0
102
RTVSPost2010PropOp32
 70
     0
102
RTVSPost2010Prop33
280
     0
102
RTVSPost2010PropOp33
 70
     0
102
RTVSPost2010Prop34
280
     0
102
RTVSPost2010PropOp34
 70
     0
102
RTVSPost2010Prop35
280
     0
102
RTVSPost2010PropOp35
 70
     0
102
RTVSPost2010Prop36
280
     0
102
RTVSPost2010PropOp36
 70
     0
102
RTVSPost2010Prop37
 90
       50
102
RTVSPost2010PropOp37
 70
     0
102
RTVSPost2010Prop38
140
0.0
102
RTVSPost2010PropOp38
 70
     0
102
RTVSPost2010Prop39
140
1.0
102
RTVSPost2010PropOp39
 70
     0
102
RTVSPost2010Prop40
 90
        0
102
RTVSPost2010PropOp40
 70
     0
102
RTVSPost2010Prop41ColorIndex
 90
       18
102
RTVSPost2010Prop41ColorRGB
 90
        0
102
RTVSPost2010PropOp41
 70
     0
102
RTVSPost2010Prop42
 90
       50
102
RTVSPost2010PropOp42
 70
     0
102
RTVSPost2010Prop43
 90
        3
102
RTVSPost2010PropOp43
 70
     0
102
RTVSPost2010Prop44ColorIndex
 90
        5
102
RTVSPost2010Prop44ColorRGB
 90
      255
102
RTVSPost2010PropOp44
 70
     0
102
RTVSPost2010Prop45
280
     0
102
RTVSPost2010PropOp45
 70
     0
102
RTVSPost2010Prop46
 90
       50
102
RTVSPost2010PropOp46
 70
     0
102
RTVSPost2010Prop47
 90
       50
102
RTVSPost2010PropOp47
 70
     0
102
RTVSPost2010Prop48
 90
       50
102
RTVSPost2010PropOp48
 70
     0
102
RTVSPost2010Prop49
280
     0
102
RTVSPost2010PropOp49
 70
     0
102
RTVSPost2010Prop50
 90
       50
102
RTVSPost2010PropOp50
 70
     0
102
RTVSPost2010Prop51ColorIndex
 90
      256
102
RTVSPost2010Prop51ColorRGB
 90
-16777216
102
RTVSPost2010PropOp51
 70
     0
102
RTVSPost2010Prop52
140
1.0
102
RTVSPost2010PropOp52
 70
     0
102
RTVSPost2010Prop53
 90
        2
102
RTVSPost2010PropOp53
 70
     0
102
RTVSPost2010Prop54
  1
strokes_ogs.tif
102
RTVSPost2010PropOp54
 70
     0
102
RTVSPost2010Prop55
280
     0
102
RTVSPost2010PropOp55
 70
     0
102
RTVSPost2010Prop56
140
1.0
102
RTVSPost2010PropOp56
 70
     0
102
RTVSPost2010Prop57
140
1.0
102
RTVSPost2010PropOp57
 70
     0
102
RTVSPropertyOp0
 70
     0
102
RTVSPropertyOp1
 70
     0
102
RTVSPropertyOp2
 70
     0
102
RTVSPropertyOp3
 70
     0
102
RTVSPropertyOp4
 70
     0
102
RTVSPropertyOp5
 70
     0
102
RTVSPropertyOp6
 70
     0
102
RTVSPropertyOp7
 70
     0
102
RTVSPropertyOp8
 70
     0
102
RTVSPropertyOp9
 70
     0
102
RTVSPropertyOp10
 70
     0
102
RTVSPropertyOp11
 70
     0
102
RTVSPropertyOp12
 70
     0
102
RTVSPropertyOp13
 70
     0
102
RTVSPropertyOp14
 70
     2
102
RTVSPropertyOp15
 70
     0
102
RTVSPropertyOp16
 70
     0
102
RTVSPropertyOp17
 70
     0
102
RTVSPropertyOp18
 70
     0
102
RTVSPropertyOp19
 70
     0
102
RTVSPropertyOp20
 70
     0
102
RTVSPropertyOp21
 70
     0
102
RTVSPropertyOp22
 70
     0
102
RTVSPropertyOp23
 70
     0
102
RTVSPropertyOp24
 70
     0
102
RTVSPropertyOp25
 70
     0
102
RTVSPropertyOp26
 70
     0
102
RTVSPropertyOp27
 70
     0
102
RTVSPropertyOp28
 70
     0
102
RTVSPropertyOp29
 70
     0
102
RTVSPropertyOp30
 70
     0
102
RTVSPropertyOp31
 70
     0
102
RTVSPropertyOp32
 70
     0
102
RTVSPropertyOp33
 70
     0
102
RTVSPropertyOp34
 70
     0
102
RTVSPropertyOp35
 70
     0
102
RTVSPropertyOp36
 70
     0
102
RTVSPropertyOp37
 70
     0
102
RTVSPropertyOp38
 70
     0
102
RTVSPropertyOp39
 70
     0
102
RTVSPropertyOp40
 70
     0
102
RTVSPropertyOp41
 70
     0
102
RTVSPropertyOp42
 70
     0
102
RTVSPropertyOp43
 70
     0
102
RTVSPropertyOp44
 70
     0
102
RTVSPropertyOp45
 70
     0
102
RTVSPropertyOp46
 70
     0
102
RTVSPropertyOp47
 70
     0
102
RTVSPropertyOp48
 70
     0
102
RTVSPropertyOp49
 70
     0
102
RTVSPropertyOp50
 70
     0
102
RTVSPropertyOp51
 70
     0
102
RTVSPropertyOp52
 70
     0
102
RTVSPropertyOp53
 70
     0
102
RTVSPropertyOp54
 70
     0
102
RTVSPropertyOp55
 70
     0
102
RTVSPropertyOp56
 70
     0
102
RTVSPropertyOp57
 70
     0
102
RTVSPropertyOp58
 70
     0
102
RTVSPropertyOp59
 70
     0
102
RTVSPropertyOp60
 70
     0
102
RTVSPropertyOp61
 70
     0
102
RTVSPropertyOp62
 70
     0
  0
XRECORD
  5
204B
102
{ACAD_REACTORS
330
204A
102
}
330
204A
100
AcDbXrecord
280
     1
102
RTVSPost2010Prop28
280
     0
102
RTVSPost2010PropOp28
 70
     1
102
RTVSPost2010Prop29
280
     1
102
RTVSPost2010PropOp29
 70
     1
102
RTVSPost2010Prop30
280
     1
102
RTVSPost2010PropOp30
 70
     1
102
RTVSPost2010Prop31
280
     0
102
RTVSPost2010PropOp31
 70
     1
102
RTVSPost2010Prop32
280
     0
102
RTVSPost2010PropOp32
 70
     1
102
RTVSPost2010Prop33
280
     0
102
RTVSPost2010PropOp33
 70
     1
102
RTVSPost2010Prop34
280
     0
102
RTVSPost2010PropOp34
 70
     1
102
RTVSPost2010Prop35
280
     0
102
RTVSPost2010PropOp35
 70
     1
102
RTVSPost2010Prop36
280
     0
102
RTVSPost2010PropOp36
 70
     1
102
RTVSPost2010Prop37
 90
       50
102
RTVSPost2010PropOp37
 70
     1
102
RTVSPost2010Prop38
140
0.0
102
RTVSPost2010PropOp38
 70
     1
102
RTVSPost2010Prop39
140
1.0
102
RTVSPost2010PropOp39
 70
     1
102
RTVSPost2010Prop40
 90
        0
102
RTVSPost2010PropOp40
 70
     1
102
RTVSPost2010Prop41ColorIndex
 90
       18
102
RTVSPost2010Prop41ColorRGB
 90
        0
102
RTVSPost2010PropOp41
 70
     1
102
RTVSPost2010Prop42
 90
       50
102
RTVSPost2010PropOp42
 70
     1
102
RTVSPost2010Prop43
 90
        3
102
RTVSPost2010PropOp43
 70
     1
102
RTVSPost2010Prop44ColorIndex
 90
        5
102
RTVSPost2010Prop44ColorRGB
 90
      255
102
RTVSPost2010PropOp44
 70
     1
102
RTVSPost2010Prop45
280
     0
102
RTVSPost2010PropOp45
 70
     1
102
RTVSPost2010Prop46
 90
       50
102
RTVSPost2010PropOp46
 70
     1
102
RTVSPost2010Prop47
 90
       50
102
RTVSPost2010PropOp47
 70
     1
102
RTVSPost2010Prop48
 90
       50
102
RTVSPost2010PropOp48
 70
     1
102
RTVSPost2010Prop49
280
     0
102
RTVSPost2010PropOp49
 70
     1
102
RTVSPost2010Prop50
 90
       50
102
RTVSPost2010PropOp50
 70
     1
102
RTVSPost2010Prop51ColorIndex
 90
      256
102
RTVSPost2010Prop51ColorRGB
 90
-16777216
102
RTVSPost2010PropOp51
 70
     0
102
RTVSPost2010Prop52
140
1.0
102
RTVSPost2010PropOp52
 70
     0
102
RTVSPost2010Prop53
 90
        2
102
RTVSPost2010PropOp53
 70
     1
102
RTVSPost2010Prop54
  1
strokes_ogs.tif
102
RTVSPost2010PropOp54
 70
     1
102
RTVSPost2010Prop55
280
     0
102
RTVSPost2010PropOp55
 70
     1
102
RTVSPost2010Prop56
140
1.0
102
RTVSPost2010PropOp56
 70
     1
102
RTVSPost2010Prop57
140
1.0
102
RTVSPost2010PropOp57
 70
     1
102
RTVSPropertyOp0
 70
     1
102
RTVSPropertyOp1
 70
     1
102
RTVSPropertyOp2
 70
     1
102
RTVSPropertyOp3
 70
     1
102
RTVSPropertyOp4
 70
     1
102
RTVSPropertyOp5
 70
     1
102
RTVSPropertyOp6
 70
     1
102
RTVSPropertyOp7
 70
     1
102
RTVSPropertyOp8
 70
     1
102
RTVSPropertyOp9
 70
     1
102
RTVSPropertyOp10
 70
     1
102
RTVSPropertyOp11
 70
     1
102
RTVSPropertyOp12
 70
     1
102
RTVSPropertyOp13
 70
     1
102
RTVSPropertyOp14
 70
     1
102
RTVSPropertyOp15
 70
     1
102
RTVSPropertyOp16
 70
     1
102
RTVSPropertyOp17
 70
     1
102
RTVSPropertyOp18
 70
     1
102
RTVSPropertyOp19
 70
     1
102
RTVSPropertyOp20
 70
     1
102
RTVSPropertyOp21
 70
     1
102
RTVSPropertyOp22
 70
     1
102
RTVSPropertyOp23
 70
     1
102
RTVSPropertyOp24
 70
     1
102
RTVSPropertyOp25
 70
     1
102
RTVSPropertyOp26
 70
     1
102
RTVSPropertyOp27
 70
     1
102
RTVSPropertyOp28
 70
     1
102
RTVSPropertyOp29
 70
     1
102
RTVSPropertyOp30
 70
     1
102
RTVSPropertyOp31
 70
     1
102
RTVSPropertyOp32
 70
     1
102
RTVSPropertyOp33
 70
     1
102
RTVSPropertyOp34
 70
     1
102
RTVSPropertyOp35
 70
     1
102
RTVSPropertyOp36
 70
     1
102
RTVSPropertyOp37
 70
     1
102
RTVSPropertyOp38
 70
     1
102
RTVSPropertyOp39
 70
     1
102
RTVSPropertyOp40
 70
     1
102
RTVSPropertyOp41
 70
     1
102
RTVSPropertyOp42
 70
     1
102
RTVSPropertyOp43
 70
     1
102
RTVSPropertyOp44
 70
     1
102
RTVSPropertyOp45
 70
     1
102
RTVSPropertyOp46
 70
     1
102
RTVSPropertyOp47
 70
     1
102
RTVSPropertyOp48
 70
     1
102
RTVSPropertyOp49
 70
     1
102
RTVSPropertyOp50
 70
     1
102
RTVSPropertyOp51
 70
     0
102
RTVSPropertyOp52
 70
     0
102
RTVSPropertyOp53
 70
     1
102
RTVSPropertyOp54
 70
     1
102
RTVSPropertyOp55
 70
     1
102
RTVSPropertyOp56
 70
     1
102
RTVSPropertyOp57
 70
     1
102
RTVSPropertyOp58
 70
     1
102
RTVSPropertyOp59
 70
     1
102
RTVSPropertyOp60
 70
     1
102
RTVSPropertyOp61
 70
     1
102
RTVSPropertyOp62
 70
     1
  0
XRECORD
  5
202F
102
{ACAD_REACTORS
330
202E
102
}
330
202E
100
AcDbXrecord
280
     1
102
RTVSPost2010Prop28
280
     0
102
RTVSPost2010PropOp28
 70
     1
102
RTVSPost2010Prop29
280
     1
102
RTVSPost2010PropOp29
 70
     1
102
RTVSPost2010Prop30
280
     1
102
RTVSPost2010PropOp30
 70
     1
102
RTVSPost2010Prop31
280
     0
102
RTVSPost2010PropOp31
 70
     1
102
RTVSPost2010Prop32
280
     0
102
RTVSPost2010PropOp32
 70
     1
102
RTVSPost2010Prop33
280
     0
102
RTVSPost2010PropOp33
 70
     1
102
RTVSPost2010Prop34
280
     0
102
RTVSPost2010PropOp34
 70
     1
102
RTVSPost2010Prop35
280
     0
102
RTVSPost2010PropOp35
 70
     1
102
RTVSPost2010Prop36
280
     0
102
RTVSPost2010PropOp36
 70
     1
102
RTVSPost2010Prop37
 90
       50
102
RTVSPost2010PropOp37
 70
     1
102
RTVSPost2010Prop38
140
0.0
102
RTVSPost2010PropOp38
 70
     1
102
RTVSPost2010Prop39
140
1.0
102
RTVSPost2010PropOp39
 70
     1
102
RTVSPost2010Prop40
 90
        0
102
RTVSPost2010PropOp40
 70
     1
102
RTVSPost2010Prop41ColorIndex
 90
       18
102
RTVSPost2010Prop41ColorRGB
 90
        0
102
RTVSPost2010PropOp41
 70
     1
102
RTVSPost2010Prop42
 90
       50
102
RTVSPost2010PropOp42
 70
     1
102
RTVSPost2010Prop43
 90
        3
102
RTVSPost2010PropOp43
 70
     1
102
RTVSPost2010Prop44ColorIndex
 90
        5
102
RTVSPost2010Prop44ColorRGB
 90
      255
102
RTVSPost2010PropOp44
 70
     1
102
RTVSPost2010Prop45
280
     0
102
RTVSPost2010PropOp45
 70
     1
102
RTVSPost2010Prop46
 90
       50
102
RTVSPost2010PropOp46
 70
     1
102
RTVSPost2010Prop47
 90
       50
102
RTVSPost2010PropOp47
 70
     1
102
RTVSPost2010Prop48
 90
       50
102
RTVSPost2010PropOp48
 70
     1
102
RTVSPost2010Prop49
280
     0
102
RTVSPost2010PropOp49
 70
     1
102
RTVSPost2010Prop50
 90
       50
102
RTVSPost2010PropOp50
 70
     1
102
RTVSPost2010Prop51ColorIndex
 90
      256
102
RTVSPost2010Prop51ColorRGB
 90
-16777216
102
RTVSPost2010PropOp51
 70
     0
102
RTVSPost2010Prop52
140
1.0
102
RTVSPost2010PropOp52
 70
     0
102
RTVSPost2010Prop53
 90
        2
102
RTVSPost2010PropOp53
 70
     1
102
RTVSPost2010Prop54
  1
strokes_ogs.tif
102
RTVSPost2010PropOp54
 70
     1
102
RTVSPost2010Prop55
280
     0
102
RTVSPost2010PropOp55
 70
     1
102
RTVSPost2010Prop56
140
1.0
102
RTVSPost2010PropOp56
 70
     1
102
RTVSPost2010Prop57
140
1.0
102
RTVSPost2010PropOp57
 70
     1
102
RTVSPropertyOp0
 70
     1
102
RTVSPropertyOp1
 70
     1
102
RTVSPropertyOp2
 70
     1
102
RTVSPropertyOp3
 70
     1
102
RTVSPropertyOp4
 70
     1
102
RTVSPropertyOp5
 70
     1
102
RTVSPropertyOp6
 70
     1
102
RTVSPropertyOp7
 70
     1
102
RTVSPropertyOp8
 70
     1
102
RTVSPropertyOp9
 70
     1
102
RTVSPropertyOp10
 70
     1
102
RTVSPropertyOp11
 70
     1
102
RTVSPropertyOp12
 70
     1
102
RTVSPropertyOp13
 70
     1
102
RTVSPropertyOp14
 70
     1
102
RTVSPropertyOp15
 70
     1
102
RTVSPropertyOp16
 70
     1
102
RTVSPropertyOp17
 70
     1
102
RTVSPropertyOp18
 70
     1
102
RTVSPropertyOp19
 70
     1
102
RTVSPropertyOp20
 70
     1
102
RTVSPropertyOp21
 70
     1
102
RTVSPropertyOp22
 70
     1
102
RTVSPropertyOp23
 70
     1
102
RTVSPropertyOp24
 70
     1
102
RTVSPropertyOp25
 70
     1
102
RTVSPropertyOp26
 70
     1
102
RTVSPropertyOp27
 70
     1
102
RTVSPropertyOp28
 70
     1
102
RTVSPropertyOp29
 70
     1
102
RTVSPropertyOp30
 70
     1
102
RTVSPropertyOp31
 70
     1
102
RTVSPropertyOp32
 70
     1
102
RTVSPropertyOp33
 70
     1
102
RTVSPropertyOp34
 70
     1
102
RTVSPropertyOp35
 70
     1
102
RTVSPropertyOp36
 70
     1
102
RTVSPropertyOp37
 70
     1
102
RTVSPropertyOp38
 70
     1
102
RTVSPropertyOp39
 70
     1
102
RTVSPropertyOp40
 70
     1
102
RTVSPropertyOp41
 70
     1
102
RTVSPropertyOp42
 70
     1
102
RTVSPropertyOp43
 70
     1
102
RTVSPropertyOp44
 70
     1
102
RTVSPropertyOp45
 70
     1
102
RTVSPropertyOp46
 70
     1
102
RTVSPropertyOp47
 70
     1
102
RTVSPropertyOp48
 70
     1
102
RTVSPropertyOp49
 70
     1
102
RTVSPropertyOp50
 70
     1
102
RTVSPropertyOp51
 70
     0
102
RTVSPropertyOp52
 70
     0
102
RTVSPropertyOp53
 70
     1
102
RTVSPropertyOp54
 70
     1
102
RTVSPropertyOp55
 70
     1
102
RTVSPropertyOp56
 70
     1
102
RTVSPropertyOp57
 70
     1
102
RTVSPropertyOp58
 70
     1
102
RTVSPropertyOp59
 70
     1
102
RTVSPropertyOp60
 70
     1
102
RTVSPropertyOp61
 70
     1
102
RTVSPropertyOp62
 70
     1
  0
XRECORD
  5
2031
102
{ACAD_REACTORS
330
2030
102
}
330
2030
100
AcDbXrecord
280
     1
102
RTVSPost2010Prop28
280
     0
102
RTVSPost2010PropOp28
 70
     1
102
RTVSPost2010Prop29
280
     1
102
RTVSPost2010PropOp29
 70
     1
102
RTVSPost2010Prop30
280
     1
102
RTVSPost2010PropOp30
 70
     1
102
RTVSPost2010Prop31
280
     0
102
RTVSPost2010PropOp31
 70
     1
102
RTVSPost2010Prop32
280
     0
102
RTVSPost2010PropOp32
 70
     1
102
RTVSPost2010Prop33
280
     0
102
RTVSPost2010PropOp33
 70
     1
102
RTVSPost2010Prop34
280
     0
102
RTVSPost2010PropOp34
 70
     1
102
RTVSPost2010Prop35
280
     0
102
RTVSPost2010PropOp35
 70
     1
102
RTVSPost2010Prop36
280
     0
102
RTVSPost2010PropOp36
 70
     1
102
RTVSPost2010Prop37
 90
       50
102
RTVSPost2010PropOp37
 70
     1
102
RTVSPost2010Prop38
140
0.0
102
RTVSPost2010PropOp38
 70
     1
102
RTVSPost2010Prop39
140
1.0
102
RTVSPost2010PropOp39
 70
     1
102
RTVSPost2010Prop40
 90
        0
102
RTVSPost2010PropOp40
 70
     1
102
RTVSPost2010Prop41ColorIndex
 90
       18
102
RTVSPost2010Prop41ColorRGB
 90
        0
102
RTVSPost2010PropOp41
 70
     1
102
RTVSPost2010Prop42
 90
       50
102
RTVSPost2010PropOp42
 70
     1
102
RTVSPost2010Prop43
 90
        3
102
RTVSPost2010PropOp43
 70
     1
102
RTVSPost2010Prop44ColorIndex
 90
        5
102
RTVSPost2010Prop44ColorRGB
 90
      255
102
RTVSPost2010PropOp44
 70
     1
102
RTVSPost2010Prop45
280
     0
102
RTVSPost2010PropOp45
 70
     1
102
RTVSPost2010Prop46
 90
       50
102
RTVSPost2010PropOp46
 70
     1
102
RTVSPost2010Prop47
 90
       50
102
RTVSPost2010PropOp47
 70
     1
102
RTVSPost2010Prop48
 90
       50
102
RTVSPost2010PropOp48
 70
     1
102
RTVSPost2010Prop49
280
     0
102
RTVSPost2010PropOp49
 70
     1
102
RTVSPost2010Prop50
 90
       50
102
RTVSPost2010PropOp50
 70
     1
102
RTVSPost2010Prop51ColorIndex
 90
      256
102
RTVSPost2010Prop51ColorRGB
 90
-16777216
102
RTVSPost2010PropOp51
 70
     0
102
RTVSPost2010Prop52
140
1.0
102
RTVSPost2010PropOp52
 70
     0
102
RTVSPost2010Prop53
 90
        2
102
RTVSPost2010PropOp53
 70
     1
102
RTVSPost2010Prop54
  1
strokes_ogs.tif
102
RTVSPost2010PropOp54
 70
     1
102
RTVSPost2010Prop55
280
     0
102
RTVSPost2010PropOp55
 70
     1
102
RTVSPost2010Prop56
140
1.0
102
RTVSPost2010PropOp56
 70
     1
102
RTVSPost2010Prop57
140
1.0
102
RTVSPost2010PropOp57
 70
     1
102
RTVSPropertyOp0
 70
     1
102
RTVSPropertyOp1
 70
     1
102
RTVSPropertyOp2
 70
     1
102
RTVSPropertyOp3
 70
     1
102
RTVSPropertyOp4
 70
     1
102
RTVSPropertyOp5
 70
     1
102
RTVSPropertyOp6
 70
     1
102
RTVSPropertyOp7
 70
     1
102
RTVSPropertyOp8
 70
     1
102
RTVSPropertyOp9
 70
     1
102
RTVSPropertyOp10
 70
     1
102
RTVSPropertyOp11
 70
     1
102
RTVSPropertyOp12
 70
     1
102
RTVSPropertyOp13
 70
     1
102
RTVSPropertyOp14
 70
     1
102
RTVSPropertyOp15
 70
     1
102
RTVSPropertyOp16
 70
     1
102
RTVSPropertyOp17
 70
     1
102
RTVSPropertyOp18
 70
     1
102
RTVSPropertyOp19
 70
     1
102
RTVSPropertyOp20
 70
     1
102
RTVSPropertyOp21
 70
     1
102
RTVSPropertyOp22
 70
     1
102
RTVSPropertyOp23
 70
     1
102
RTVSPropertyOp24
 70
     1
102
RTVSPropertyOp25
 70
     1
102
RTVSPropertyOp26
 70
     1
102
RTVSPropertyOp27
 70
     1
102
RTVSPropertyOp28
 70
     1
102
RTVSPropertyOp29
 70
     1
102
RTVSPropertyOp30
 70
     1
102
RTVSPropertyOp31
 70
     1
102
RTVSPropertyOp32
 70
     1
102
RTVSPropertyOp33
 70
     1
102
RTVSPropertyOp34
 70
     1
102
RTVSPropertyOp35
 70
     1
102
RTVSPropertyOp36
 70
     1
102
RTVSPropertyOp37
 70
     1
102
RTVSPropertyOp38
 70
     1
102
RTVSPropertyOp39
 70
     1
102
RTVSPropertyOp40
 70
     1
102
RTVSPropertyOp41
 70
     1
102
RTVSPropertyOp42
 70
     1
102
RTVSPropertyOp43
 70
     1
102
RTVSPropertyOp44
 70
     1
102
RTVSPropertyOp45
 70
     1
102
RTVSPropertyOp46
 70
     1
102
RTVSPropertyOp47
 70
     1
102
RTVSPropertyOp48
 70
     1
102
RTVSPropertyOp49
 70
     1
102
RTVSPropertyOp50
 70
     1
102
RTVSPropertyOp51
 70
     0
102
RTVSPropertyOp52
 70
     0
102
RTVSPropertyOp53
 70
     1
102
RTVSPropertyOp54
 70
     1
102
RTVSPropertyOp55
 70
     1
102
RTVSPropertyOp56
 70
     1
102
RTVSPropertyOp57
 70
     1
102
RTVSPropertyOp58
 70
     1
102
RTVSPropertyOp59
 70
     1
102
RTVSPropertyOp60
 70
     1
102
RTVSPropertyOp61
 70
     1
102
RTVSPropertyOp62
 70
     1
  0
XRECORD
  5
2033
102
{ACAD_REACTORS
330
2032
102
}
330
2032
100
AcDbXrecord
280
     1
102
RTVSPost2010Prop28
280
     0
102
RTVSPost2010PropOp28
 70
     1
102
RTVSPost2010Prop29
280
     1
102
RTVSPost2010PropOp29
 70
     1
102
RTVSPost2010Prop30
280
     1
102
RTVSPost2010PropOp30
 70
     1
102
RTVSPost2010Prop31
280
     0
102
RTVSPost2010PropOp31
 70
     1
102
RTVSPost2010Prop32
280
     0
102
RTVSPost2010PropOp32
 70
     1
102
RTVSPost2010Prop33
280
     0
102
RTVSPost2010PropOp33
 70
     1
102
RTVSPost2010Prop34
280
     0
102
RTVSPost2010PropOp34
 70
     1
102
RTVSPost2010Prop35
280
     0
102
RTVSPost2010PropOp35
 70
     1
102
RTVSPost2010Prop36
280
     0
102
RTVSPost2010PropOp36
 70
     1
102
RTVSPost2010Prop37
 90
       50
102
RTVSPost2010PropOp37
 70
     1
102
RTVSPost2010Prop38
140
0.0
102
RTVSPost2010PropOp38
 70
     1
102
RTVSPost2010Prop39
140
1.0
102
RTVSPost2010PropOp39
 70
     1
102
RTVSPost2010Prop40
 90
        0
102
RTVSPost2010PropOp40
 70
     1
102
RTVSPost2010Prop41ColorIndex
 90
       18
102
RTVSPost2010Prop41ColorRGB
 90
        0
102
RTVSPost2010PropOp41
 70
     1
102
RTVSPost2010Prop42
 90
       50
102
RTVSPost2010PropOp42
 70
     1
102
RTVSPost2010Prop43
 90
        3
102
RTVSPost2010PropOp43
 70
     1
102
RTVSPost2010Prop44ColorIndex
 90
        5
102
RTVSPost2010Prop44ColorRGB
 90
      255
102
RTVSPost2010PropOp44
 70
     1
102
RTVSPost2010Prop45
280
     0
102
RTVSPost2010PropOp45
 70
     1
102
RTVSPost2010Prop46
 90
       50
102
RTVSPost2010PropOp46
 70
     1
102
RTVSPost2010Prop47
 90
       50
102
RTVSPost2010PropOp47
 70
     1
102
RTVSPost2010Prop48
 90
       50
102
RTVSPost2010PropOp48
 70
     1
102
RTVSPost2010Prop49
280
     0
102
RTVSPost2010PropOp49
 70
     1
102
RTVSPost2010Prop50
 90
       50
102
RTVSPost2010PropOp50
 70
     1
102
RTVSPost2010Prop51ColorIndex
 90
      256
102
RTVSPost2010Prop51ColorRGB
 90
-16777216
102
RTVSPost2010PropOp51
 70
     0
102
RTVSPost2010Prop52
140
1.0
102
RTVSPost2010PropOp52
 70
     0
102
RTVSPost2010Prop53
 90
        2
102
RTVSPost2010PropOp53
 70
     1
102
RTVSPost2010Prop54
  1
strokes_ogs.tif
102
RTVSPost2010PropOp54
 70
     1
102
RTVSPost2010Prop55
280
     0
102
RTVSPost2010PropOp55
 70
     1
102
RTVSPost2010Prop56
140
1.0
102
RTVSPost2010PropOp56
 70
     1
102
RTVSPost2010Prop57
140
1.0
102
RTVSPost2010PropOp57
 70
     1
102
RTVSPropertyOp0
 70
     1
102
RTVSPropertyOp1
 70
     1
102
RTVSPropertyOp2
 70
     1
102
RTVSPropertyOp3
 70
     1
102
RTVSPropertyOp4
 70
     1
102
RTVSPropertyOp5
 70
     1
102
RTVSPropertyOp6
 70
     1
102
RTVSPropertyOp7
 70
     1
102
RTVSPropertyOp8
 70
     1
102
RTVSPropertyOp9
 70
     1
102
RTVSPropertyOp10
 70
     1
102
RTVSPropertyOp11
 70
     1
102
RTVSPropertyOp12
 70
     1
102
RTVSPropertyOp13
 70
     1
102
RTVSPropertyOp14
 70
     1
102
RTVSPropertyOp15
 70
     1
102
RTVSPropertyOp16
 70
     1
102
RTVSPropertyOp17
 70
     1
102
RTVSPropertyOp18
 70
     1
102
RTVSPropertyOp19
 70
     1
102
RTVSPropertyOp20
 70
     1
102
RTVSPropertyOp21
 70
     1
102
RTVSPropertyOp22
 70
     1
102
RTVSPropertyOp23
 70
     1
102
RTVSPropertyOp24
 70
     1
102
RTVSPropertyOp25
 70
     1
102
RTVSPropertyOp26
 70
     1
102
RTVSPropertyOp27
 70
     1
102
RTVSPropertyOp28
 70
     1
102
RTVSPropertyOp29
 70
     1
102
RTVSPropertyOp30
 70
     1
102
RTVSPropertyOp31
 70
     1
102
RTVSPropertyOp32
 70
     1
102
RTVSPropertyOp33
 70
     1
102
RTVSPropertyOp34
 70
     1
102
RTVSPropertyOp35
 70
     1
102
RTVSPropertyOp36
 70
     1
102
RTVSPropertyOp37
 70
     1
102
RTVSPropertyOp38
 70
     1
102
RTVSPropertyOp39
 70
     1
102
RTVSPropertyOp40
 70
     1
102
RTVSPropertyOp41
 70
     1
102
RTVSPropertyOp42
 70
     1
102
RTVSPropertyOp43
 70
     1
102
RTVSPropertyOp44
 70
     1
102
RTVSPropertyOp45
 70
     1
102
RTVSPropertyOp46
 70
     1
102
RTVSPropertyOp47
 70
     1
102
RTVSPropertyOp48
 70
     1
102
RTVSPropertyOp49
 70
     1
102
RTVSPropertyOp50
 70
     1
102
RTVSPropertyOp51
 70
     0
102
RTVSPropertyOp52
 70
     0
102
RTVSPropertyOp53
 70
     1
102
RTVSPropertyOp54
 70
     1
102
RTVSPropertyOp55
 70
     1
102
RTVSPropertyOp56
 70
     1
102
RTVSPropertyOp57
 70
     1
102
RTVSPropertyOp58
 70
     1
102
RTVSPropertyOp59
 70
     1
102
RTVSPropertyOp60
 70
     1
102
RTVSPropertyOp61
 70
     1
102
RTVSPropertyOp62
 70
     1
  0
XRECORD
  5
2035
102
{ACAD_REACTORS
330
2034
102
}
330
2034
100
AcDbXrecord
280
     1
102
RTVSPost2010Prop28
280
     0
102
RTVSPost2010PropOp28
 70
     1
102
RTVSPost2010Prop29
280
     1
102
RTVSPost2010PropOp29
 70
     1
102
RTVSPost2010Prop30
280
     1
102
RTVSPost2010PropOp30
 70
     1
102
RTVSPost2010Prop31
280
     0
102
RTVSPost2010PropOp31
 70
     1
102
RTVSPost2010Prop32
280
     0
102
RTVSPost2010PropOp32
 70
     1
102
RTVSPost2010Prop33
280
     0
102
RTVSPost2010PropOp33
 70
     1
102
RTVSPost2010Prop34
280
     0
102
RTVSPost2010PropOp34
 70
     1
102
RTVSPost2010Prop35
280
     0
102
RTVSPost2010PropOp35
 70
     1
102
RTVSPost2010Prop36
280
     0
102
RTVSPost2010PropOp36
 70
     1
102
RTVSPost2010Prop37
 90
       50
102
RTVSPost2010PropOp37
 70
     1
102
RTVSPost2010Prop38
140
0.0
102
RTVSPost2010PropOp38
 70
     1
102
RTVSPost2010Prop39
140
1.0
102
RTVSPost2010PropOp39
 70
     1
102
RTVSPost2010Prop40
 90
        0
102
RTVSPost2010PropOp40
 70
     1
102
RTVSPost2010Prop41ColorIndex
 90
       18
102
RTVSPost2010Prop41ColorRGB
 90
        0
102
RTVSPost2010PropOp41
 70
     1
102
RTVSPost2010Prop42
 90
       50
102
RTVSPost2010PropOp42
 70
     1
102
RTVSPost2010Prop43
 90
        3
102
RTVSPost2010PropOp43
 70
     1
102
RTVSPost2010Prop44ColorIndex
 90
        5
102
RTVSPost2010Prop44ColorRGB
 90
      255
102
RTVSPost2010PropOp44
 70
     1
102
RTVSPost2010Prop45
280
     0
102
RTVSPost2010PropOp45
 70
     1
102
RTVSPost2010Prop46
 90
       50
102
RTVSPost2010PropOp46
 70
     1
102
RTVSPost2010Prop47
 90
       50
102
RTVSPost2010PropOp47
 70
     1
102
RTVSPost2010Prop48
 90
       50
102
RTVSPost2010PropOp48
 70
     1
102
RTVSPost2010Prop49
280
     0
102
RTVSPost2010PropOp49
 70
     1
102
RTVSPost2010Prop50
 90
       50
102
RTVSPost2010PropOp50
 70
     1
102
RTVSPost2010Prop51ColorIndex
 90
      256
102
RTVSPost2010Prop51ColorRGB
 90
-16777216
102
RTVSPost2010PropOp51
 70
     0
102
RTVSPost2010Prop52
140
1.0
102
RTVSPost2010PropOp52
 70
     0
102
RTVSPost2010Prop53
 90
        2
102
RTVSPost2010PropOp53
 70
     1
102
RTVSPost2010Prop54
  1
strokes_ogs.tif
102
RTVSPost2010PropOp54
 70
     1
102
RTVSPost2010Prop55
280
     0
102
RTVSPost2010PropOp55
 70
     1
102
RTVSPost2010Prop56
140
1.0
102
RTVSPost2010PropOp56
 70
     1
102
RTVSPost2010Prop57
140
1.0
102
RTVSPost2010PropOp57
 70
     1
102
RTVSPropertyOp0
 70
     1
102
RTVSPropertyOp1
 70
     1
102
RTVSPropertyOp2
 70
     1
102
RTVSPropertyOp3
 70
     1
102
RTVSPropertyOp4
 70
     1
102
RTVSPropertyOp5
 70
     1
102
RTVSPropertyOp6
 70
     1
102
RTVSPropertyOp7
 70
     1
102
RTVSPropertyOp8
 70
     1
102
RTVSPropertyOp9
 70
     1
102
RTVSPropertyOp10
 70
     1
102
RTVSPropertyOp11
 70
     1
102
RTVSPropertyOp12
 70
     1
102
RTVSPropertyOp13
 70
     1
102
RTVSPropertyOp14
 70
     1
102
RTVSPropertyOp15
 70
     1
102
RTVSPropertyOp16
 70
     1
102
RTVSPropertyOp17
 70
     1
102
RTVSPropertyOp18
 70
     1
102
RTVSPropertyOp19
 70
     1
102
RTVSPropertyOp20
 70
     1
102
RTVSPropertyOp21
 70
     1
102
RTVSPropertyOp22
 70
     1
102
RTVSPropertyOp23
 70
     1
102
RTVSPropertyOp24
 70
     1
102
RTVSPropertyOp25
 70
     1
102
RTVSPropertyOp26
 70
     1
102
RTVSPropertyOp27
 70
     1
102
RTVSPropertyOp28
 70
     1
102
RTVSPropertyOp29
 70
     1
102
RTVSPropertyOp30
 70
     1
102
RTVSPropertyOp31
 70
     1
102
RTVSPropertyOp32
 70
     1
102
RTVSPropertyOp33
 70
     1
102
RTVSPropertyOp34
 70
     1
102
RTVSPropertyOp35
 70
     1
102
RTVSPropertyOp36
 70
     1
102
RTVSPropertyOp37
 70
     1
102
RTVSPropertyOp38
 70
     1
102
RTVSPropertyOp39
 70
     1
102
RTVSPropertyOp40
 70
     1
102
RTVSPropertyOp41
 70
     1
102
RTVSPropertyOp42
 70
     1
102
RTVSPropertyOp43
 70
     1
102
RTVSPropertyOp44
 70
     1
102
RTVSPropertyOp45
 70
     1
102
RTVSPropertyOp46
 70
     1
102
RTVSPropertyOp47
 70
     1
102
RTVSPropertyOp48
 70
     1
102
RTVSPropertyOp49
 70
     1
102
RTVSPropertyOp50
 70
     1
102
RTVSPropertyOp51
 70
     0
102
RTVSPropertyOp52
 70
     0
102
RTVSPropertyOp53
 70
     1
102
RTVSPropertyOp54
 70
     1
102
RTVSPropertyOp55
 70
     1
102
RTVSPropertyOp56
 70
     1
102
RTVSPropertyOp57
 70
     1
102
RTVSPropertyOp58
 70
     1
102
RTVSPropertyOp59
 70
     1
102
RTVSPropertyOp60
 70
     1
102
RTVSPropertyOp61
 70
     1
102
RTVSPropertyOp62
 70
     1
  0
XRECORD
  5
2051
102
{ACAD_REACTORS
330
2050
102
}
330
2050
100
AcDbXrecord
280
     1
102
RTVSPost2010Prop28
280
     0
102
RTVSPost2010PropOp28
 70
     1
102
RTVSPost2010Prop29
280
     1
102
RTVSPost2010PropOp29
 70
     1
102
RTVSPost2010Prop30
280
     1
102
RTVSPost2010PropOp30
 70
     1
102
RTVSPost2010Prop31
280
     0
102
RTVSPost2010PropOp31
 70
     1
102
RTVSPost2010Prop32
280
     0
102
RTVSPost2010PropOp32
 70
     1
102
RTVSPost2010Prop33
280
     0
102
RTVSPost2010PropOp33
 70
     1
102
RTVSPost2010Prop34
280
     0
102
RTVSPost2010PropOp34
 70
     1
102
RTVSPost2010Prop35
280
     0
102
RTVSPost2010PropOp35
 70
     1
102
RTVSPost2010Prop36
280
     0
102
RTVSPost2010PropOp36
 70
     1
102
RTVSPost2010Prop37
 90
       50
102
RTVSPost2010PropOp37
 70
     1
102
RTVSPost2010Prop38
140
0.0
102
RTVSPost2010PropOp38
 70
     1
102
RTVSPost2010Prop39
140
1.0
102
RTVSPost2010PropOp39
 70
     1
102
RTVSPost2010Prop40
 90
        0
102
RTVSPost2010PropOp40
 70
     1
102
RTVSPost2010Prop41ColorIndex
 90
       18
102
RTVSPost2010Prop41ColorRGB
 90
        0
102
RTVSPost2010PropOp41
 70
     1
102
RTVSPost2010Prop42
 90
       50
102
RTVSPost2010PropOp42
 70
     1
102
RTVSPost2010Prop43
 90
        3
102
RTVSPost2010PropOp43
 70
     1
102
RTVSPost2010Prop44ColorIndex
 90
        5
102
RTVSPost2010Prop44ColorRGB
 90
      255
102
RTVSPost2010PropOp44
 70
     1
102
RTVSPost2010Prop45
280
     0
102
RTVSPost2010PropOp45
 70
     1
102
RTVSPost2010Prop46
 90
       50
102
RTVSPost2010PropOp46
 70
     1
102
RTVSPost2010Prop47
 90
       50
102
RTVSPost2010PropOp47
 70
     1
102
RTVSPost2010Prop48
 90
       50
102
RTVSPost2010PropOp48
 70
     1
102
RTVSPost2010Prop49
280
     0
102
RTVSPost2010PropOp49
 70
     1
102
RTVSPost2010Prop50
 90
       50
102
RTVSPost2010PropOp50
 70
     1
102
RTVSPost2010Prop51ColorIndex
 90
      256
102
RTVSPost2010Prop51ColorRGB
 90
-16777216
102
RTVSPost2010PropOp51
 70
     0
102
RTVSPost2010Prop52
140
1.0
102
RTVSPost2010PropOp52
 70
     0
102
RTVSPost2010Prop53
 90
        2
102
RTVSPost2010PropOp53
 70
     1
102
RTVSPost2010Prop54
  1
strokes_ogs.tif
102
RTVSPost2010PropOp54
 70
     1
102
RTVSPost2010Prop55
280
     0
102
RTVSPost2010PropOp55
 70
     1
102
RTVSPost2010Prop56
140
1.0
102
RTVSPost2010PropOp56
 70
     1
102
RTVSPost2010Prop57
140
1.0
102
RTVSPost2010PropOp57
 70
     1
102
RTVSPropertyOp0
 70
     1
102
RTVSPropertyOp1
 70
     1
102
RTVSPropertyOp2
 70
     1
102
RTVSPropertyOp3
 70
     1
102
RTVSPropertyOp4
 70
     1
102
RTVSPropertyOp5
 70
     1
102
RTVSPropertyOp6
 70
     1
102
RTVSPropertyOp7
 70
     1
102
RTVSPropertyOp8
 70
     1
102
RTVSPropertyOp9
 70
     1
102
RTVSPropertyOp10
 70
     1
102
RTVSPropertyOp11
 70
     1
102
RTVSPropertyOp12
 70
     1
102
RTVSPropertyOp13
 70
     1
102
RTVSPropertyOp14
 70
     1
102
RTVSPropertyOp15
 70
     1
102
RTVSPropertyOp16
 70
     1
102
RTVSPropertyOp17
 70
     1
102
RTVSPropertyOp18
 70
     1
102
RTVSPropertyOp19
 70
     1
102
RTVSPropertyOp20
 70
     1
102
RTVSPropertyOp21
 70
     1
102
RTVSPropertyOp22
 70
     1
102
RTVSPropertyOp23
 70
     1
102
RTVSPropertyOp24
 70
     1
102
RTVSPropertyOp25
 70
     1
102
RTVSPropertyOp26
 70
     1
102
RTVSPropertyOp27
 70
     1
102
RTVSPropertyOp28
 70
     1
102
RTVSPropertyOp29
 70
     1
102
RTVSPropertyOp30
 70
     1
102
RTVSPropertyOp31
 70
     1
102
RTVSPropertyOp32
 70
     1
102
RTVSPropertyOp33
 70
     1
102
RTVSPropertyOp34
 70
     1
102
RTVSPropertyOp35
 70
     1
102
RTVSPropertyOp36
 70
     1
102
RTVSPropertyOp37
 70
     1
102
RTVSPropertyOp38
 70
     1
102
RTVSPropertyOp39
 70
     1
102
RTVSPropertyOp40
 70
     1
102
RTVSPropertyOp41
 70
     1
102
RTVSPropertyOp42
 70
     1
102
RTVSPropertyOp43
 70
     1
102
RTVSPropertyOp44
 70
     1
102
RTVSPropertyOp45
 70
     1
102
RTVSPropertyOp46
 70
     1
102
RTVSPropertyOp47
 70
     1
102
RTVSPropertyOp48
 70
     1
102
RTVSPropertyOp49
 70
     1
102
RTVSPropertyOp50
 70
     1
102
RTVSPropertyOp51
 70
     0
102
RTVSPropertyOp52
 70
     0
102
RTVSPropertyOp53
 70
     1
102
RTVSPropertyOp54
 70
     1
102
RTVSPropertyOp55
 70
     1
102
RTVSPropertyOp56
 70
     1
102
RTVSPropertyOp57
 70
     1
102
RTVSPropertyOp58
 70
     1
102
RTVSPropertyOp59
 70
     1
102
RTVSPropertyOp60
 70
     1
102
RTVSPropertyOp61
 70
     1
102
RTVSPropertyOp62
 70
     1
  0
XRECORD
  5
205D
102
{ACAD_REACTORS
330
205C
102
}
330
205C
100
AcDbXrecord
280
     1
102
RTVSPost2010Prop28
280
     0
102
RTVSPost2010PropOp28
 70
     0
102
RTVSPost2010Prop29
280
     1
102
RTVSPost2010PropOp29
 70
     0
102
RTVSPost2010Prop30
280
     1
102
RTVSPost2010PropOp30
 70
     0
102
RTVSPost2010Prop31
280
     0
102
RTVSPost2010PropOp31
 70
     0
102
RTVSPost2010Prop32
280
     0
102
RTVSPost2010PropOp32
 70
     0
102
RTVSPost2010Prop33
280
     0
102
RTVSPost2010PropOp33
 70
     0
102
RTVSPost2010Prop34
280
     0
102
RTVSPost2010PropOp34
 70
     0
102
RTVSPost2010Prop35
280
     0
102
RTVSPost2010PropOp35
 70
     0
102
RTVSPost2010Prop36
280
     0
102
RTVSPost2010PropOp36
 70
     0
102
RTVSPost2010Prop37
 90
       50
102
RTVSPost2010PropOp37
 70
     0
102
RTVSPost2010Prop38
140
0.0
102
RTVSPost2010PropOp38
 70
     0
102
RTVSPost2010Prop39
140
1.0
102
RTVSPost2010PropOp39
 70
     0
102
RTVSPost2010Prop40
 90
        0
102
RTVSPost2010PropOp40
 70
     0
102
RTVSPost2010Prop41ColorIndex
 90
       18
102
RTVSPost2010Prop41ColorRGB
 90
        0
102
RTVSPost2010PropOp41
 70
     0
102
RTVSPost2010Prop42
 90
       50
102
RTVSPost2010PropOp42
 70
     0
102
RTVSPost2010Prop43
 90
        3
102
RTVSPost2010PropOp43
 70
     0
102
RTVSPost2010Prop44ColorIndex
 90
        5
102
RTVSPost2010Prop44ColorRGB
 90
      255
102
RTVSPost2010PropOp44
 70
     0
102
RTVSPost2010Prop45
280
     0
102
RTVSPost2010PropOp45
 70
     0
102
RTVSPost2010Prop46
 90
       50
102
RTVSPost2010PropOp46
 70
     0
102
RTVSPost2010Prop47
 90
       50
102
RTVSPost2010PropOp47
 70
     0
102
RTVSPost2010Prop48
 90
       50
102
RTVSPost2010PropOp48
 70
     0
102
RTVSPost2010Prop49
280
     0
102
RTVSPost2010PropOp49
 70
     0
102
RTVSPost2010Prop50
 90
       50
102
RTVSPost2010PropOp50
 70
     0
102
RTVSPost2010Prop51ColorIndex
 90
      256
102
RTVSPost2010Prop51ColorRGB
 90
-16777216
102
RTVSPost2010PropOp51
 70
     0
102
RTVSPost2010Prop52
140
1.0
102
RTVSPost2010PropOp52
 70
     0
102
RTVSPost2010Prop53
 90
        2
102
RTVSPost2010PropOp53
 70
     0
102
RTVSPost2010Prop54
  1
strokes_ogs.tif
102
RTVSPost2010PropOp54
 70
     0
102
RTVSPost2010Prop55
280
     0
102
RTVSPost2010PropOp55
 70
     0
102
RTVSPost2010Prop56
140
1.0
102
RTVSPost2010PropOp56
 70
     0
102
RTVSPost2010Prop57
140
1.0
102
RTVSPost2010PropOp57
 70
     0
102
RTVSPropertyOp0
 70
     0
102
RTVSPropertyOp1
 70
     0
102
RTVSPropertyOp2
 70
     0
102
RTVSPropertyOp3
 70
     0
102
RTVSPropertyOp4
 70
     0
102
RTVSPropertyOp5
 70
     0
102
RTVSPropertyOp6
 70
     0
102
RTVSPropertyOp7
 70
     0
102
RTVSPropertyOp8
 70
     0
102
RTVSPropertyOp9
 70
     0
102
RTVSPropertyOp10
 70
     0
102
RTVSPropertyOp11
 70
     0
102
RTVSPropertyOp12
 70
     0
102
RTVSPropertyOp13
 70
     0
102
RTVSPropertyOp14
 70
     2
102
RTVSPropertyOp15
 70
     0
102
RTVSPropertyOp16
 70
     0
102
RTVSPropertyOp17
 70
     0
102
RTVSPropertyOp18
 70
     0
102
RTVSPropertyOp19
 70
     0
102
RTVSPropertyOp20
 70
     0
102
RTVSPropertyOp21
 70
     0
102
RTVSPropertyOp22
 70
     0
102
RTVSPropertyOp23
 70
     0
102
RTVSPropertyOp24
 70
     0
102
RTVSPropertyOp25
 70
     0
102
RTVSPropertyOp26
 70
     0
102
RTVSPropertyOp27
 70
     0
102
RTVSPropertyOp28
 70
     0
102
RTVSPropertyOp29
 70
     0
102
RTVSPropertyOp30
 70
     0
102
RTVSPropertyOp31
 70
     0
102
RTVSPropertyOp32
 70
     0
102
RTVSPropertyOp33
 70
     0
102
RTVSPropertyOp34
 70
     0
102
RTVSPropertyOp35
 70
     0
102
RTVSPropertyOp36
 70
     0
102
RTVSPropertyOp37
 70
     0
102
RTVSPropertyOp38
 70
     0
102
RTVSPropertyOp39
 70
     0
102
RTVSPropertyOp40
 70
     0
102
RTVSPropertyOp41
 70
     0
102
RTVSPropertyOp42
 70
     0
102
RTVSPropertyOp43
 70
     0
102
RTVSPropertyOp44
 70
     0
102
RTVSPropertyOp45
 70
     0
102
RTVSPropertyOp46
 70
     0
102
RTVSPropertyOp47
 70
     0
102
RTVSPropertyOp48
 70
     0
102
RTVSPropertyOp49
 70
     0
102
RTVSPropertyOp50
 70
     0
102
RTVSPropertyOp51
 70
     0
102
RTVSPropertyOp52
 70
     0
102
RTVSPropertyOp53
 70
     0
102
RTVSPropertyOp54
 70
     0
102
RTVSPropertyOp55
 70
     0
102
RTVSPropertyOp56
 70
     0
102
RTVSPropertyOp57
 70
     0
102
RTVSPropertyOp58
 70
     0
102
RTVSPropertyOp59
 70
     0
102
RTVSPropertyOp60
 70
     0
102
RTVSPropertyOp61
 70
     0
102
RTVSPropertyOp62
 70
     0
  0
XRECORD
  5
2049
102
{ACAD_REACTORS
330
2048
102
}
330
2048
100
AcDbXrecord
280
     1
102
RTVSPost2010Prop28
280
     0
102
RTVSPost2010PropOp28
 70
     1
102
RTVSPost2010Prop29
280
     1
102
RTVSPost2010PropOp29
 70
     1
102
RTVSPost2010Prop30
280
     1
102
RTVSPost2010PropOp30
 70
     1
102
RTVSPost2010Prop31
280
     0
102
RTVSPost2010PropOp31
 70
     1
102
RTVSPost2010Prop32
280
     0
102
RTVSPost2010PropOp32
 70
     1
102
RTVSPost2010Prop33
280
     0
102
RTVSPost2010PropOp33
 70
     1
102
RTVSPost2010Prop34
280
     0
102
RTVSPost2010PropOp34
 70
     1
102
RTVSPost2010Prop35
280
     0
102
RTVSPost2010PropOp35
 70
     1
102
RTVSPost2010Prop36
280
     0
102
RTVSPost2010PropOp36
 70
     1
102
RTVSPost2010Prop37
 90
       50
102
RTVSPost2010PropOp37
 70
     1
102
RTVSPost2010Prop38
140
0.0
102
RTVSPost2010PropOp38
 70
     1
102
RTVSPost2010Prop39
140
1.0
102
RTVSPost2010PropOp39
 70
     1
102
RTVSPost2010Prop40
 90
        0
102
RTVSPost2010PropOp40
 70
     1
102
RTVSPost2010Prop41ColorIndex
 90
       18
102
RTVSPost2010Prop41ColorRGB
 90
        0
102
RTVSPost2010PropOp41
 70
     1
102
RTVSPost2010Prop42
 90
       50
102
RTVSPost2010PropOp42
 70
     1
102
RTVSPost2010Prop43
 90
        3
102
RTVSPost2010PropOp43
 70
     1
102
RTVSPost2010Prop44ColorIndex
 90
        5
102
RTVSPost2010Prop44ColorRGB
 90
      255
102
RTVSPost2010PropOp44
 70
     1
102
RTVSPost2010Prop45
280
     0
102
RTVSPost2010PropOp45
 70
     1
102
RTVSPost2010Prop46
 90
       50
102
RTVSPost2010PropOp46
 70
     1
102
RTVSPost2010Prop47
 90
       50
102
RTVSPost2010PropOp47
 70
     1
102
RTVSPost2010Prop48
 90
       50
102
RTVSPost2010PropOp48
 70
     1
102
RTVSPost2010Prop49
280
     0
102
RTVSPost2010PropOp49
 70
     1
102
RTVSPost2010Prop50
 90
       50
102
RTVSPost2010PropOp50
 70
     1
102
RTVSPost2010Prop51ColorIndex
 90
      256
102
RTVSPost2010Prop51ColorRGB
 90
-16777216
102
RTVSPost2010PropOp51
 70
     0
102
RTVSPost2010Prop52
140
1.0
102
RTVSPost2010PropOp52
 70
     0
102
RTVSPost2010Prop53
 90
        2
102
RTVSPost2010PropOp53
 70
     1
102
RTVSPost2010Prop54
  1
strokes_ogs.tif
102
RTVSPost2010PropOp54
 70
     1
102
RTVSPost2010Prop55
280
     0
102
RTVSPost2010PropOp55
 70
     1
102
RTVSPost2010Prop56
140
1.0
102
RTVSPost2010PropOp56
 70
     1
102
RTVSPost2010Prop57
140
1.0
102
RTVSPost2010PropOp57
 70
     1
102
RTVSPropertyOp0
 70
     1
102
RTVSPropertyOp1
 70
     1
102
RTVSPropertyOp2
 70
     1
102
RTVSPropertyOp3
 70
     1
102
RTVSPropertyOp4
 70
     1
102
RTVSPropertyOp5
 70
     1
102
RTVSPropertyOp6
 70
     1
102
RTVSPropertyOp7
 70
     1
102
RTVSPropertyOp8
 70
     1
102
RTVSPropertyOp9
 70
     1
102
RTVSPropertyOp10
 70
     1
102
RTVSPropertyOp11
 70
     1
102
RTVSPropertyOp12
 70
     1
102
RTVSPropertyOp13
 70
     1
102
RTVSPropertyOp14
 70
     1
102
RTVSPropertyOp15
 70
     1
102
RTVSPropertyOp16
 70
     1
102
RTVSPropertyOp17
 70
     1
102
RTVSPropertyOp18
 70
     1
102
RTVSPropertyOp19
 70
     1
102
RTVSPropertyOp20
 70
     1
102
RTVSPropertyOp21
 70
     1
102
RTVSPropertyOp22
 70
     1
102
RTVSPropertyOp23
 70
     1
102
RTVSPropertyOp24
 70
     1
102
RTVSPropertyOp25
 70
     1
102
RTVSPropertyOp26
 70
     1
102
RTVSPropertyOp27
 70
     1
102
RTVSPropertyOp28
 70
     1
102
RTVSPropertyOp29
 70
     1
102
RTVSPropertyOp30
 70
     1
102
RTVSPropertyOp31
 70
     1
102
RTVSPropertyOp32
 70
     1
102
RTVSPropertyOp33
 70
     1
102
RTVSPropertyOp34
 70
     1
102
RTVSPropertyOp35
 70
     1
102
RTVSPropertyOp36
 70
     1
102
RTVSPropertyOp37
 70
     1
102
RTVSPropertyOp38
 70
     1
102
RTVSPropertyOp39
 70
     1
102
RTVSPropertyOp40
 70
     1
102
RTVSPropertyOp41
 70
     1
102
RTVSPropertyOp42
 70
     1
102
RTVSPropertyOp43
 70
     1
102
RTVSPropertyOp44
 70
     1
102
RTVSPropertyOp45
 70
     1
102
RTVSPropertyOp46
 70
     1
102
RTVSPropertyOp47
 70
     1
102
RTVSPropertyOp48
 70
     1
102
RTVSPropertyOp49
 70
     1
102
RTVSPropertyOp50
 70
     1
102
RTVSPropertyOp51
 70
     0
102
RTVSPropertyOp52
 70
     0
102
RTVSPropertyOp53
 70
     1
102
RTVSPropertyOp54
 70
     1
102
RTVSPropertyOp55
 70
     1
102
RTVSPropertyOp56
 70
     1
102
RTVSPropertyOp57
 70
     1
102
RTVSPropertyOp58
 70
     1
102
RTVSPropertyOp59
 70
     1
102
RTVSPropertyOp60
 70
     1
102
RTVSPropertyOp61
 70
     1
102
RTVSPropertyOp62
 70
     1
  0
XRECORD
  5
205F
102
{ACAD_REACTORS
330
205E
102
}
330
205E
100
AcDbXrecord
280
     1
102
RTVSPost2010Prop28
280
     0
102
RTVSPost2010PropOp28
 70
     0
102
RTVSPost2010Prop29
280
     1
102
RTVSPost2010PropOp29
 70
     0
102
RTVSPost2010Prop30
280
     1
102
RTVSPost2010PropOp30
 70
     0
102
RTVSPost2010Prop31
280
     0
102
RTVSPost2010PropOp31
 70
     0
102
RTVSPost2010Prop32
280
     0
102
RTVSPost2010PropOp32
 70
     0
102
RTVSPost2010Prop33
280
     0
102
RTVSPost2010PropOp33
 70
     0
102
RTVSPost2010Prop34
280
     0
102
RTVSPost2010PropOp34
 70
     0
102
RTVSPost2010Prop35
280
     0
102
RTVSPost2010PropOp35
 70
     0
102
RTVSPost2010Prop36
280
     0
102
RTVSPost2010PropOp36
 70
     0
102
RTVSPost2010Prop37
 90
       50
102
RTVSPost2010PropOp37
 70
     0
102
RTVSPost2010Prop38
140
0.0
102
RTVSPost2010PropOp38
 70
     0
102
RTVSPost2010Prop39
140
1.0
102
RTVSPost2010PropOp39
 70
     0
102
RTVSPost2010Prop40
 90
        0
102
RTVSPost2010PropOp40
 70
     0
102
RTVSPost2010Prop41ColorIndex
 90
       18
102
RTVSPost2010Prop41ColorRGB
 90
        0
102
RTVSPost2010PropOp41
 70
     0
102
RTVSPost2010Prop42
 90
       50
102
RTVSPost2010PropOp42
 70
     0
102
RTVSPost2010Prop43
 90
        3
102
RTVSPost2010PropOp43
 70
     0
102
RTVSPost2010Prop44ColorIndex
 90
        5
102
RTVSPost2010Prop44ColorRGB
 90
      255
102
RTVSPost2010PropOp44
 70
     0
102
RTVSPost2010Prop45
280
     0
102
RTVSPost2010PropOp45
 70
     0
102
RTVSPost2010Prop46
 90
       50
102
RTVSPost2010PropOp46
 70
     0
102
RTVSPost2010Prop47
 90
       50
102
RTVSPost2010PropOp47
 70
     0
102
RTVSPost2010Prop48
 90
       50
102
RTVSPost2010PropOp48
 70
     0
102
RTVSPost2010Prop49
280
     0
102
RTVSPost2010PropOp49
 70
     0
102
RTVSPost2010Prop50
 90
       50
102
RTVSPost2010PropOp50
 70
     0
102
RTVSPost2010Prop51ColorIndex
 90
      256
102
RTVSPost2010Prop51ColorRGB
 90
-16777216
102
RTVSPost2010PropOp51
 70
     0
102
RTVSPost2010Prop52
140
1.0
102
RTVSPost2010PropOp52
 70
     0
102
RTVSPost2010Prop53
 90
        2
102
RTVSPost2010PropOp53
 70
     0
102
RTVSPost2010Prop54
  1
strokes_ogs.tif
102
RTVSPost2010PropOp54
 70
     0
102
RTVSPost2010Prop55
280
     0
102
RTVSPost2010PropOp55
 70
     0
102
RTVSPost2010Prop56
140
1.0
102
RTVSPost2010PropOp56
 70
     0
102
RTVSPost2010Prop57
140
1.0
102
RTVSPost2010PropOp57
 70
     0
102
RTVSPropertyOp0
 70
     0
102
RTVSPropertyOp1
 70
     0
102
RTVSPropertyOp2
 70
     0
102
RTVSPropertyOp3
 70
     0
102
RTVSPropertyOp4
 70
     0
102
RTVSPropertyOp5
 70
     0
102
RTVSPropertyOp6
 70
     0
102
RTVSPropertyOp7
 70
     0
102
RTVSPropertyOp8
 70
     0
102
RTVSPropertyOp9
 70
     0
102
RTVSPropertyOp10
 70
     0
102
RTVSPropertyOp11
 70
     0
102
RTVSPropertyOp12
 70
     0
102
RTVSPropertyOp13
 70
     0
102
RTVSPropertyOp14
 70
     2
102
RTVSPropertyOp15
 70
     0
102
RTVSPropertyOp16
 70
     0
102
RTVSPropertyOp17
 70
     0
102
RTVSPropertyOp18
 70
     0
102
RTVSPropertyOp19
 70
     0
102
RTVSPropertyOp20
 70
     0
102
RTVSPropertyOp21
 70
     0
102
RTVSPropertyOp22
 70
     0
102
RTVSPropertyOp23
 70
     0
102
RTVSPropertyOp24
 70
     0
102
RTVSPropertyOp25
 70
     0
102
RTVSPropertyOp26
 70
     0
102
RTVSPropertyOp27
 70
     0
102
RTVSPropertyOp28
 70
     0
102
RTVSPropertyOp29
 70
     0
102
RTVSPropertyOp30
 70
     0
102
RTVSPropertyOp31
 70
     0
102
RTVSPropertyOp32
 70
     0
102
RTVSPropertyOp33
 70
     0
102
RTVSPropertyOp34
 70
     0
102
RTVSPropertyOp35
 70
     0
102
RTVSPropertyOp36
 70
     0
102
RTVSPropertyOp37
 70
     0
102
RTVSPropertyOp38
 70
     0
102
RTVSPropertyOp39
 70
     0
102
RTVSPropertyOp40
 70
     0
102
RTVSPropertyOp41
 70
     0
102
RTVSPropertyOp42
 70
     0
102
RTVSPropertyOp43
 70
     0
102
RTVSPropertyOp44
 70
     0
102
RTVSPropertyOp45
 70
     0
102
RTVSPropertyOp46
 70
     0
102
RTVSPropertyOp47
 70
     0
102
RTVSPropertyOp48
 70
     0
102
RTVSPropertyOp49
 70
     0
102
RTVSPropertyOp50
 70
     0
102
RTVSPropertyOp51
 70
     0
102
RTVSPropertyOp52
 70
     0
102
RTVSPropertyOp53
 70
     0
102
RTVSPropertyOp54
 70
     0
102
RTVSPropertyOp55
 70
     0
102
RTVSPropertyOp56
 70
     0
102
RTVSPropertyOp57
 70
     0
102
RTVSPropertyOp58
 70
     0
102
RTVSPropertyOp59
 70
     0
102
RTVSPropertyOp60
 70
     0
102
RTVSPropertyOp61
 70
     0
102
RTVSPropertyOp62
 70
     0
  0
XRECORD
  5
2041
102
{ACAD_REACTORS
330
2040
102
}
330
2040
100
AcDbXrecord
280
     1
102
RTVSPost2010Prop28
280
     0
102
RTVSPost2010PropOp28
 70
     1
102
RTVSPost2010Prop29
280
     1
102
RTVSPost2010PropOp29
 70
     1
102
RTVSPost2010Prop30
280
     1
102
RTVSPost2010PropOp30
 70
     1
102
RTVSPost2010Prop31
280
     0
102
RTVSPost2010PropOp31
 70
     1
102
RTVSPost2010Prop32
280
     0
102
RTVSPost2010PropOp32
 70
     1
102
RTVSPost2010Prop33
280
     0
102
RTVSPost2010PropOp33
 70
     1
102
RTVSPost2010Prop34
280
     0
102
RTVSPost2010PropOp34
 70
     1
102
RTVSPost2010Prop35
280
     0
102
RTVSPost2010PropOp35
 70
     1
102
RTVSPost2010Prop36
280
     0
102
RTVSPost2010PropOp36
 70
     1
102
RTVSPost2010Prop37
 90
       50
102
RTVSPost2010PropOp37
 70
     1
102
RTVSPost2010Prop38
140
0.0
102
RTVSPost2010PropOp38
 70
     1
102
RTVSPost2010Prop39
140
1.0
102
RTVSPost2010PropOp39
 70
     1
102
RTVSPost2010Prop40
 90
        0
102
RTVSPost2010PropOp40
 70
     1
102
RTVSPost2010Prop41ColorIndex
 90
       18
102
RTVSPost2010Prop41ColorRGB
 90
        0
102
RTVSPost2010PropOp41
 70
     1
102
RTVSPost2010Prop42
 90
       50
102
RTVSPost2010PropOp42
 70
     1
102
RTVSPost2010Prop43
 90
        3
102
RTVSPost2010PropOp43
 70
     1
102
RTVSPost2010Prop44ColorIndex
 90
        5
102
RTVSPost2010Prop44ColorRGB
 90
      255
102
RTVSPost2010PropOp44
 70
     1
102
RTVSPost2010Prop45
280
     0
102
RTVSPost2010PropOp45
 70
     1
102
RTVSPost2010Prop46
 90
       50
102
RTVSPost2010PropOp46
 70
     1
102
RTVSPost2010Prop47
 90
       50
102
RTVSPost2010PropOp47
 70
     1
102
RTVSPost2010Prop48
 90
       50
102
RTVSPost2010PropOp48
 70
     1
102
RTVSPost2010Prop49
280
     0
102
RTVSPost2010PropOp49
 70
     1
102
RTVSPost2010Prop50
 90
       50
102
RTVSPost2010PropOp50
 70
     1
102
RTVSPost2010Prop51ColorIndex
 90
      256
102
RTVSPost2010Prop51ColorRGB
 90
-16777216
102
RTVSPost2010PropOp51
 70
     0
102
RTVSPost2010Prop52
140
1.0
102
RTVSPost2010PropOp52
 70
     0
102
RTVSPost2010Prop53
 90
        2
102
RTVSPost2010PropOp53
 70
     1
102
RTVSPost2010Prop54
  1
strokes_ogs.tif
102
RTVSPost2010PropOp54
 70
     1
102
RTVSPost2010Prop55
280
     0
102
RTVSPost2010PropOp55
 70
     1
102
RTVSPost2010Prop56
140
1.0
102
RTVSPost2010PropOp56
 70
     1
102
RTVSPost2010Prop57
140
1.0
102
RTVSPost2010PropOp57
 70
     1
102
RTVSPropertyOp0
 70
     1
102
RTVSPropertyOp1
 70
     1
102
RTVSPropertyOp2
 70
     1
102
RTVSPropertyOp3
 70
     1
102
RTVSPropertyOp4
 70
     1
102
RTVSPropertyOp5
 70
     1
102
RTVSPropertyOp6
 70
     1
102
RTVSPropertyOp7
 70
     1
102
RTVSPropertyOp8
 70
     1
102
RTVSPropertyOp9
 70
     1
102
RTVSPropertyOp10
 70
     1
102
RTVSPropertyOp11
 70
     1
102
RTVSPropertyOp12
 70
     1
102
RTVSPropertyOp13
 70
     1
102
RTVSPropertyOp14
 70
     1
102
RTVSPropertyOp15
 70
     1
102
RTVSPropertyOp16
 70
     1
102
RTVSPropertyOp17
 70
     1
102
RTVSPropertyOp18
 70
     1
102
RTVSPropertyOp19
 70
     1
102
RTVSPropertyOp20
 70
     1
102
RTVSPropertyOp21
 70
     1
102
RTVSPropertyOp22
 70
     1
102
RTVSPropertyOp23
 70
     1
102
RTVSPropertyOp24
 70
     1
102
RTVSPropertyOp25
 70
     1
102
RTVSPropertyOp26
 70
     1
102
RTVSPropertyOp27
 70
     1
102
RTVSPropertyOp28
 70
     1
102
RTVSPropertyOp29
 70
     1
102
RTVSPropertyOp30
 70
     1
102
RTVSPropertyOp31
 70
     1
102
RTVSPropertyOp32
 70
     1
102
RTVSPropertyOp33
 70
     1
102
RTVSPropertyOp34
 70
     1
102
RTVSPropertyOp35
 70
     1
102
RTVSPropertyOp36
 70
     1
102
RTVSPropertyOp37
 70
     1
102
RTVSPropertyOp38
 70
     1
102
RTVSPropertyOp39
 70
     1
102
RTVSPropertyOp40
 70
     1
102
RTVSPropertyOp41
 70
     1
102
RTVSPropertyOp42
 70
     1
102
RTVSPropertyOp43
 70
     1
102
RTVSPropertyOp44
 70
     1
102
RTVSPropertyOp45
 70
     1
102
RTVSPropertyOp46
 70
     1
102
RTVSPropertyOp47
 70
     1
102
RTVSPropertyOp48
 70
     1
102
RTVSPropertyOp49
 70
     1
102
RTVSPropertyOp50
 70
     1
102
RTVSPropertyOp51
 70
     0
102
RTVSPropertyOp52
 70
     0
102
RTVSPropertyOp53
 70
     1
102
RTVSPropertyOp54
 70
     1
102
RTVSPropertyOp55
 70
     1
102
RTVSPropertyOp56
 70
     1
102
RTVSPropertyOp57
 70
     1
102
RTVSPropertyOp58
 70
     1
102
RTVSPropertyOp59
 70
     1
102
RTVSPropertyOp60
 70
     1
102
RTVSPropertyOp61
 70
     1
102
RTVSPropertyOp62
 70
     1
  0
XRECORD
  5
205B
102
{ACAD_REACTORS
330
205A
102
}
330
205A
100
AcDbXrecord
280
     1
102
RTVSPost2010Prop28
280
     0
102
RTVSPost2010PropOp28
 70
     1
102
RTVSPost2010Prop29
280
     1
102
RTVSPost2010PropOp29
 70
     1
102
RTVSPost2010Prop30
280
     1
102
RTVSPost2010PropOp30
 70
     1
102
RTVSPost2010Prop31
280
     0
102
RTVSPost2010PropOp31
 70
     1
102
RTVSPost2010Prop32
280
     0
102
RTVSPost2010PropOp32
 70
     1
102
RTVSPost2010Prop33
280
     0
102
RTVSPost2010PropOp33
 70
     1
102
RTVSPost2010Prop34
280
     0
102
RTVSPost2010PropOp34
 70
     1
102
RTVSPost2010Prop35
280
     0
102
RTVSPost2010PropOp35
 70
     1
102
RTVSPost2010Prop36
280
     0
102
RTVSPost2010PropOp36
 70
     1
102
RTVSPost2010Prop37
 90
       50
102
RTVSPost2010PropOp37
 70
     1
102
RTVSPost2010Prop38
140
0.0
102
RTVSPost2010PropOp38
 70
     1
102
RTVSPost2010Prop39
140
1.0
102
RTVSPost2010PropOp39
 70
     1
102
RTVSPost2010Prop40
 90
        0
102
RTVSPost2010PropOp40
 70
     1
102
RTVSPost2010Prop41ColorIndex
 90
       18
102
RTVSPost2010Prop41ColorRGB
 90
        0
102
RTVSPost2010PropOp41
 70
     1
102
RTVSPost2010Prop42
 90
       50
102
RTVSPost2010PropOp42
 70
     1
102
RTVSPost2010Prop43
 90
        3
102
RTVSPost2010PropOp43
 70
     1
102
RTVSPost2010Prop44ColorIndex
 90
        5
102
RTVSPost2010Prop44ColorRGB
 90
      255
102
RTVSPost2010PropOp44
 70
     1
102
RTVSPost2010Prop45
280
     0
102
RTVSPost2010PropOp45
 70
     1
102
RTVSPost2010Prop46
 90
       50
102
RTVSPost2010PropOp46
 70
     1
102
RTVSPost2010Prop47
 90
       50
102
RTVSPost2010PropOp47
 70
     1
102
RTVSPost2010Prop48
 90
       50
102
RTVSPost2010PropOp48
 70
     1
102
RTVSPost2010Prop49
280
     0
102
RTVSPost2010PropOp49
 70
     1
102
RTVSPost2010Prop50
 90
       50
102
RTVSPost2010PropOp50
 70
     1
102
RTVSPost2010Prop51ColorIndex
 90
      256
102
RTVSPost2010Prop51ColorRGB
 90
-16777216
102
RTVSPost2010PropOp51
 70
     0
102
RTVSPost2010Prop52
140
1.0
102
RTVSPost2010PropOp52
 70
     0
102
RTVSPost2010Prop53
 90
        2
102
RTVSPost2010PropOp53
 70
     1
102
RTVSPost2010Prop54
  1
strokes_ogs.tif
102
RTVSPost2010PropOp54
 70
     1
102
RTVSPost2010Prop55
280
     0
102
RTVSPost2010PropOp55
 70
     1
102
RTVSPost2010Prop56
140
1.0
102
RTVSPost2010PropOp56
 70
     1
102
RTVSPost2010Prop57
140
1.0
102
RTVSPost2010PropOp57
 70
     1
102
RTVSPropertyOp0
 70
     1
102
RTVSPropertyOp1
 70
     1
102
RTVSPropertyOp2
 70
     1
102
RTVSPropertyOp3
 70
     1
102
RTVSPropertyOp4
 70
     1
102
RTVSPropertyOp5
 70
     1
102
RTVSPropertyOp6
 70
     1
102
RTVSPropertyOp7
 70
     1
102
RTVSPropertyOp8
 70
     1
102
RTVSPropertyOp9
 70
     1
102
RTVSPropertyOp10
 70
     1
102
RTVSPropertyOp11
 70
     1
102
RTVSPropertyOp12
 70
     1
102
RTVSPropertyOp13
 70
     1
102
RTVSPropertyOp14
 70
     1
102
RTVSPropertyOp15
 70
     1
102
RTVSPropertyOp16
 70
     1
102
RTVSPropertyOp17
 70
     1
102
RTVSPropertyOp18
 70
     1
102
RTVSPropertyOp19
 70
     1
102
RTVSPropertyOp20
 70
     1
102
RTVSPropertyOp21
 70
     1
102
RTVSPropertyOp22
 70
     1
102
RTVSPropertyOp23
 70
     1
102
RTVSPropertyOp24
 70
     1
102
RTVSPropertyOp25
 70
     1
102
RTVSPropertyOp26
 70
     1
102
RTVSPropertyOp27
 70
     1
102
RTVSPropertyOp28
 70
     1
102
RTVSPropertyOp29
 70
     1
102
RTVSPropertyOp30
 70
     1
102
RTVSPropertyOp31
 70
     1
102
RTVSPropertyOp32
 70
     1
102
RTVSPropertyOp33
 70
     1
102
RTVSPropertyOp34
 70
     1
102
RTVSPropertyOp35
 70
     1
102
RTVSPropertyOp36
 70
     1
102
RTVSPropertyOp37
 70
     1
102
RTVSPropertyOp38
 70
     1
102
RTVSPropertyOp39
 70
     1
102
RTVSPropertyOp40
 70
     1
102
RTVSPropertyOp41
 70
     1
102
RTVSPropertyOp42
 70
     1
102
RTVSPropertyOp43
 70
     1
102
RTVSPropertyOp44
 70
     1
102
RTVSPropertyOp45
 70
     1
102
RTVSPropertyOp46
 70
     1
102
RTVSPropertyOp47
 70
     1
102
RTVSPropertyOp48
 70
     1
102
RTVSPropertyOp49
 70
     1
102
RTVSPropertyOp50
 70
     1
102
RTVSPropertyOp51
 70
     0
102
RTVSPropertyOp52
 70
     0
102
RTVSPropertyOp53
 70
     1
102
RTVSPropertyOp54
 70
     1
102
RTVSPropertyOp55
 70
     1
102
RTVSPropertyOp56
 70
     1
102
RTVSPropertyOp57
 70
     1
102
RTVSPropertyOp58
 70
     1
102
RTVSPropertyOp59
 70
     1
102
RTVSPropertyOp60
 70
     1
102
RTVSPropertyOp61
 70
     1
102
RTVSPropertyOp62
 70
     1
  0
XRECORD
  5
2059
102
{ACAD_REACTORS
330
2058
102
}
330
2058
100
AcDbXrecord
280
     1
102
RTVSPost2010Prop28
280
     0
102
RTVSPost2010PropOp28
 70
     1
102
RTVSPost2010Prop29
280
     1
102
RTVSPost2010PropOp29
 70
     1
102
RTVSPost2010Prop30
280
     1
102
RTVSPost2010PropOp30
 70
     1
102
RTVSPost2010Prop31
280
     0
102
RTVSPost2010PropOp31
 70
     1
102
RTVSPost2010Prop32
280
     0
102
RTVSPost2010PropOp32
 70
     1
102
RTVSPost2010Prop33
280
     0
102
RTVSPost2010PropOp33
 70
     1
102
RTVSPost2010Prop34
280
     0
102
RTVSPost2010PropOp34
 70
     1
102
RTVSPost2010Prop35
280
     0
102
RTVSPost2010PropOp35
 70
     1
102
RTVSPost2010Prop36
280
     0
102
RTVSPost2010PropOp36
 70
     1
102
RTVSPost2010Prop37
 90
       50
102
RTVSPost2010PropOp37
 70
     1
102
RTVSPost2010Prop38
140
0.0
102
RTVSPost2010PropOp38
 70
     1
102
RTVSPost2010Prop39
140
1.0
102
RTVSPost2010PropOp39
 70
     1
102
RTVSPost2010Prop40
 90
        0
102
RTVSPost2010PropOp40
 70
     1
102
RTVSPost2010Prop41ColorIndex
 90
       18
102
RTVSPost2010Prop41ColorRGB
 90
        0
102
RTVSPost2010PropOp41
 70
     1
102
RTVSPost2010Prop42
 90
       50
102
RTVSPost2010PropOp42
 70
     1
102
RTVSPost2010Prop43
 90
        3
102
RTVSPost2010PropOp43
 70
     1
102
RTVSPost2010Prop44ColorIndex
 90
        5
102
RTVSPost2010Prop44ColorRGB
 90
      255
102
RTVSPost2010PropOp44
 70
     1
102
RTVSPost2010Prop45
280
     0
102
RTVSPost2010PropOp45
 70
     1
102
RTVSPost2010Prop46
 90
       50
102
RTVSPost2010PropOp46
 70
     1
102
RTVSPost2010Prop47
 90
       50
102
RTVSPost2010PropOp47
 70
     1
102
RTVSPost2010Prop48
 90
       50
102
RTVSPost2010PropOp48
 70
     1
102
RTVSPost2010Prop49
280
     0
102
RTVSPost2010PropOp49
 70
     1
102
RTVSPost2010Prop50
 90
       50
102
RTVSPost2010PropOp50
 70
     1
102
RTVSPost2010Prop51ColorIndex
 90
      256
102
RTVSPost2010Prop51ColorRGB
 90
-16777216
102
RTVSPost2010PropOp51
 70
     0
102
RTVSPost2010Prop52
140
1.0
102
RTVSPost2010PropOp52
 70
     0
102
RTVSPost2010Prop53
 90
        2
102
RTVSPost2010PropOp53
 70
     1
102
RTVSPost2010Prop54
  1
strokes_ogs.tif
102
RTVSPost2010PropOp54
 70
     1
102
RTVSPost2010Prop55
280
     0
102
RTVSPost2010PropOp55
 70
     1
102
RTVSPost2010Prop56
140
1.0
102
RTVSPost2010PropOp56
 70
     1
102
RTVSPost2010Prop57
140
1.0
102
RTVSPost2010PropOp57
 70
     1
102
RTVSPropertyOp0
 70
     1
102
RTVSPropertyOp1
 70
     1
102
RTVSPropertyOp2
 70
     1
102
RTVSPropertyOp3
 70
     1
102
RTVSPropertyOp4
 70
     1
102
RTVSPropertyOp5
 70
     1
102
RTVSPropertyOp6
 70
     1
102
RTVSPropertyOp7
 70
     1
102
RTVSPropertyOp8
 70
     1
102
RTVSPropertyOp9
 70
     1
102
RTVSPropertyOp10
 70
     1
102
RTVSPropertyOp11
 70
     1
102
RTVSPropertyOp12
 70
     1
102
RTVSPropertyOp13
 70
     1
102
RTVSPropertyOp14
 70
     1
102
RTVSPropertyOp15
 70
     1
102
RTVSPropertyOp16
 70
     1
102
RTVSPropertyOp17
 70
     1
102
RTVSPropertyOp18
 70
     1
102
RTVSPropertyOp19
 70
     1
102
RTVSPropertyOp20
 70
     1
102
RTVSPropertyOp21
 70
     1
102
RTVSPropertyOp22
 70
     1
102
RTVSPropertyOp23
 70
     1
102
RTVSPropertyOp24
 70
     1
102
RTVSPropertyOp25
 70
     1
102
RTVSPropertyOp26
 70
     1
102
RTVSPropertyOp27
 70
     1
102
RTVSPropertyOp28
 70
     1
102
RTVSPropertyOp29
 70
     1
102
RTVSPropertyOp30
 70
     1
102
RTVSPropertyOp31
 70
     1
102
RTVSPropertyOp32
 70
     1
102
RTVSPropertyOp33
 70
     1
102
RTVSPropertyOp34
 70
     1
102
RTVSPropertyOp35
 70
     1
102
RTVSPropertyOp36
 70
     1
102
RTVSPropertyOp37
 70
     1
102
RTVSPropertyOp38
 70
     1
102
RTVSPropertyOp39
 70
     1
102
RTVSPropertyOp40
 70
     1
102
RTVSPropertyOp41
 70
     1
102
RTVSPropertyOp42
 70
     1
102
RTVSPropertyOp43
 70
     1
102
RTVSPropertyOp44
 70
     1
102
RTVSPropertyOp45
 70
     1
102
RTVSPropertyOp46
 70
     1
102
RTVSPropertyOp47
 70
     1
102
RTVSPropertyOp48
 70
     1
102
RTVSPropertyOp49
 70
     1
102
RTVSPropertyOp50
 70
     1
102
RTVSPropertyOp51
 70
     0
102
RTVSPropertyOp52
 70
     0
102
RTVSPropertyOp53
 70
     1
102
RTVSPropertyOp54
 70
     1
102
RTVSPropertyOp55
 70
     1
102
RTVSPropertyOp56
 70
     1
102
RTVSPropertyOp57
 70
     1
102
RTVSPropertyOp58
 70
     1
102
RTVSPropertyOp59
 70
     1
102
RTVSPropertyOp60
 70
     1
102
RTVSPropertyOp61
 70
     1
102
RTVSPropertyOp62
 70
     1
  0
XRECORD
  5
2053
102
{ACAD_REACTORS
330
2052
102
}
330
2052
100
AcDbXrecord
280
     1
102
RTVSPost2010Prop28
280
     0
102
RTVSPost2010PropOp28
 70
     1
102
RTVSPost2010Prop29
280
     1
102
RTVSPost2010PropOp29
 70
     1
102
RTVSPost2010Prop30
280
     1
102
RTVSPost2010PropOp30
 70
     1
102
RTVSPost2010Prop31
280
     0
102
RTVSPost2010PropOp31
 70
     1
102
RTVSPost2010Prop32
280
     0
102
RTVSPost2010PropOp32
 70
     1
102
RTVSPost2010Prop33
280
     0
102
RTVSPost2010PropOp33
 70
     1
102
RTVSPost2010Prop34
280
     0
102
RTVSPost2010PropOp34
 70
     1
102
RTVSPost2010Prop35
280
     0
102
RTVSPost2010PropOp35
 70
     1
102
RTVSPost2010Prop36
280
     0
102
RTVSPost2010PropOp36
 70
     1
102
RTVSPost2010Prop37
 90
       50
102
RTVSPost2010PropOp37
 70
     1
102
RTVSPost2010Prop38
140
0.0
102
RTVSPost2010PropOp38
 70
     1
102
RTVSPost2010Prop39
140
1.0
102
RTVSPost2010PropOp39
 70
     1
102
RTVSPost2010Prop40
 90
        0
102
RTVSPost2010PropOp40
 70
     1
102
RTVSPost2010Prop41ColorIndex
 90
       18
102
RTVSPost2010Prop41ColorRGB
 90
        0
102
RTVSPost2010PropOp41
 70
     1
102
RTVSPost2010Prop42
 90
       50
102
RTVSPost2010PropOp42
 70
     1
102
RTVSPost2010Prop43
 90
        3
102
RTVSPost2010PropOp43
 70
     1
102
RTVSPost2010Prop44ColorIndex
 90
        5
102
RTVSPost2010Prop44ColorRGB
 90
      255
102
RTVSPost2010PropOp44
 70
     1
102
RTVSPost2010Prop45
280
     0
102
RTVSPost2010PropOp45
 70
     1
102
RTVSPost2010Prop46
 90
       50
102
RTVSPost2010PropOp46
 70
     1
102
RTVSPost2010Prop47
 90
       50
102
RTVSPost2010PropOp47
 70
     1
102
RTVSPost2010Prop48
 90
       50
102
RTVSPost2010PropOp48
 70
     1
102
RTVSPost2010Prop49
280
     0
102
RTVSPost2010PropOp49
 70
     1
102
RTVSPost2010Prop50
 90
       50
102
RTVSPost2010PropOp50
 70
     1
102
RTVSPost2010Prop51ColorIndex
 90
      256
102
RTVSPost2010Prop51ColorRGB
 90
-16777216
102
RTVSPost2010PropOp51
 70
     0
102
RTVSPost2010Prop52
140
1.0
102
RTVSPost2010PropOp52
 70
     0
102
RTVSPost2010Prop53
 90
        2
102
RTVSPost2010PropOp53
 70
     1
102
RTVSPost2010Prop54
  1
strokes_ogs.tif
102
RTVSPost2010PropOp54
 70
     1
102
RTVSPost2010Prop55
280
     0
102
RTVSPost2010PropOp55
 70
     1
102
RTVSPost2010Prop56
140
1.0
102
RTVSPost2010PropOp56
 70
     1
102
RTVSPost2010Prop57
140
1.0
102
RTVSPost2010PropOp57
 70
     1
102
RTVSPropertyOp0
 70
     1
102
RTVSPropertyOp1
 70
     1
102
RTVSPropertyOp2
 70
     1
102
RTVSPropertyOp3
 70
     1
102
RTVSPropertyOp4
 70
     1
102
RTVSPropertyOp5
 70
     1
102
RTVSPropertyOp6
 70
     1
102
RTVSPropertyOp7
 70
     1
102
RTVSPropertyOp8
 70
     1
102
RTVSPropertyOp9
 70
     1
102
RTVSPropertyOp10
 70
     1
102
RTVSPropertyOp11
 70
     1
102
RTVSPropertyOp12
 70
     1
102
RTVSPropertyOp13
 70
     1
102
RTVSPropertyOp14
 70
     1
102
RTVSPropertyOp15
 70
     1
102
RTVSPropertyOp16
 70
     1
102
RTVSPropertyOp17
 70
     1
102
RTVSPropertyOp18
 70
     1
102
RTVSPropertyOp19
 70
     1
102
RTVSPropertyOp20
 70
     1
102
RTVSPropertyOp21
 70
     1
102
RTVSPropertyOp22
 70
     1
102
RTVSPropertyOp23
 70
     1
102
RTVSPropertyOp24
 70
     1
102
RTVSPropertyOp25
 70
     1
102
RTVSPropertyOp26
 70
     1
102
RTVSPropertyOp27
 70
     1
102
RTVSPropertyOp28
 70
     1
102
RTVSPropertyOp29
 70
     1
102
RTVSPropertyOp30
 70
     1
102
RTVSPropertyOp31
 70
     1
102
RTVSPropertyOp32
 70
     1
102
RTVSPropertyOp33
 70
     1
102
RTVSPropertyOp34
 70
     1
102
RTVSPropertyOp35
 70
     1
102
RTVSPropertyOp36
 70
     1
102
RTVSPropertyOp37
 70
     1
102
RTVSPropertyOp38
 70
     1
102
RTVSPropertyOp39
 70
     1
102
RTVSPropertyOp40
 70
     1
102
RTVSPropertyOp41
 70
     1
102
RTVSPropertyOp42
 70
     1
102
RTVSPropertyOp43
 70
     1
102
RTVSPropertyOp44
 70
     1
102
RTVSPropertyOp45
 70
     1
102
RTVSPropertyOp46
 70
     1
102
RTVSPropertyOp47
 70
     1
102
RTVSPropertyOp48
 70
     1
102
RTVSPropertyOp49
 70
     1
102
RTVSPropertyOp50
 70
     1
102
RTVSPropertyOp51
 70
     0
102
RTVSPropertyOp52
 70
     0
102
RTVSPropertyOp53
 70
     1
102
RTVSPropertyOp54
 70
     1
102
RTVSPropertyOp55
 70
     1
102
RTVSPropertyOp56
 70
     1
102
RTVSPropertyOp57
 70
     1
102
RTVSPropertyOp58
 70
     1
102
RTVSPropertyOp59
 70
     1
102
RTVSPropertyOp60
 70
     1
102
RTVSPropertyOp61
 70
     1
102
RTVSPropertyOp62
 70
     1
  0
XRECORD
  5
2055
102
{ACAD_REACTORS
330
2054
102
}
330
2054
100
AcDbXrecord
280
     1
102
RTVSPost2010Prop28
280
     0
102
RTVSPost2010PropOp28
 70
     1
102
RTVSPost2010Prop29
280
     1
102
RTVSPost2010PropOp29
 70
     1
102
RTVSPost2010Prop30
280
     1
102
RTVSPost2010PropOp30
 70
     1
102
RTVSPost2010Prop31
280
     0
102
RTVSPost2010PropOp31
 70
     1
102
RTVSPost2010Prop32
280
     0
102
RTVSPost2010PropOp32
 70
     1
102
RTVSPost2010Prop33
280
     0
102
RTVSPost2010PropOp33
 70
     1
102
RTVSPost2010Prop34
280
     0
102
RTVSPost2010PropOp34
 70
     1
102
RTVSPost2010Prop35
280
     0
102
RTVSPost2010PropOp35
 70
     1
102
RTVSPost2010Prop36
280
     0
102
RTVSPost2010PropOp36
 70
     1
102
RTVSPost2010Prop37
 90
       50
102
RTVSPost2010PropOp37
 70
     1
102
RTVSPost2010Prop38
140
0.0
102
RTVSPost2010PropOp38
 70
     1
102
RTVSPost2010Prop39
140
1.0
102
RTVSPost2010PropOp39
 70
     1
102
RTVSPost2010Prop40
 90
        0
102
RTVSPost2010PropOp40
 70
     1
102
RTVSPost2010Prop41ColorIndex
 90
       18
102
RTVSPost2010Prop41ColorRGB
 90
        0
102
RTVSPost2010PropOp41
 70
     1
102
RTVSPost2010Prop42
 90
       50
102
RTVSPost2010PropOp42
 70
     1
102
RTVSPost2010Prop43
 90
        3
102
RTVSPost2010PropOp43
 70
     1
102
RTVSPost2010Prop44ColorIndex
 90
        5
102
RTVSPost2010Prop44ColorRGB
 90
      255
102
RTVSPost2010PropOp44
 70
     1
102
RTVSPost2010Prop45
280
     0
102
RTVSPost2010PropOp45
 70
     1
102
RTVSPost2010Prop46
 90
       50
102
RTVSPost2010PropOp46
 70
     1
102
RTVSPost2010Prop47
 90
       50
102
RTVSPost2010PropOp47
 70
     1
102
RTVSPost2010Prop48
 90
       50
102
RTVSPost2010PropOp48
 70
     1
102
RTVSPost2010Prop49
280
     0
102
RTVSPost2010PropOp49
 70
     1
102
RTVSPost2010Prop50
 90
       50
102
RTVSPost2010PropOp50
 70
     1
102
RTVSPost2010Prop51ColorIndex
 90
      256
102
RTVSPost2010Prop51ColorRGB
 90
-16777216
102
RTVSPost2010PropOp51
 70
     0
102
RTVSPost2010Prop52
140
1.0
102
RTVSPost2010PropOp52
 70
     0
102
RTVSPost2010Prop53
 90
        2
102
RTVSPost2010PropOp53
 70
     1
102
RTVSPost2010Prop54
  1
strokes_ogs.tif
102
RTVSPost2010PropOp54
 70
     1
102
RTVSPost2010Prop55
280
     0
102
RTVSPost2010PropOp55
 70
     1
102
RTVSPost2010Prop56
140
1.0
102
RTVSPost2010PropOp56
 70
     1
102
RTVSPost2010Prop57
140
1.0
102
RTVSPost2010PropOp57
 70
     1
102
RTVSPropertyOp0
 70
     1
102
RTVSPropertyOp1
 70
     1
102
RTVSPropertyOp2
 70
     1
102
RTVSPropertyOp3
 70
     1
102
RTVSPropertyOp4
 70
     1
102
RTVSPropertyOp5
 70
     1
102
RTVSPropertyOp6
 70
     1
102
RTVSPropertyOp7
 70
     1
102
RTVSPropertyOp8
 70
     1
102
RTVSPropertyOp9
 70
     1
102
RTVSPropertyOp10
 70
     1
102
RTVSPropertyOp11
 70
     1
102
RTVSPropertyOp12
 70
     1
102
RTVSPropertyOp13
 70
     1
102
RTVSPropertyOp14
 70
     1
102
RTVSPropertyOp15
 70
     1
102
RTVSPropertyOp16
 70
     1
102
RTVSPropertyOp17
 70
     1
102
RTVSPropertyOp18
 70
     1
102
RTVSPropertyOp19
 70
     1
102
RTVSPropertyOp20
 70
     1
102
RTVSPropertyOp21
 70
     1
102
RTVSPropertyOp22
 70
     1
102
RTVSPropertyOp23
 70
     1
102
RTVSPropertyOp24
 70
     1
102
RTVSPropertyOp25
 70
     1
102
RTVSPropertyOp26
 70
     1
102
RTVSPropertyOp27
 70
     1
102
RTVSPropertyOp28
 70
     1
102
RTVSPropertyOp29
 70
     1
102
RTVSPropertyOp30
 70
     1
102
RTVSPropertyOp31
 70
     1
102
RTVSPropertyOp32
 70
     1
102
RTVSPropertyOp33
 70
     1
102
RTVSPropertyOp34
 70
     1
102
RTVSPropertyOp35
 70
     1
102
RTVSPropertyOp36
 70
     1
102
RTVSPropertyOp37
 70
     1
102
RTVSPropertyOp38
 70
     1
102
RTVSPropertyOp39
 70
     1
102
RTVSPropertyOp40
 70
     1
102
RTVSPropertyOp41
 70
     1
102
RTVSPropertyOp42
 70
     1
102
RTVSPropertyOp43
 70
     1
102
RTVSPropertyOp44
 70
     1
102
RTVSPropertyOp45
 70
     1
102
RTVSPropertyOp46
 70
     1
102
RTVSPropertyOp47
 70
     1
102
RTVSPropertyOp48
 70
     1
102
RTVSPropertyOp49
 70
     1
102
RTVSPropertyOp50
 70
     1
102
RTVSPropertyOp51
 70
     0
102
RTVSPropertyOp52
 70
     0
102
RTVSPropertyOp53
 70
     1
102
RTVSPropertyOp54
 70
     1
102
RTVSPropertyOp55
 70
     1
102
RTVSPropertyOp56
 70
     1
102
RTVSPropertyOp57
 70
     1
102
RTVSPropertyOp58
 70
     1
102
RTVSPropertyOp59
 70
     1
102
RTVSPropertyOp60
 70
     1
102
RTVSPropertyOp61
 70
     1
102
RTVSPropertyOp62
 70
     1
  0
XRECORD
  5
2047
102
{ACAD_REACTORS
330
2046
102
}
330
2046
100
AcDbXrecord
280
     1
102
RTVSPost2010Prop28
280
     0
102
RTVSPost2010PropOp28
 70
     1
102
RTVSPost2010Prop29
280
     1
102
RTVSPost2010PropOp29
 70
     1
102
RTVSPost2010Prop30
280
     1
102
RTVSPost2010PropOp30
 70
     1
102
RTVSPost2010Prop31
280
     0
102
RTVSPost2010PropOp31
 70
     1
102
RTVSPost2010Prop32
280
     0
102
RTVSPost2010PropOp32
 70
     1
102
RTVSPost2010Prop33
280
     0
102
RTVSPost2010PropOp33
 70
     1
102
RTVSPost2010Prop34
280
     0
102
RTVSPost2010PropOp34
 70
     1
102
RTVSPost2010Prop35
280
     0
102
RTVSPost2010PropOp35
 70
     1
102
RTVSPost2010Prop36
280
     0
102
RTVSPost2010PropOp36
 70
     1
102
RTVSPost2010Prop37
 90
       50
102
RTVSPost2010PropOp37
 70
     1
102
RTVSPost2010Prop38
140
0.0
102
RTVSPost2010PropOp38
 70
     1
102
RTVSPost2010Prop39
140
1.0
102
RTVSPost2010PropOp39
 70
     1
102
RTVSPost2010Prop40
 90
        0
102
RTVSPost2010PropOp40
 70
     1
102
RTVSPost2010Prop41ColorIndex
 90
       18
102
RTVSPost2010Prop41ColorRGB
 90
        0
102
RTVSPost2010PropOp41
 70
     1
102
RTVSPost2010Prop42
 90
       50
102
RTVSPost2010PropOp42
 70
     1
102
RTVSPost2010Prop43
 90
        3
102
RTVSPost2010PropOp43
 70
     1
102
RTVSPost2010Prop44ColorIndex
 90
        5
102
RTVSPost2010Prop44ColorRGB
 90
      255
102
RTVSPost2010PropOp44
 70
     1
102
RTVSPost2010Prop45
280
     0
102
RTVSPost2010PropOp45
 70
     1
102
RTVSPost2010Prop46
 90
       50
102
RTVSPost2010PropOp46
 70
     1
102
RTVSPost2010Prop47
 90
       50
102
RTVSPost2010PropOp47
 70
     1
102
RTVSPost2010Prop48
 90
       50
102
RTVSPost2010PropOp48
 70
     1
102
RTVSPost2010Prop49
280
     0
102
RTVSPost2010PropOp49
 70
     1
102
RTVSPost2010Prop50
 90
       50
102
RTVSPost2010PropOp50
 70
     1
102
RTVSPost2010Prop51ColorIndex
 90
      256
102
RTVSPost2010Prop51ColorRGB
 90
-16777216
102
RTVSPost2010PropOp51
 70
     0
102
RTVSPost2010Prop52
140
1.0
102
RTVSPost2010PropOp52
 70
     0
102
RTVSPost2010Prop53
 90
        2
102
RTVSPost2010PropOp53
 70
     1
102
RTVSPost2010Prop54
  1
strokes_ogs.tif
102
RTVSPost2010PropOp54
 70
     1
102
RTVSPost2010Prop55
280
     0
102
RTVSPost2010PropOp55
 70
     1
102
RTVSPost2010Prop56
140
1.0
102
RTVSPost2010PropOp56
 70
     1
102
RTVSPost2010Prop57
140
1.0
102
RTVSPost2010PropOp57
 70
     1
102
RTVSPropertyOp0
 70
     1
102
RTVSPropertyOp1
 70
     1
102
RTVSPropertyOp2
 70
     1
102
RTVSPropertyOp3
 70
     1
102
RTVSPropertyOp4
 70
     1
102
RTVSPropertyOp5
 70
     1
102
RTVSPropertyOp6
 70
     1
102
RTVSPropertyOp7
 70
     1
102
RTVSPropertyOp8
 70
     1
102
RTVSPropertyOp9
 70
     1
102
RTVSPropertyOp10
 70
     1
102
RTVSPropertyOp11
 70
     1
102
RTVSPropertyOp12
 70
     1
102
RTVSPropertyOp13
 70
     1
102
RTVSPropertyOp14
 70
     1
102
RTVSPropertyOp15
 70
     1
102
RTVSPropertyOp16
 70
     1
102
RTVSPropertyOp17
 70
     1
102
RTVSPropertyOp18
 70
     1
102
RTVSPropertyOp19
 70
     1
102
RTVSPropertyOp20
 70
     1
102
RTVSPropertyOp21
 70
     1
102
RTVSPropertyOp22
 70
     1
102
RTVSPropertyOp23
 70
     1
102
RTVSPropertyOp24
 70
     1
102
RTVSPropertyOp25
 70
     1
102
RTVSPropertyOp26
 70
     1
102
RTVSPropertyOp27
 70
     1
102
RTVSPropertyOp28
 70
     1
102
RTVSPropertyOp29
 70
     1
102
RTVSPropertyOp30
 70
     1
102
RTVSPropertyOp31
 70
     1
102
RTVSPropertyOp32
 70
     1
102
RTVSPropertyOp33
 70
     1
102
RTVSPropertyOp34
 70
     1
102
RTVSPropertyOp35
 70
     1
102
RTVSPropertyOp36
 70
     1
102
RTVSPropertyOp37
 70
     1
102
RTVSPropertyOp38
 70
     1
102
RTVSPropertyOp39
 70
     1
102
RTVSPropertyOp40
 70
     1
102
RTVSPropertyOp41
 70
     1
102
RTVSPropertyOp42
 70
     1
102
RTVSPropertyOp43
 70
     1
102
RTVSPropertyOp44
 70
     1
102
RTVSPropertyOp45
 70
     1
102
RTVSPropertyOp46
 70
     1
102
RTVSPropertyOp47
 70
     1
102
RTVSPropertyOp48
 70
     1
102
RTVSPropertyOp49
 70
     1
102
RTVSPropertyOp50
 70
     1
102
RTVSPropertyOp51
 70
     0
102
RTVSPropertyOp52
 70
     0
102
RTVSPropertyOp53
 70
     1
102
RTVSPropertyOp54
 70
     1
102
RTVSPropertyOp55
 70
     1
102
RTVSPropertyOp56
 70
     1
102
RTVSPropertyOp57
 70
     1
102
RTVSPropertyOp58
 70
     1
102
RTVSPropertyOp59
 70
     1
102
RTVSPropertyOp60
 70
     1
102
RTVSPropertyOp61
 70
     1
102
RTVSPropertyOp62
 70
     1
  0
XRECORD
  5
204F
102
{ACAD_REACTORS
330
204E
102
}
330
204E
100
AcDbXrecord
280
     1
102
RTVSPost2010Prop28
280
     0
102
RTVSPost2010PropOp28
 70
     1
102
RTVSPost2010Prop29
280
     1
102
RTVSPost2010PropOp29
 70
     1
102
RTVSPost2010Prop30
280
     1
102
RTVSPost2010PropOp30
 70
     1
102
RTVSPost2010Prop31
280
     0
102
RTVSPost2010PropOp31
 70
     1
102
RTVSPost2010Prop32
280
     0
102
RTVSPost2010PropOp32
 70
     1
102
RTVSPost2010Prop33
280
     0
102
RTVSPost2010PropOp33
 70
     1
102
RTVSPost2010Prop34
280
     0
102
RTVSPost2010PropOp34
 70
     1
102
RTVSPost2010Prop35
280
     0
102
RTVSPost2010PropOp35
 70
     1
102
RTVSPost2010Prop36
280
     0
102
RTVSPost2010PropOp36
 70
     1
102
RTVSPost2010Prop37
 90
       50
102
RTVSPost2010PropOp37
 70
     1
102
RTVSPost2010Prop38
140
0.0
102
RTVSPost2010PropOp38
 70
     1
102
RTVSPost2010Prop39
140
1.0
102
RTVSPost2010PropOp39
 70
     1
102
RTVSPost2010Prop40
 90
        0
102
RTVSPost2010PropOp40
 70
     1
102
RTVSPost2010Prop41ColorIndex
 90
       18
102
RTVSPost2010Prop41ColorRGB
 90
        0
102
RTVSPost2010PropOp41
 70
     1
102
RTVSPost2010Prop42
 90
       50
102
RTVSPost2010PropOp42
 70
     1
102
RTVSPost2010Prop43
 90
        3
102
RTVSPost2010PropOp43
 70
     1
102
RTVSPost2010Prop44ColorIndex
 90
        5
102
RTVSPost2010Prop44ColorRGB
 90
      255
102
RTVSPost2010PropOp44
 70
     1
102
RTVSPost2010Prop45
280
     0
102
RTVSPost2010PropOp45
 70
     1
102
RTVSPost2010Prop46
 90
       50
102
RTVSPost2010PropOp46
 70
     1
102
RTVSPost2010Prop47
 90
       50
102
RTVSPost2010PropOp47
 70
     1
102
RTVSPost2010Prop48
 90
       50
102
RTVSPost2010PropOp48
 70
     1
102
RTVSPost2010Prop49
280
     0
102
RTVSPost2010PropOp49
 70
     1
102
RTVSPost2010Prop50
 90
       50
102
RTVSPost2010PropOp50
 70
     1
102
RTVSPost2010Prop51ColorIndex
 90
      256
102
RTVSPost2010Prop51ColorRGB
 90
-16777216
102
RTVSPost2010PropOp51
 70
     0
102
RTVSPost2010Prop52
140
1.0
102
RTVSPost2010PropOp52
 70
     0
102
RTVSPost2010Prop53
 90
        2
102
RTVSPost2010PropOp53
 70
     1
102
RTVSPost2010Prop54
  1
strokes_ogs.tif
102
RTVSPost2010PropOp54
 70
     1
102
RTVSPost2010Prop55
280
     0
102
RTVSPost2010PropOp55
 70
     1
102
RTVSPost2010Prop56
140
1.0
102
RTVSPost2010PropOp56
 70
     1
102
RTVSPost2010Prop57
140
1.0
102
RTVSPost2010PropOp57
 70
     1
102
RTVSPropertyOp0
 70
     1
102
RTVSPropertyOp1
 70
     1
102
RTVSPropertyOp2
 70
     1
102
RTVSPropertyOp3
 70
     1
102
RTVSPropertyOp4
 70
     1
102
RTVSPropertyOp5
 70
     1
102
RTVSPropertyOp6
 70
     1
102
RTVSPropertyOp7
 70
     1
102
RTVSPropertyOp8
 70
     1
102
RTVSPropertyOp9
 70
     1
102
RTVSPropertyOp10
 70
     1
102
RTVSPropertyOp11
 70
     1
102
RTVSPropertyOp12
 70
     1
102
RTVSPropertyOp13
 70
     1
102
RTVSPropertyOp14
 70
     1
102
RTVSPropertyOp15
 70
     1
102
RTVSPropertyOp16
 70
     1
102
RTVSPropertyOp17
 70
     1
102
RTVSPropertyOp18
 70
     1
102
RTVSPropertyOp19
 70
     1
102
RTVSPropertyOp20
 70
     1
102
RTVSPropertyOp21
 70
     1
102
RTVSPropertyOp22
 70
     1
102
RTVSPropertyOp23
 70
     1
102
RTVSPropertyOp24
 70
     1
102
RTVSPropertyOp25
 70
     1
102
RTVSPropertyOp26
 70
     1
102
RTVSPropertyOp27
 70
     1
102
RTVSPropertyOp28
 70
     1
102
RTVSPropertyOp29
 70
     1
102
RTVSPropertyOp30
 70
     1
102
RTVSPropertyOp31
 70
     1
102
RTVSPropertyOp32
 70
     1
102
RTVSPropertyOp33
 70
     1
102
RTVSPropertyOp34
 70
     1
102
RTVSPropertyOp35
 70
     1
102
RTVSPropertyOp36
 70
     1
102
RTVSPropertyOp37
 70
     1
102
RTVSPropertyOp38
 70
     1
102
RTVSPropertyOp39
 70
     1
102
RTVSPropertyOp40
 70
     1
102
RTVSPropertyOp41
 70
     1
102
RTVSPropertyOp42
 70
     1
102
RTVSPropertyOp43
 70
     1
102
RTVSPropertyOp44
 70
     1
102
RTVSPropertyOp45
 70
     1
102
RTVSPropertyOp46
 70
     1
102
RTVSPropertyOp47
 70
     1
102
RTVSPropertyOp48
 70
     1
102
RTVSPropertyOp49
 70
     1
102
RTVSPropertyOp50
 70
     1
102
RTVSPropertyOp51
 70
     0
102
RTVSPropertyOp52
 70
     0
102
RTVSPropertyOp53
 70
     1
102
RTVSPropertyOp54
 70
     1
102
RTVSPropertyOp55
 70
     1
102
RTVSPropertyOp56
 70
     1
102
RTVSPropertyOp57
 70
     1
102
RTVSPropertyOp58
 70
     1
102
RTVSPropertyOp59
 70
     1
102
RTVSPropertyOp60
 70
     1
102
RTVSPropertyOp61
 70
     1
102
RTVSPropertyOp62
 70
     1
  0
XRECORD
  5
2057
102
{ACAD_REACTORS
330
2056
102
}
330
2056
100
AcDbXrecord
280
     1
102
RTVSPost2010Prop28
280
     0
102
RTVSPost2010PropOp28
 70
     1
102
RTVSPost2010Prop29
280
     1
102
RTVSPost2010PropOp29
 70
     1
102
RTVSPost2010Prop30
280
     1
102
RTVSPost2010PropOp30
 70
     1
102
RTVSPost2010Prop31
280
     0
102
RTVSPost2010PropOp31
 70
     1
102
RTVSPost2010Prop32
280
     0
102
RTVSPost2010PropOp32
 70
     1
102
RTVSPost2010Prop33
280
     0
102
RTVSPost2010PropOp33
 70
     1
102
RTVSPost2010Prop34
280
     0
102
RTVSPost2010PropOp34
 70
     1
102
RTVSPost2010Prop35
280
     0
102
RTVSPost2010PropOp35
 70
     1
102
RTVSPost2010Prop36
280
     0
102
RTVSPost2010PropOp36
 70
     1
102
RTVSPost2010Prop37
 90
       50
102
RTVSPost2010PropOp37
 70
     1
102
RTVSPost2010Prop38
140
0.0
102
RTVSPost2010PropOp38
 70
     1
102
RTVSPost2010Prop39
140
1.0
102
RTVSPost2010PropOp39
 70
     1
102
RTVSPost2010Prop40
 90
        0
102
RTVSPost2010PropOp40
 70
     1
102
RTVSPost2010Prop41ColorIndex
 90
       18
102
RTVSPost2010Prop41ColorRGB
 90
        0
102
RTVSPost2010PropOp41
 70
     1
102
RTVSPost2010Prop42
 90
       50
102
RTVSPost2010PropOp42
 70
     1
102
RTVSPost2010Prop43
 90
        3
102
RTVSPost2010PropOp43
 70
     1
102
RTVSPost2010Prop44ColorIndex
 90
        5
102
RTVSPost2010Prop44ColorRGB
 90
      255
102
RTVSPost2010PropOp44
 70
     1
102
RTVSPost2010Prop45
280
     0
102
RTVSPost2010PropOp45
 70
     1
102
RTVSPost2010Prop46
 90
       50
102
RTVSPost2010PropOp46
 70
     1
102
RTVSPost2010Prop47
 90
       50
102
RTVSPost2010PropOp47
 70
     1
102
RTVSPost2010Prop48
 90
       50
102
RTVSPost2010PropOp48
 70
     1
102
RTVSPost2010Prop49
280
     0
102
RTVSPost2010PropOp49
 70
     1
102
RTVSPost2010Prop50
 90
       50
102
RTVSPost2010PropOp50
 70
     1
102
RTVSPost2010Prop51ColorIndex
 90
      256
102
RTVSPost2010Prop51ColorRGB
 90
-16777216
102
RTVSPost2010PropOp51
 70
     0
102
RTVSPost2010Prop52
140
1.0
102
RTVSPost2010PropOp52
 70
     0
102
RTVSPost2010Prop53
 90
        2
102
RTVSPost2010PropOp53
 70
     1
102
RTVSPost2010Prop54
  1
strokes_ogs.tif
102
RTVSPost2010PropOp54
 70
     1
102
RTVSPost2010Prop55
280
     0
102
RTVSPost2010PropOp55
 70
     1
102
RTVSPost2010Prop56
140
1.0
102
RTVSPost2010PropOp56
 70
     1
102
RTVSPost2010Prop57
140
1.0
102
RTVSPost2010PropOp57
 70
     1
102
RTVSPropertyOp0
 70
     1
102
RTVSPropertyOp1
 70
     1
102
RTVSPropertyOp2
 70
     1
102
RTVSPropertyOp3
 70
     1
102
RTVSPropertyOp4
 70
     1
102
RTVSPropertyOp5
 70
     1
102
RTVSPropertyOp6
 70
     1
102
RTVSPropertyOp7
 70
     1
102
RTVSPropertyOp8
 70
     1
102
RTVSPropertyOp9
 70
     1
102
RTVSPropertyOp10
 70
     1
102
RTVSPropertyOp11
 70
     1
102
RTVSPropertyOp12
 70
     1
102
RTVSPropertyOp13
 70
     1
102
RTVSPropertyOp14
 70
     1
102
RTVSPropertyOp15
 70
     1
102
RTVSPropertyOp16
 70
     1
102
RTVSPropertyOp17
 70
     1
102
RTVSPropertyOp18
 70
     1
102
RTVSPropertyOp19
 70
     1
102
RTVSPropertyOp20
 70
     1
102
RTVSPropertyOp21
 70
     1
102
RTVSPropertyOp22
 70
     1
102
RTVSPropertyOp23
 70
     1
102
RTVSPropertyOp24
 70
     1
102
RTVSPropertyOp25
 70
     1
102
RTVSPropertyOp26
 70
     1
102
RTVSPropertyOp27
 70
     1
102
RTVSPropertyOp28
 70
     1
102
RTVSPropertyOp29
 70
     1
102
RTVSPropertyOp30
 70
     1
102
RTVSPropertyOp31
 70
     1
102
RTVSPropertyOp32
 70
     1
102
RTVSPropertyOp33
 70
     1
102
RTVSPropertyOp34
 70
     1
102
RTVSPropertyOp35
 70
     1
102
RTVSPropertyOp36
 70
     1
102
RTVSPropertyOp37
 70
     1
102
RTVSPropertyOp38
 70
     1
102
RTVSPropertyOp39
 70
     1
102
RTVSPropertyOp40
 70
     1
102
RTVSPropertyOp41
 70
     1
102
RTVSPropertyOp42
 70
     1
102
RTVSPropertyOp43
 70
     1
102
RTVSPropertyOp44
 70
     1
102
RTVSPropertyOp45
 70
     1
102
RTVSPropertyOp46
 70
     1
102
RTVSPropertyOp47
 70
     1
102
RTVSPropertyOp48
 70
     1
102
RTVSPropertyOp49
 70
     1
102
RTVSPropertyOp50
 70
     1
102
RTVSPropertyOp51
 70
     0
102
RTVSPropertyOp52
 70
     0
102
RTVSPropertyOp53
 70
     1
102
RTVSPropertyOp54
 70
     1
102
RTVSPropertyOp55
 70
     1
102
RTVSPropertyOp56
 70
     1
102
RTVSPropertyOp57
 70
     1
102
RTVSPropertyOp58
 70
     1
102
RTVSPropertyOp59
 70
     1
102
RTVSPropertyOp60
 70
     1
102
RTVSPropertyOp61
 70
     1
102
RTVSPropertyOp62
 70
     1
  0
ENDSEC
  0
EOF
