  0
SECTION
  2
HEADER
  9
$ACADVER
  1
AC1032
  9
$ACADMAINTVER
 90
        5
  9
$DWGCODEPAGE
  3
ANSI_1252
  9
$AUTHOR
  1
E.Koch
  9
$CUSTOMPROPERTYTAG
  1
Manager
  9
$CUSTOMPROPERTY
  1

  9
$CUSTOMPROPERTYTAG
  1
Firma
  9
$CUSTOMPROPERTY
  1

  9
$CUSTOMPROPERTYTAG
  1
Kategorie
  9
$CUSTOMPROPERTY
  1

  9
$CUSTOMPROPERTYTAG
  1
Bauteilnummer
  9
$CUSTOMPROPERTY
  1
ESR 350 X3_00512435
  9
$CUSTOMPROPERTYTAG
  1
Beschreibung
  9
$CUSTOMPROPERTY
  1

  9
$CUSTOMPROPERTYTAG
  1
Projekt
  9
$CUSTOMPROPERTY
  1

  9
$CUSTOMPROPERTYTAG
  1
Konstrukteur
  9
$CUSTOMPROPERTY
  1
E.Koch
  9
$CUSTOMPROPERTYTAG
  1
Ingenieur
  9
$CUSTOMPROPERTY
  1

  9
$CUSTOMPROPERTYTAG
  1
Bevollmächtigter
  9
$CUSTOMPROPERTY
  1

  9
$CUSTOMPROPERTYTAG
  1
Kostenstelle
  9
$CUSTOMPROPERTY
  1

  9
$CUSTOMPROPERTYTAG
  1
Kosten
  9
$CUSTOMPROPERTY
  1

  9
$CUSTOMPROPERTYTAG
  1
Zulieferer
  9
$CUSTOMPROPERTY
  1

  9
$CUSTOMPROPERTYTAG
  1
Benutzerstatus
  9
$CUSTOMPROPERTY
  1

  9
$CUSTOMPROPERTYTAG
  1
Konstruktionsstatus
  9
$CUSTOMPROPERTY
  1
InBearbeitung
  9
$CUSTOMPROPERTYTAG
  1
Kontrolliert von
  9
$CUSTOMPROPERTY
  1
Peskos
  9
$CUSTOMPROPERTYTAG
  1
Datum Überprüfung
  9
$CUSTOMPROPERTY
  1
03/17/2015
  9
$CUSTOMPROPERTYTAG
  1
Konstruktion genehmigt von
  9
$CUSTOMPROPERTY
  1

  9
$CUSTOMPROPERTYTAG
  1
Fertigung genehmigt von
  9
$CUSTOMPROPERTY
  1

  9
$CUSTOMPROPERTYTAG
  1
Erstellungsdatum
  9
$CUSTOMPROPERTY
  1
03/17/2015
  9
$CUSTOMPROPERTYTAG
  1
Bestandsnummer
  9
$CUSTOMPROPERTY
  1

  9
$REQUIREDVERSIONS
160
                 0
  9
$INSBASE
 10
0.0
 20
0.0
 30
0.0
  9
$EXTMIN
 10
0.0
 20
0.0
 30
0.0
  9
$EXTMAX
 10
420.0
 20
297.0
 30
0.0
  9
$LIMMIN
 10
0.0
 20
0.0
  9
$LIMMAX
 10
420.0
 20
297.0
  9
$ORTHOMODE
 70
     0
  9
$REGENMODE
 70
     1
  9
$FILLMODE
 70
     1
  9
$QTEXTMODE
 70
     0
  9
$MIRRTEXT
 70
     0
  9
$LTSCALE
 40
1.0
  9
$ATTMODE
 70
     1
  9
$TEXTSIZE
 40
0.2
  9
$TRACEWID
 40
0.05
  9
$TEXTSTYLE
  7
Standard
  9
$CLAYER
  8
0
  9
$CELTYPE
  6
ByLayer
  9
$CECOLOR
 62
   256
  9
$CELTSCALE
 40
1.0
  9
$DISPSILH
 70
     0
  9
$DIMSCALE
 40
1.0
  9
$DIMASZ
 40
0.18
  9
$DIMEXO
 40
0.0625
  9
$DIMDLI
 40
0.38
  9
$DIMRND
 40
0.0
  9
$DIMDLE
 40
0.0
  9
$DIMEXE
 40
0.18
  9
$DIMTP
 40
0.0
  9
$DIMTM
 40
0.0
  9
$DIMTXT
 40
0.18
  9
$DIMCEN
 40
0.09
  9
$DIMTSZ
 40
0.0
  9
$DIMTOL
 70
     0
  9
$DIMLIM
 70
     0
  9
$DIMTIH
 70
     1
  9
$DIMTOH
 70
     1
  9
$DIMSE1
 70
     0
  9
$DIMSE2
 70
     0
  9
$DIMTAD
 70
     0
  9
$DIMZIN
 70
     0
  9
$DIMBLK
  1

  9
$DIMASO
 70
     1
  9
$DIMSHO
 70
     1
  9
$DIMPOST
  1

  9
$DIMAPOST
  1

  9
$DIMALT
 70
     0
  9
$DIMALTD
 70
     2
  9
$DIMALTF
 40
25.4
  9
$DIMLFAC
 40
1.0
  9
$DIMTOFL
 70
     0
  9
$DIMTVP
 40
0.0
  9
$DIMTIX
 70
     0
  9
$DIMSOXD
 70
     0
  9
$DIMSAH
 70
     0
  9
$DIMBLK1
  1

  9
$DIMBLK2
  1

  9
$DIMSTYLE
  2
Standard
  9
$DIMCLRD
 70
     0
  9
$DIMCLRE
 70
     0
  9
$DIMCLRT
 70
     0
  9
$DIMTFAC
 40
1.0
  9
$DIMGAP
 40
0.09
  9
$DIMJUST
 70
     0
  9
$DIMSD1
 70
     0
  9
$DIMSD2
 70
     0
  9
$DIMTOLJ
 70
     1
  9
$DIMTZIN
 70
     0
  9
$DIMALTZ
 70
     0
  9
$DIMALTTZ
 70
     0
  9
$DIMUPT
 70
     0
  9
$DIMDEC
 70
     4
  9
$DIMTDEC
 70
     4
  9
$DIMALTU
 70
     2
  9
$DIMALTTD
 70
     2
  9
$DIMTXSTY
  7
Standard
  9
$DIMAUNIT
 70
     0
  9
$DIMADEC
 70
     0
  9
$DIMALTRND
 40
0.0
  9
$DIMAZIN
 70
     0
  9
$DIMDSEP
 70
    46
  9
$DIMATFIT
 70
     3
  9
$DIMFRAC
 70
     0
  9
$DIMLDRBLK
  1

  9
$DIMLUNIT
 70
     2
  9
$DIMLWD
 70
    -2
  9
$DIMLWE
 70
    -2
  9
$DIMTMOVE
 70
     0
  9
$DIMFXL
 40
1.0
  9
$DIMFXLON
 70
     0
  9
$DIMJOGANG
 40
0.7853981633974483
  9
$DIMTFILL
 70
     0
  9
$DIMTFILLCLR
 70
     0
  9
$DIMARCSYM
 70
     0
  9
$DIMLTYPE
  6

  9
$DIMLTEX1
  6

  9
$DIMLTEX2
  6

  9
$DIMTXTDIRECTION
 70
     0
  9
$LUNITS
 70
     2
  9
$LUPREC
 70
     4
  9
$SKETCHINC
 40
0.1
  9
$FILLETRAD
 40
0.0
  9
$AUNITS
 70
     0
  9
$AUPREC
 70
     0
  9
$MENU
  1
.
  9
$ELEVATION
 40
0.0
  9
$PELEVATION
 40
0.0
  9
$THICKNESS
 40
0.0
  9
$LIMCHECK
 70
     0
  9
$CHAMFERA
 40
0.0
  9
$CHAMFERB
 40
0.0
  9
$CHAMFERC
 40
0.0
  9
$CHAMFERD
 40
0.0
  9
$SKPOLY
 70
     0
  9
$TDCREATE
 40
2458522.601759259
  9
$TDUCREATE
 40
2458522.560092593
  9
$TDUPDATE
 40
2458522.601759259
  9
$TDUUPDATE
 40
2458522.560092593
  9
$TDINDWG
 40
0.0000462963
  9
$TDUSRTIMER
 40
0.0000462963
  9
$USRTIMER
 70
     1
  9
$ANGBASE
 50
0.0
  9
$ANGDIR
 70
     0
  9
$PDMODE
 70
     0
  9
$PDSIZE
 40
0.0
  9
$PLINEWID
 40
0.0
  9
$SPLFRAME
 70
     0
  9
$SPLINETYPE
 70
     6
  9
$SPLINESEGS
 70
     8
  9
$HANDSEED
  5
3DF
  9
$SURFTAB1
 70
     6
  9
$SURFTAB2
 70
     6
  9
$SURFTYPE
 70
     6
  9
$SURFU
 70
     6
  9
$SURFV
 70
     6
  9
$UCSBASE
  2

  9
$UCSNAME
  2

  9
$UCSORG
 10
0.0
 20
0.0
 30
0.0
  9
$UCSXDIR
 10
1.0
 20
0.0
 30
0.0
  9
$UCSYDIR
 10
0.0
 20
1.0
 30
0.0
  9
$UCSORTHOREF
  2

  9
$UCSORTHOVIEW
 70
     0
  9
$UCSORGTOP
 10
0.0
 20
0.0
 30
0.0
  9
$UCSORGBOTTOM
 10
0.0
 20
0.0
 30
0.0
  9
$UCSORGLEFT
 10
0.0
 20
0.0
 30
0.0
  9
$UCSORGRIGHT
 10
0.0
 20
0.0
 30
0.0
  9
$UCSORGFRONT
 10
0.0
 20
0.0
 30
0.0
  9
$UCSORGBACK
 10
0.0
 20
0.0
 30
0.0
  9
$PUCSBASE
  2

  9
$PUCSNAME
  2

  9
$PUCSORG
 10
0.0
 20
0.0
 30
0.0
  9
$PUCSXDIR
 10
1.0
 20
0.0
 30
0.0
  9
$PUCSYDIR
 10
0.0
 20
1.0
 30
0.0
  9
$PUCSORTHOREF
  2

  9
$PUCSORTHOVIEW
 70
     0
  9
$PUCSORGTOP
 10
0.0
 20
0.0
 30
0.0
  9
$PUCSORGBOTTOM
 10
0.0
 20
0.0
 30
0.0
  9
$PUCSORGLEFT
 10
0.0
 20
0.0
 30
0.0
  9
$PUCSORGRIGHT
 10
0.0
 20
0.0
 30
0.0
  9
$PUCSORGFRONT
 10
0.0
 20
0.0
 30
0.0
  9
$PUCSORGBACK
 10
0.0
 20
0.0
 30
0.0
  9
$USERI1
 70
     0
  9
$USERI2
 70
     0
  9
$USERI3
 70
     0
  9
$USERI4
 70
     0
  9
$USERI5
 70
     0
  9
$USERR1
 40
0.0
  9
$USERR2
 40
0.0
  9
$USERR3
 40
0.0
  9
$USERR4
 40
0.0
  9
$USERR5
 40
0.0
  9
$WORLDVIEW
 70
     1
  9
$SHADEDGE
 70
     3
  9
$SHADEDIF
 70
    70
  9
$TILEMODE
 70
     1
  9
$MAXACTVP
 70
    64
  9
$PINSBASE
 10
0.0
 20
0.0
 30
0.0
  9
$PLIMCHECK
 70
     0
  9
$PEXTMIN
 10
0.0
 20
0.0
 30
0.0
  9
$PEXTMAX
 10
420.0
 20
297.0
 30
0.0
  9
$PLIMMIN
 10
0.0
 20
0.0
  9
$PLIMMAX
 10
420.0
 20
297.0
  9
$UNITMODE
 70
     0
  9
$VISRETAIN
 70
     1
  9
$PLINEGEN
 70
     0
  9
$PSLTSCALE
 70
     1
  9
$TREEDEPTH
 70
  3020
  9
$CMLSTYLE
  2
Standard
  9
$CMLJUST
 70
     0
  9
$CMLSCALE
 40
1.0
  9
$PROXYGRAPHICS
 70
     1
  9
$MEASUREMENT
 70
     1
  9
$CELWEIGHT
370
    -1
  9
$ENDCAPS
280
     0
  9
$JOINSTYLE
280
     0
  9
$LWDISPLAY
290
     0
  9
$INSUNITS
 70
     4
  9
$HYPERLINKBASE
  1

  9
$STYLESHEET
  1

  9
$XEDIT
290
     1
  9
$CEPSNTYPE
380
     0
  9
$PSTYLEMODE
290
     1
  9
$FINGERPRINTGUID
  2
{49D82F8D-2E5D-6143-AF59-5FA9618E20FB}
  9
$VERSIONGUID
  2
{01F9814D-6993-7943-99E0-7E073D7C32CA}
  9
$EXTNAMES
290
     1
  9
$PSVPSCALE
 40
0.0
  9
$OLESTARTUP
290
     0
  9
$SORTENTS
280
   127
  9
$INDEXCTL
280
     0
  9
$HIDETEXT
280
     1
  9
$XCLIPFRAME
280
     2
  9
$HALOGAP
280
     0
  9
$OBSCOLOR
 70
   257
  9
$OBSLTYPE
280
     0
  9
$INTERSECTIONDISPLAY
280
     0
  9
$INTERSECTIONCOLOR
 70
   257
  9
$DIMASSOC
280
     1
  9
$PROJECTNAME
  1

  9
$CAMERADISPLAY
290
     0
  9
$LENSLENGTH
 40
50.0
  9
$CAMERAHEIGHT
 40
0.0
  9
$STEPSPERSEC
 40
2.0
  9
$STEPSIZE
 40
6.0
  9
$3DDWFPREC
 40
2.0
  9
$PSOLWIDTH
 40
0.25
  9
$PSOLHEIGHT
 40
4.0
  9
$LOFTANG1
 40
1.570796326794896
  9
$LOFTANG2
 40
1.570796326794896
  9
$LOFTMAG1
 40
0.0
  9
$LOFTMAG2
 40
0.0
  9
$LOFTPARAM
 70
     7
  9
$LOFTNORMALS
280
     1
  9
$LATITUDE
 40
37.795
  9
$LONGITUDE
 40
-122.394
  9
$NORTHDIRECTION
 40
0.0
  9
$TIMEZONE
 70
 -8000
  9
$LIGHTGLYPHDISPLAY
280
     1
  9
$TILEMODELIGHTSYNCH
280
     1
  9
$CMATERIAL
347
11
  9
$SOLIDHIST
280
     0
  9
$SHOWHIST
280
     1
  9
$DWFFRAME
280
     2
  9
$DGNFRAME
280
     0
  9
$REALWORLDSCALE
290
     1
  9
$INTERFERECOLOR
 62
     1
  9
$INTERFEREOBJVS
345
33
  9
$INTERFEREVPVS
346
30
  9
$CSHADOW
280
     0
  9
$SHADOWPLANELOCATION
 40
0.0
  0
ENDSEC
  0
SECTION
  2
CLASSES
  0
CLASS
  1
ACDBDICTIONARYWDFLT
  2
AcDbDictionaryWithDefault
  3
ObjectDBX Classes
 90
        0
 91
        1
280
     0
281
     0
  0
CLASS
  1
MATERIAL
  2
AcDbMaterial
  3
ObjectDBX Classes
 90
     1153
 91
        3
280
     0
281
     0
  0
CLASS
  1
VISUALSTYLE
  2
AcDbVisualStyle
  3
ObjectDBX Classes
 90
     4095
 91
       24
280
     0
281
     0
  0
CLASS
  1
SCALE
  2
AcDbScale
  3
ObjectDBX Classes
 90
     1153
 91
       17
280
     0
281
     0
  0
CLASS
  1
TABLESTYLE
  2
AcDbTableStyle
  3
ObjectDBX Classes
 90
     4095
 91
        1
280
     0
281
     0
  0
CLASS
  1
MLEADERSTYLE
  2
AcDbMLeaderStyle
  3
ACDB_MLEADERSTYLE_CLASS
 90
     4095
 91
        1
280
     0
281
     0
  0
CLASS
  1
ACDBSECTIONVIEWSTYLE
  2
AcDbSectionViewStyle
  3
ObjectDBX Classes
 90
     1025
 91
        1
280
     0
281
     0
  0
CLASS
  1
ACDBDETAILVIEWSTYLE
  2
AcDbDetailViewStyle
  3
ObjectDBX Classes
 90
     1025
 91
        1
280
     0
281
     0
  0
CLASS
  1
DICTIONARYVAR
  2
AcDbDictionaryVar
  3
ObjectDBX Classes
 90
        0
 91
        5
280
     0
281
     0
  0
CLASS
  1
CELLSTYLEMAP
  2
AcDbCellStyleMap
  3
ObjectDBX Classes
 90
     1152
 91
        1
280
     0
281
     0
  0
ENDSEC
  0
SECTION
  2
TABLES
  0
TABLE
  2
VPORT
  5
8
330
0
100
AcDbSymbolTable
 70
     1
  0
VPORT
  5
57
330
8
100
AcDbSymbolTableRecord
100
AcDbViewportTableRecord
  2
*Active
 70
     0
 10
0.0
 20
0.0
 11
1.0
 21
1.0
 12
210.0
 22
148.5
 13
0.0
 23
0.0
 14
1.0
 24
1.0
 15
0.0
 25
0.0
 16
0.0
 26
0.0
 36
1.0
 17
0.0
 27
0.0
 37
0.0
 40
297.0
 41
1.414141414141414
 42
50.0
 43
0.0
 44
0.0
 50
0.0
 51
0.0
 71
     0
 72
   100
 73
     1
 74
     1
 75
     0
 76
     0
 77
     0
 78
     0
281
     0
 65
     1
110
0.0
120
0.0
130
0.0
111
1.0
121
0.0
131
0.0
112
0.0
122
1.0
132
0.0
 79
     0
146
0.0
 60
     3
 61
     5
292
     1
282
     1
141
0.0
142
0.0
 63
   250
421
  3355443
  0
ENDTAB
  0
TABLE
  2
LTYPE
  5
5
330
0
100
AcDbSymbolTable
 70
    59
  0
LTYPE
  5
5B
330
5
100
AcDbSymbolTableRecord
100
AcDbLinetypeTableRecord
  2
ByBlock
 70
     0
  3

 72
    65
 73
     0
 40
0.0
  0
LTYPE
  5
5C
330
5
100
AcDbSymbolTableRecord
100
AcDbLinetypeTableRecord
  2
ByLayer
 70
     0
  3

 72
    65
 73
     0
 40
0.0
  0
LTYPE
  5
5D
330
5
100
AcDbSymbolTableRecord
100
AcDbLinetypeTableRecord
  2
Continuous
 70
     0
  3
Solid line
 72
    65
 73
     0
 40
0.0
  0
LTYPE
  5
78
330
5
100
AcDbSymbolTableRecord
100
AcDbLinetypeTableRecord
  2
Section_View_Lines
 70
     0
  3
Section View Lines
 72
    65
 73
     4
 40
0.8406
 49
0.6614
 74
     0
 49
-0.0827
 74
     0
 49
0.0138
 74
     0
 49
-0.0827
 74
     0
  0
LTYPE
  5
79
330
5
100
AcDbSymbolTableRecord
100
AcDbLinetypeTableRecord
  2
CHAIN
 70
     0
  3
Chain ____ _ ____ _ ____ _ ____ _ ____ _ ____
 72
    65
 73
     4
 40
0.3543
 49
0.2362
 74
     0
 49
-0.0295
 74
     0
 49
0.0591
 74
     0
 49
-0.0295
 74
     0
  0
LTYPE
  5
7A
330
5
100
AcDbSymbolTableRecord
100
AcDbLinetypeTableRecord
  2
DASH_DOT
 70
     0
  3
Dash dot _._._._._._._._._._._._._._._.
 72
    65
 73
     4
 40
0.37
 49
0.24
 74
     0
 49
-0.06
 74
     0
 49
0.01
 74
     0
 49
-0.06
 74
     0
  0
LTYPE
  5
7B
330
5
100
AcDbSymbolTableRecord
100
AcDbLinetypeTableRecord
  2
DASH_DOUBLE_DOT
 70
     0
  3
Dash Double Dot __ __ . __ __ . __ __ . __ _
 72
    65
 73
     6
 40
0.4398
 49
0.24
 74
     0
 49
-0.06
 74
     0
 49
0.0098
 74
     0
 49
-0.06
 74
     0
 49
0.01
 74
     0
 49
-0.06
 74
     0
  0
LTYPE
  5
7C
330
5
100
AcDbSymbolTableRecord
100
AcDbLinetypeTableRecord
  2
DASH_TRIPLE_DOT
 70
     0
  3
Dash Triple-Dot _ . . . _ . . . _ . . . _
 72
    65
 73
     8
 40
0.51
 49
0.24
 74
     0
 49
-0.06
 74
     0
 49
0.01
 74
     0
 49
-0.06
 74
     0
 49
0.01
 74
     0
 49
-0.06
 74
     0
 49
0.01
 74
     0
 49
-0.06
 74
     0
  0
LTYPE
  5
7D
330
5
100
AcDbSymbolTableRecord
100
AcDbLinetypeTableRecord
  2
DASHED
 70
     0
  3
Dashed __ __ __ __ __ __ __ __ __ __ __ __ __ _
 72
    65
 73
     2
 40
0.2067
 49
0.1654
 74
     0
 49
-0.0413
 74
     0
  0
LTYPE
  5
7E
330
5
100
AcDbSymbolTableRecord
100
AcDbLinetypeTableRecord
  2
DASHED_SPACE
 70
     0
  3
Dashed Space _._._._._._._._._._._._._._._.
 72
    65
 73
     2
 40
0.2067
 49
0.1654
 74
     0
 49
-0.0413
 74
     0
  0
LTYPE
  5
7F
330
5
100
AcDbSymbolTableRecord
100
AcDbLinetypeTableRecord
  2
DOTTED
 70
     0
  3
Dotted . . . . . . . . . . . . . . . . . . . . 
 72
    65
 73
     2
 40
0.0482
 49
0.0069
 74
     0
 49
-0.0413
 74
     0
  0
LTYPE
  5
80
330
5
100
AcDbSymbolTableRecord
100
AcDbLinetypeTableRecord
  2
DOUBLE_DASH_CHAIN
 70
     0
  3
Double Dash Chain ___ _ _ ___ _ _ ___ _ _ ___ _
 72
    65
 73
     6
 40
1.240299999999999
 49
0.6614
 74
     0
 49
-0.0827
 74
     0
 49
0.1654
 74
     0
 49
-0.0827
 74
     0
 49
0.1654
 74
     0
 49
-0.0827
 74
     0
  0
LTYPE
  5
81
330
5
100
AcDbSymbolTableRecord
100
AcDbLinetypeTableRecord
  2
DOUBLE_DASH_DOT
 70
     0
  3
Double Dash Dot __ __ . __ __ . __ __ . __ _
 72
    65
 73
     6
 40
0.67
 49
0.24
 74
     0
 49
-0.06
 74
     0
 49
0.24
 74
     0
 49
-0.06
 74
     0
 49
0.01
 74
     0
 49
-0.06
 74
     0
  0
LTYPE
  5
82
330
5
100
AcDbSymbolTableRecord
100
AcDbLinetypeTableRecord
  2
DOUBLE_DASH_DOUBLE_DOT
 70
     0
  3
Double-dash double-dot _ _ . . _ _ . . _
 72
    65
 73
     8
 40
0.7400000000000001
 49
0.24
 74
     0
 49
-0.06
 74
     0
 49
0.24
 74
     0
 49
-0.06
 74
     0
 49
0.01
 74
     0
 49
-0.06
 74
     0
 49
0.01
 74
     0
 49
-0.06
 74
     0
  0
LTYPE
  5
83
330
5
100
AcDbSymbolTableRecord
100
AcDbLinetypeTableRecord
  2
DOUBLE_DASH_TRIPLE_DOT
 70
     0
  3
Double Dash Triple Dot __ __ . . . __ __ . . .
 72
    65
 73
    10
 40
0.8100000000000001
 49
0.24
 74
     0
 49
-0.06
 74
     0
 49
0.24
 74
     0
 49
-0.06
 74
     0
 49
0.01
 74
     0
 49
-0.06
 74
     0
 49
0.01
 74
     0
 49
-0.06
 74
     0
 49
0.01
 74
     0
 49
-0.06
 74
     0
  0
LTYPE
  5
84
330
5
100
AcDbSymbolTableRecord
100
AcDbLinetypeTableRecord
  2
LONG_DASH_DOTTED
 70
     0
  3
Long-Dash Dot ____ . ____ . ____ . ____ . _
 72
    65
 73
     4
 40
0.3001
 49
0.2362
 74
     0
 49
-0.0295
 74
     0
 49
0.0049
 74
     0
 49
-0.0295
 74
     0
  0
LTYPE
  5
85
330
5
100
AcDbSymbolTableRecord
100
AcDbLinetypeTableRecord
  2
LONG_DASH_DOUBLE_DOT
 70
     0
  3
Long Dash Double Dot ____ . . ____ . . ____ . .
 72
    65
 73
     6
 40
0.3345
 49
0.2362
 74
     0
 49
-0.0295
 74
     0
 49
0.0049
 74
     0
 49
-0.0295
 74
     0
 49
0.0049
 74
     0
 49
-0.0295
 74
     0
  0
LTYPE
  5
86
330
5
100
AcDbSymbolTableRecord
100
AcDbLinetypeTableRecord
  2
LONG_DASH_TRIPLE_DOT
 70
     0
  3
Long Dash Triple Dot ____ ... ____ ... ____
 72
    65
 73
     8
 40
0.75
 49
0.48
 74
     0
 49
-0.06
 74
     0
 49
0.01
 74
     0
 49
-0.06
 74
     0
 49
0.01
 74
     0
 49
-0.06
 74
     0
 49
0.01
 74
     0
 49
-0.06
 74
     0
  0
LTYPE
  5
87
330
5
100
AcDbSymbolTableRecord
100
AcDbLinetypeTableRecord
  2
BORDER
 70
     0
  3
Border __ __ . __ __ . __ __ . __ __ . __ __ .
 72
    65
 73
     6
 40
44.45
 49
12.7
 74
     0
 49
-6.349999999999999
 74
     0
 49
12.7
 74
     0
 49
-6.349999999999999
 74
     0
 49
0.0
 74
     0
 49
-6.349999999999999
 74
     0
  0
LTYPE
  5
88
330
5
100
AcDbSymbolTableRecord
100
AcDbLinetypeTableRecord
  2
BORDER2
 70
     0
  3
Border (.5x) __.__.__.__.__.__.__.__.__.__.__.
 72
    65
 73
     6
 40
22.225
 49
6.349999999999999
 74
     0
 49
-3.174999999999999
 74
     0
 49
6.349999999999999
 74
     0
 49
-3.174999999999999
 74
     0
 49
0.0
 74
     0
 49
-3.174999999999999
 74
     0
  0
LTYPE
  5
89
330
5
100
AcDbSymbolTableRecord
100
AcDbLinetypeTableRecord
  2
BORDERX2
 70
     0
  3
Border (2x) ____  ____  .  ____  ____  .  ___
 72
    65
 73
     6
 40
88.9
 49
25.4
 74
     0
 49
-12.7
 74
     0
 49
25.4
 74
     0
 49
-12.7
 74
     0
 49
0.0
 74
     0
 49
-12.7
 74
     0
  0
LTYPE
  5
8A
330
5
100
AcDbSymbolTableRecord
100
AcDbLinetypeTableRecord
  2
CENTER
 70
     0
  3
Center ____ _ ____ _ ____ _ ____ _ ____ _ ____
 72
    65
 73
     4
 40
50.8
 49
31.75
 74
     0
 49
-6.349999999999999
 74
     0
 49
6.349999999999999
 74
     0
 49
-6.349999999999999
 74
     0
  0
LTYPE
  5
8B
330
5
100
AcDbSymbolTableRecord
100
AcDbLinetypeTableRecord
  2
CENTER2
 70
     0
  3
Center (.5x) ___ _ ___ _ ___ _ ___ _ ___ _ ___
 72
    65
 73
     4
 40
28.575
 49
19.05
 74
     0
 49
-3.174999999999999
 74
     0
 49
3.174999999999999
 74
     0
 49
-3.174999999999999
 74
     0
  0
LTYPE
  5
8C
330
5
100
AcDbSymbolTableRecord
100
AcDbLinetypeTableRecord
  2
CENTERX2
 70
     0
  3
Center (2x) ________  __  ________  __  _____
 72
    65
 73
     4
 40
101.6
 49
63.5
 74
     0
 49
-12.7
 74
     0
 49
12.7
 74
     0
 49
-12.7
 74
     0
  0
LTYPE
  5
8D
330
5
100
AcDbSymbolTableRecord
100
AcDbLinetypeTableRecord
  2
DASHDOT2
 70
     0
  3
Dash dot (.5x) _._._._._._._._._._._._._._._.
 72
    65
 73
     4
 40
12.7
 49
6.349999999999999
 74
     0
 49
-3.174999999999999
 74
     0
 49
0.0
 74
     0
 49
-3.174999999999999
 74
     0
  0
LTYPE
  5
8E
330
5
100
AcDbSymbolTableRecord
100
AcDbLinetypeTableRecord
  2
DASHDOTX2
 70
     0
  3
Dash dot (2x) ____  .  ____  .  ____  .  ___
 72
    65
 73
     4
 40
50.8
 49
25.4
 74
     0
 49
-12.7
 74
     0
 49
0.0
 74
     0
 49
-12.7
 74
     0
  0
LTYPE
  5
8F
330
5
100
AcDbSymbolTableRecord
100
AcDbLinetypeTableRecord
  2
DASHED2
 70
     0
  3
Dashed (.5x) _ _ _ _ _ _ _ _ _ _ _ _ _ _ _ _ _
 72
    65
 73
     2
 40
9.524999999999998
 49
6.349999999999999
 74
     0
 49
-3.174999999999999
 74
     0
  0
LTYPE
  5
90
330
5
100
AcDbSymbolTableRecord
100
AcDbLinetypeTableRecord
  2
DASHEDX2
 70
     0
  3
Dashed (2x) ____  ____  ____  ____  ____  ___
 72
    65
 73
     2
 40
38.1
 49
25.4
 74
     0
 49
-12.7
 74
     0
  0
LTYPE
  5
91
330
5
100
AcDbSymbolTableRecord
100
AcDbLinetypeTableRecord
  2
DIVIDE
 70
     0
  3
Divide ____ . . ____ . . ____ . . ____ . . ____
 72
    65
 73
     6
 40
31.75
 49
12.7
 74
     0
 49
-6.349999999999999
 74
     0
 49
0.0
 74
     0
 49
-6.349999999999999
 74
     0
 49
0.0
 74
     0
 49
-6.349999999999999
 74
     0
  0
LTYPE
  5
92
330
5
100
AcDbSymbolTableRecord
100
AcDbLinetypeTableRecord
  2
DIVIDE2
 70
     0
  3
Divide (.5x) __..__..__..__..__..__..__..__.._
 72
    65
 73
     6
 40
15.875
 49
6.349999999999999
 74
     0
 49
-3.174999999999999
 74
     0
 49
0.0
 74
     0
 49
-3.174999999999999
 74
     0
 49
0.0
 74
     0
 49
-3.174999999999999
 74
     0
  0
LTYPE
  5
93
330
5
100
AcDbSymbolTableRecord
100
AcDbLinetypeTableRecord
  2
DIVIDEX2
 70
     0
  3
Divide (2x) ________  .  .  ________  .  .  _
 72
    65
 73
     6
 40
63.49999999999999
 49
25.4
 74
     0
 49
-12.7
 74
     0
 49
0.0
 74
     0
 49
-12.7
 74
     0
 49
0.0
 74
     0
 49
-12.7
 74
     0
  0
LTYPE
  5
94
330
5
100
AcDbSymbolTableRecord
100
AcDbLinetypeTableRecord
  2
DOT
 70
     0
  3
Dot . . . . . . . . . . . . . . . . . . . . . .
 72
    65
 73
     2
 40
6.349999999999999
 49
0.0
 74
     0
 49
-6.349999999999999
 74
     0
  0
LTYPE
  5
95
330
5
100
AcDbSymbolTableRecord
100
AcDbLinetypeTableRecord
  2
DOT2
 70
     0
  3
Dot (.5x) .....................................
 72
    65
 73
     2
 40
3.174999999999999
 49
0.0
 74
     0
 49
-3.174999999999999
 74
     0
  0
LTYPE
  5
96
330
5
100
AcDbSymbolTableRecord
100
AcDbLinetypeTableRecord
  2
DOTX2
 70
     0
  3
Dot (2x) .  .  .  .  .  .  .  .  .  .  .  .  . 
 72
    65
 73
     2
 40
12.7
 49
0.0
 74
     0
 49
-12.7
 74
     0
  0
LTYPE
  5
97
330
5
100
AcDbSymbolTableRecord
100
AcDbLinetypeTableRecord
  2
HIDDEN
 70
     0
  3
Hidden __ __ __ __ __ __ __ __ __ __ __ __ __ _
 72
    65
 73
     2
 40
9.524999999999998
 49
6.349999999999999
 74
     0
 49
-3.174999999999999
 74
     0
  0
LTYPE
  5
98
330
5
100
AcDbSymbolTableRecord
100
AcDbLinetypeTableRecord
  2
HIDDEN2
 70
     0
  3
Hidden (.5x) _ _ _ _ _ _ _ _ _ _ _ _ _ _ _ _ _
 72
    65
 73
     2
 40
4.762499999999999
 49
3.174999999999999
 74
     0
 49
-1.587499999999999
 74
     0
  0
LTYPE
  5
99
330
5
100
AcDbSymbolTableRecord
100
AcDbLinetypeTableRecord
  2
HIDDENX2
 70
     0
  3
Hidden (2x) ____ ____ ____ ____ ____ ____ ____
 72
    65
 73
     2
 40
19.05
 49
12.7
 74
     0
 49
-6.349999999999999
 74
     0
  0
LTYPE
  5
9A
330
5
100
AcDbSymbolTableRecord
100
AcDbLinetypeTableRecord
  2
PHANTOM
 70
     0
  3
Phantom ______  __  __  ______  __  __  ______
 72
    65
 73
     6
 40
63.5
 49
31.75
 74
     0
 49
-6.349999999999999
 74
     0
 49
6.349999999999999
 74
     0
 49
-6.349999999999999
 74
     0
 49
6.349999999999999
 74
     0
 49
-6.349999999999999
 74
     0
  0
LTYPE
  5
9B
330
5
100
AcDbSymbolTableRecord
100
AcDbLinetypeTableRecord
  2
PHANTOM2
 70
     0
  3
Phantom (.5x) ___ _ _ ___ _ _ ___ _ _ ___ _ _
 72
    65
 73
     6
 40
31.75
 49
15.875
 74
     0
 49
-3.174999999999999
 74
     0
 49
3.174999999999999
 74
     0
 49
-3.174999999999999
 74
     0
 49
3.174999999999999
 74
     0
 49
-3.174999999999999
 74
     0
  0
LTYPE
  5
9C
330
5
100
AcDbSymbolTableRecord
100
AcDbLinetypeTableRecord
  2
PHANTOMX2
 70
     0
  3
Phantom (2x) ____________    ____    ____   _
 72
    65
 73
     6
 40
127.0
 49
63.5
 74
     0
 49
-12.7
 74
     0
 49
12.7
 74
     0
 49
-12.7
 74
     0
 49
12.7
 74
     0
 49
-12.7
 74
     0
  0
LTYPE
  5
9D
330
5
100
AcDbSymbolTableRecord
100
AcDbLinetypeTableRecord
  2
ACAD_ISO02W100
 70
     0
  3
ISO dash __ __ __ __ __ __ __ __ __ __ __ __ __
 72
    65
 73
     2
 40
15.0
 49
12.0
 74
     0
 49
-3.0
 74
     0
  0
LTYPE
  5
9E
330
5
100
AcDbSymbolTableRecord
100
AcDbLinetypeTableRecord
  2
ACAD_ISO03W100
 70
     0
  3
ISO dash space __    __    __    __    __    __
 72
    65
 73
     2
 40
30.0
 49
12.0
 74
     0
 49
-18.0
 74
     0
  0
LTYPE
  5
9F
330
5
100
AcDbSymbolTableRecord
100
AcDbLinetypeTableRecord
  2
ACAD_ISO04W100
 70
     0
  3
ISO long-dash dot ____ . ____ . ____ . ____ . _
 72
    65
 73
     4
 40
30.0
 49
24.0
 74
     0
 49
-3.0
 74
     0
 49
0.0
 74
     0
 49
-3.0
 74
     0
  0
LTYPE
  5
A0
330
5
100
AcDbSymbolTableRecord
100
AcDbLinetypeTableRecord
  2
ACAD_ISO05W100
 70
     0
  3
ISO long-dash double-dot ____ .. ____ .. ____ .
 72
    65
 73
     6
 40
33.0
 49
24.0
 74
     0
 49
-3.0
 74
     0
 49
0.0
 74
     0
 49
-3.0
 74
     0
 49
0.0
 74
     0
 49
-3.0
 74
     0
  0
LTYPE
  5
A1
330
5
100
AcDbSymbolTableRecord
100
AcDbLinetypeTableRecord
  2
ACAD_ISO06W100
 70
     0
  3
ISO long-dash triple-dot ____ ... ____ ... ____
 72
    65
 73
     8
 40
36.0
 49
24.0
 74
     0
 49
-3.0
 74
     0
 49
0.0
 74
     0
 49
-3.0
 74
     0
 49
0.0
 74
     0
 49
-3.0
 74
     0
 49
0.0
 74
     0
 49
-3.0
 74
     0
  0
LTYPE
  5
A2
330
5
100
AcDbSymbolTableRecord
100
AcDbLinetypeTableRecord
  2
ACAD_ISO07W100
 70
     0
  3
ISO dot . . . . . . . . . . . . . . . . . . . .
 72
    65
 73
     2
 40
3.0
 49
0.0
 74
     0
 49
-3.0
 74
     0
  0
LTYPE
  5
A3
330
5
100
AcDbSymbolTableRecord
100
AcDbLinetypeTableRecord
  2
ACAD_ISO08W100
 70
     0
  3
ISO long-dash short-dash ____ __ ____ __ ____ _
 72
    65
 73
     4
 40
36.0
 49
24.0
 74
     0
 49
-3.0
 74
     0
 49
6.0
 74
     0
 49
-3.0
 74
     0
  0
LTYPE
  5
A4
330
5
100
AcDbSymbolTableRecord
100
AcDbLinetypeTableRecord
  2
ACAD_ISO09W100
 70
     0
  3
ISO long-dash double-short-dash ____ __ __ ____
 72
    65
 73
     6
 40
45.0
 49
24.0
 74
     0
 49
-3.0
 74
     0
 49
6.0
 74
     0
 49
-3.0
 74
     0
 49
6.0
 74
     0
 49
-3.0
 74
     0
  0
LTYPE
  5
A5
330
5
100
AcDbSymbolTableRecord
100
AcDbLinetypeTableRecord
  2
ACAD_ISO10W100
 70
     0
  3
ISO dash dot __ . __ . __ . __ . __ . __ . __ .
 72
    65
 73
     4
 40
18.0
 49
12.0
 74
     0
 49
-3.0
 74
     0
 49
0.0
 74
     0
 49
-3.0
 74
     0
  0
LTYPE
  5
A6
330
5
100
AcDbSymbolTableRecord
100
AcDbLinetypeTableRecord
  2
ACAD_ISO11W100
 70
     0
  3
ISO double-dash dot __ __ . __ __ . __ __ . __ 
 72
    65
 73
     6
 40
33.0
 49
12.0
 74
     0
 49
-3.0
 74
     0
 49
12.0
 74
     0
 49
-3.0
 74
     0
 49
0.0
 74
     0
 49
-3.0
 74
     0
  0
LTYPE
  5
A7
330
5
100
AcDbSymbolTableRecord
100
AcDbLinetypeTableRecord
  2
ACAD_ISO12W100
 70
     0
  3
ISO dash double-dot __ . . __ . . __ . . __ . .
 72
    65
 73
     6
 40
21.0
 49
12.0
 74
     0
 49
-3.0
 74
     0
 49
0.0
 74
     0
 49
-3.0
 74
     0
 49
0.0
 74
     0
 49
-3.0
 74
     0
  0
LTYPE
  5
A8
330
5
100
AcDbSymbolTableRecord
100
AcDbLinetypeTableRecord
  2
ACAD_ISO13W100
 70
     0
  3
ISO double-dash double-dot __ __ . . __ __ . . 
 72
    65
 73
     8
 40
36.0
 49
12.0
 74
     0
 49
-3.0
 74
     0
 49
12.0
 74
     0
 49
-3.0
 74
     0
 49
0.0
 74
     0
 49
-3.0
 74
     0
 49
0.0
 74
     0
 49
-3.0
 74
     0
  0
LTYPE
  5
A9
330
5
100
AcDbSymbolTableRecord
100
AcDbLinetypeTableRecord
  2
ACAD_ISO14W100
 70
     0
  3
ISO dash triple-dot __ . . . __ . . . __ . . . 
 72
    65
 73
     8
 40
24.0
 49
12.0
 74
     0
 49
-3.0
 74
     0
 49
0.0
 74
     0
 49
-3.0
 74
     0
 49
0.0
 74
     0
 49
-3.0
 74
     0
 49
0.0
 74
     0
 49
-3.0
 74
     0
  0
LTYPE
  5
AA
330
5
100
AcDbSymbolTableRecord
100
AcDbLinetypeTableRecord
  2
ACAD_ISO15W100
 70
     0
  3
ISO double-dash triple-dot __ __ . . . __ __ . 
 72
    65
 73
    10
 40
39.0
 49
12.0
 74
     0
 49
-3.0
 74
     0
 49
12.0
 74
     0
 49
-3.0
 74
     0
 49
0.0
 74
     0
 49
-3.0
 74
     0
 49
0.0
 74
     0
 49
-3.0
 74
     0
 49
0.0
 74
     0
 49
-3.0
 74
     0
  0
LTYPE
  5
AD
330
5
100
AcDbSymbolTableRecord
100
AcDbLinetypeTableRecord
  2
FENCELINE1
 70
     0
  3
Fenceline circle ----0-----0----0-----0----0---
 72
    65
 73
     4
 40
36.83
 49
6.349999999999999
 74
     0
 49
-2.54
 74
     4
 75
   133
340
AC
 46
2.54
 50
0.0
 44
-2.54
 45
0.0
 49
-2.54
 74
     0
 49
25.4
 74
     0
  0
LTYPE
  5
AE
330
5
100
AcDbSymbolTableRecord
100
AcDbLinetypeTableRecord
  2
FENCELINE2
 70
     0
  3
Fenceline square ----[]-----[]----[]-----[]----
 72
    65
 73
     4
 40
36.83
 49
6.349999999999999
 74
     0
 49
-2.54
 74
     4
 75
   132
340
AC
 46
2.54
 50
0.0
 44
-2.54
 45
0.0
 49
-2.54
 74
     0
 49
25.4
 74
     0
  0
LTYPE
  5
AF
330
5
100
AcDbSymbolTableRecord
100
AcDbLinetypeTableRecord
  2
TRACKS
 70
     0
  3
Tracks -|-|-|-|-|-|-|-|-|-|-|-|-|-|-|-|-|-|-|-|
 72
    65
 73
     2
 40
7.62
 49
3.81
 74
     4
 75
   130
340
AC
 46
6.349999999999999
 50
0.0
 44
0.0
 45
0.0
 49
3.81
 74
     0
  0
LTYPE
  5
B0
330
5
100
AcDbSymbolTableRecord
100
AcDbLinetypeTableRecord
  2
BATTING
 70
     0
  3
Batting SSSSSSSSSSSSSSSSSSSSSSSSSSSSSSSSSSSSSSS
 72
    65
 73
     4
 40
10.16254
 49
0.00254
 74
     0
 49
-2.54
 74
     4
 75
   134
340
AC
 46
2.54
 50
0.0
 44
-2.54
 45
0.0
 49
-5.08
 74
     4
 75
   134
340
AC
 46
2.54
 50
180.0
 44
2.54
 45
0.0
 49
-2.54
 74
     0
  0
LTYPE
  5
B1
330
5
100
AcDbSymbolTableRecord
100
AcDbLinetypeTableRecord
  2
HOT_WATER_SUPPLY
 70
     0
  3
Hot water supply ---- HW ---- HW ---- HW ----
 72
    65
 73
     3
 40
22.86
 49
12.7
 74
     0
 49
-5.08
 74
     2
 75
     0
340
55
 46
2.54
 50
0.0
 44
-2.54
 45
-1.27
  9
HW
 49
-5.08
 74
     0
  0
LTYPE
  5
B2
330
5
100
AcDbSymbolTableRecord
100
AcDbLinetypeTableRecord
  2
GAS_LINE
 70
     0
  3
Gas line ----GAS----GAS----GAS----GAS----GAS---
 72
    65
 73
     3
 40
24.13
 49
12.7
 74
     0
 49
-5.08
 74
     2
 75
     0
340
55
 46
2.54
 50
0.0
 44
-2.54
 45
-1.27
  9
GAS
 49
-6.349999999999999
 74
     0
  0
LTYPE
  5
B3
330
5
100
AcDbSymbolTableRecord
100
AcDbLinetypeTableRecord
  2
ZIGZAG
 70
     0
  3
Zig zag /\/\/\/\/\/\/\/\/\/\/\/\/\/\/\/\/\/\/\/
 72
    65
 73
     4
 40
20.32254
 49
0.00254
 74
     0
 49
-5.08
 74
     4
 75
   131
340
AC
 46
5.08
 50
0.0
 44
-5.08
 45
0.0
 49
-10.16
 74
     4
 75
   131
340
AC
 46
5.08
 50
180.0
 44
5.08
 45
0.0
 49
-5.08
 74
     0
  0
ENDTAB
  0
TABLE
  2
LAYER
  5
2
330
0
100
AcDbSymbolTable
 70
    28
  0
LAYER
  5
54
330
2
100
AcDbSymbolTableRecord
100
AcDbLayerTableRecord
  2
0
 70
     0
 62
     7
  6
Continuous
370
    -3
390
F
347
21
348
0
  0
LAYER
  5
C0
330
2
100
AcDbSymbolTableRecord
100
AcDbLayerTableRecord
  2
Mittellinie MD
 70
     0
 62
     7
  6
Continuous
370
    18
390
F
347
21
348
0
  0
LAYER
  5
C1
330
2
100
AcDbSymbolTableRecord
100
AcDbLayerTableRecord
  2
Mittelpunktmarkierung MD
 70
     0
 62
     7
  6
Continuous
370
    18
390
F
347
21
348
0
  0
LAYER
  5
C6
330
2
100
AcDbSymbolTableRecord
100
AcDbLayerTableRecord
  2
Schraffur MD
 70
     0
 62
     7
  6
Continuous
370
    18
390
F
347
21
348
0
  0
LAYER
  5
C7
330
2
100
AcDbSymbolTableRecord
100
AcDbLayerTableRecord
  2
Sichtbar MD
 70
     0
 62
     7
  6
Continuous
370
    35
390
F
347
21
348
0
  0
LAYER
  5
C8
330
2
100
AcDbSymbolTableRecord
100
AcDbLayerTableRecord
  2
Sichtbar schmal MD
 70
     0
 62
     7
  6
Continuous
370
    25
390
F
347
21
348
0
  0
LAYER
  5
C9
330
2
100
AcDbSymbolTableRecord
100
AcDbLayerTableRecord
  2
Skizziergeometrie MD
 70
     0
 62
     7
  6
Continuous
370
    25
390
F
347
21
348
0
  0
LAYER
  5
CA
330
2
100
AcDbSymbolTableRecord
100
AcDbLayerTableRecord
  2
Symbol MD
 70
     0
 62
     7
  6
Continuous
370
    25
390
F
347
21
348
0
  0
ENDTAB
  0
TABLE
  2
STYLE
  5
3
330
0
100
AcDbSymbolTable
 70
    12
  0
STYLE
  5
55
330
3
100
AcDbSymbolTableRecord
100
AcDbTextStyleTableRecord
  2
Standard
 70
     0
 40
0.0
 41
1.0
 50
0.0
 71
     0
 42
0.2
  3
isocpeur.ttf
  4

1001
ACAD
1000
ISOCPEUR
1071
      256
  0
STYLE
  5
5A
330
3
100
AcDbSymbolTableRecord
100
AcDbTextStyleTableRecord
  2
Annotative
 70
     0
 40
0.0
 41
1.0
 50
0.0
 71
     0
 42
0.2
  3
txt
  4

1001
AcadAnnotative
1000
AnnotativeData
1002
{
1070
     1
1070
     1
1002
}
  0
STYLE
  5
AC
330
3
100
AcDbSymbolTableRecord
100
AcDbTextStyleTableRecord
  2

 70
     1
 40
0.0
 41
1.0
 50
0.0
 71
     0
 42
0.2
  3
ltypeshp.shx
  4

  0
STYLE
  5
CF
330
3
100
AcDbSymbolTableRecord
100
AcDbTextStyleTableRecord
  2
Artikelnummer MD
 70
     0
 40
0.0
 41
1.0
 50
0.0
 71
     0
 42
0.2
  3
isocpeur.ttf
  4

1001
ACAD
1000
ISOCPEUR
1071
      256
  0
STYLE
  5
D0
330
3
100
AcDbSymbolTableRecord
100
AcDbTextStyleTableRecord
  2
Bezeichnungstext MD
 70
     0
 40
0.0
 41
1.0
 50
0.0
 71
     0
 42
0.2
  3
isocpeur.ttf
  4

1001
ACAD
1000
ISOCPEUR
1071
      256
  0
STYLE
  5
D1
330
3
100
AcDbSymbolTableRecord
100
AcDbTextStyleTableRecord
  2
Ersatzteilliste MD
 70
     0
 40
0.0
 41
1.0
 50
0.0
 71
     0
 42
0.2
  3
isocpeur.ttf
  4

1001
ACAD
1000
ISOCPEUR
1071
      256
  0
STYLE
  5
D2
330
3
100
AcDbSymbolTableRecord
100
AcDbTextStyleTableRecord
  2
Ersatzteilliste MD_2
 70
     0
 40
0.0
 41
1.0
 50
0.0
 71
     0
 42
0.2
  3
isocpeur.ttf
  4

1001
ACAD
1000
ISOCPEUR
1071
      256
  0
STYLE
  5
D3
330
3
100
AcDbSymbolTableRecord
100
AcDbTextStyleTableRecord
  2
Notiztext MD
 70
     0
 40
0.0
 41
1.0
 50
0.0
 71
     0
 42
0.2
  3
isocpeur.ttf
  4

1001
ACAD
1000
ISOCPEUR
1071
      256
  0
STYLE
  5
D4
330
3
100
AcDbSymbolTableRecord
100
AcDbTextStyleTableRecord
  2
Positionsnummer MD
 70
     0
 40
0.0
 41
1.0
 50
0.0
 71
     0
 42
0.2
  3
isocpeur.ttf
  4

1001
ACAD
1000
ISOCPEUR
1071
      256
  0
STYLE
  5
10E
330
3
100
AcDbSymbolTableRecord
100
AcDbTextStyleTableRecord
  2
Textstil34
 70
     0
 40
0.0
 41
1.0
 50
0.0
 71
     0
 42
0.2
  3
isocpeur.ttf
  4

1001
ACAD
1000
ISOCPEUR
1071
      256
  0
STYLE
  5
130
330
3
100
AcDbSymbolTableRecord
100
AcDbTextStyleTableRecord
  2
Textstil33
 70
     0
 40
0.0
 41
1.0
 50
0.0
 71
     0
 42
0.2
  3
isocpeur.ttf
  4

1001
ACAD
1000
ISOCPEUR
1071
      256
  0
STYLE
  5
159
330
3
100
AcDbSymbolTableRecord
100
AcDbTextStyleTableRecord
  2
Textstil17
 70
     0
 40
0.0
 41
1.0
 50
0.0
 71
     0
 42
0.2
  3
isocpeur.ttf
  4

1001
ACAD
1000
ISOCPEUR
1071
      256
  0
ENDTAB
  0
TABLE
  2
VIEW
  5
6
330
0
100
AcDbSymbolTable
 70
     0
  0
ENDTAB
  0
TABLE
  2
UCS
  5
7
330
0
100
AcDbSymbolTable
 70
     0
  0
ENDTAB
  0
TABLE
  2
APPID
  5
9
330
0
100
AcDbSymbolTable
 70
     3
  0
APPID
  5
56
330
9
100
AcDbSymbolTableRecord
100
AcDbRegAppTableRecord
  2
ACAD
 70
     0
  0
APPID
  5
5E
330
9
100
AcDbSymbolTableRecord
100
AcDbRegAppTableRecord
  2
AcadAnnotative
 70
     0
  0
APPID
  5
111
330
9
100
AcDbSymbolTableRecord
100
AcDbRegAppTableRecord
  2
AcadAnnoPO
 70
     0
  0
ENDTAB
  0
TABLE
  2
DIMSTYLE
  5
A
330
0
100
AcDbSymbolTable
 70
    21
100
AcDbDimStyleTable
 71
     0
  0
DIMSTYLE
105
58
330
A
100
AcDbSymbolTableRecord
100
AcDbDimStyleTableRecord
  2
Standard
 70
     0
340
55
  0
DIMSTYLE
105
59
330
A
100
AcDbSymbolTableRecord
100
AcDbDimStyleTableRecord
  2
Annotative
 70
     0
340
55
1001
AcadAnnotative
1000
AnnotativeData
1002
{
1070
     1
1070
     1
1002
}
  0
DIMSTYLE
105
D5
330
A
100
AcDbSymbolTableRecord
100
AcDbDimStyleTableRecord
  2
Bemaßung allgemein MD
 70
     0
 41
2.5
 42
0.8
 43
5.999999999999999
 44
3.174999999999999
 45
0.00000001
 46
10.0
 73
     0
 74
     0
 77
     1
 78
     8
 79
     2
140
3.5
143
0.03937
146
0.7142857313156128
147
0.8
171
     3
172
     1
176
   256
177
   256
178
   256
271
     3
272
     3
274
     3
275
     1
278
    44
284
     8
340
D3
371
    -1
372
    -1
  0
DIMSTYLE
105
D6
330
A
100
AcDbSymbolTableRecord
100
AcDbDimStyleTableRecord
  2
Bemaßung allgemein MD$7
 70
     0
 41
2.5
 42
0.8
 43
5.999999999999999
 44
3.174999999999999
 45
0.00000001
 46
10.0
 73
     0
 74
     0
 77
     1
 78
     8
 79
     2
140
3.5
143
0.03937
146
0.7142857313156128
147
0.8
171
     3
172
     1
176
   256
177
   256
178
   256
271
     3
272
     3
274
     3
275
     1
278
    44
284
     8
340
D3
371
    -1
372
    -1
  0
DIMSTYLE
105
D7
330
A
100
AcDbSymbolTableRecord
100
AcDbDimStyleTableRecord
  2
Durchmesser MD
 70
     0
 41
2.5
 42
0.8
 43
5.999999999999999
 44
3.174999999999999
 45
0.00000001
 46
10.0
 73
     0
 74
     0
 77
     1
 78
     8
 79
     2
140
3.5
143
0.03937
146
0.7142857313156128
147
0.8
171
     3
172
     1
176
   256
177
   256
178
   256
271
     3
272
     3
274
     3
275
     1
278
    44
284
     8
340
D3
371
    -1
372
    -1
  0
DIMSTYLE
105
D8
330
A
100
AcDbSymbolTableRecord
100
AcDbDimStyleTableRecord
  2
Durchmesser MD$7
 70
     0
 41
2.5
 42
0.8
 43
5.999999999999999
 44
3.174999999999999
 45
0.00000001
 46
10.0
 73
     0
 74
     0
 77
     1
 78
     8
 79
     2
140
3.5
143
0.03937
146
0.7142857313156128
147
0.8
171
     3
172
     1
176
   256
177
   256
178
   256
271
     3
272
     3
274
     3
275
     1
278
    44
284
     8
340
D3
371
    -1
372
    -1
  0
DIMSTYLE
105
D9
330
A
100
AcDbSymbolTableRecord
100
AcDbDimStyleTableRecord
  2
Fase 45° MD
 70
     0
 41
2.5
 42
0.8
 43
5.999999999999999
 44
3.174999999999999
 45
0.00000001
 46
10.0
 73
     0
 74
     0
 77
     1
 78
     8
 79
     2
140
3.5
143
0.03937
146
0.7142857313156128
147
0.8
171
     3
172
     1
176
   256
177
   256
178
   256
271
     3
272
     3
274
     3
275
     1
278
    44
284
     8
340
D3
371
    -1
372
    -1
  0
DIMSTYLE
105
DA
330
A
100
AcDbSymbolTableRecord
100
AcDbDimStyleTableRecord
  2
Fase 45° MD$7
 70
     0
 41
2.5
 42
0.8
 43
5.999999999999999
 44
3.174999999999999
 45
0.00000001
 46
10.0
 73
     0
 74
     0
 77
     1
 78
     8
 79
     2
140
3.5
143
0.03937
146
0.7142857313156128
147
0.8
171
     3
172
     1
176
   256
177
   256
178
   256
271
     3
272
     3
274
     3
275
     1
278
    44
284
     8
340
D3
371
    -1
372
    -1
  0
DIMSTYLE
105
DB
330
A
100
AcDbSymbolTableRecord
100
AcDbDimStyleTableRecord
  2
Gewinde MD
 70
     0
 41
2.5
 42
0.8
 43
5.999999999999999
 44
3.174999999999999
 45
0.00000001
 46
10.0
 73
     0
 74
     0
 77
     1
 78
     8
 79
     2
140
3.5
143
0.03937
146
0.7142857313156128
147
0.8
171
     3
172
     1
176
   256
177
   256
178
   256
271
     3
272
     3
274
     3
275
     1
278
    44
284
     8
340
D3
371
    -1
372
    -1
  0
DIMSTYLE
105
DC
330
A
100
AcDbSymbolTableRecord
100
AcDbDimStyleTableRecord
  2
Gewinde MD$7
 70
     0
 41
2.5
 42
0.8
 43
5.999999999999999
 44
3.174999999999999
 45
0.00000001
 46
10.0
 73
     0
 74
     0
 77
     1
 78
     8
 79
     2
140
3.5
143
0.03937
146
0.7142857313156128
147
0.8
171
     3
172
     1
176
   256
177
   256
178
   256
271
     3
272
     3
274
     3
275
     1
278
    44
284
     8
340
D3
371
    -1
372
    -1
  0
DIMSTYLE
105
DD
330
A
100
AcDbSymbolTableRecord
100
AcDbDimStyleTableRecord
  2
Schlüsselweite MD
 70
     0
 41
2.5
 42
0.8
 43
5.999999999999999
 44
3.174999999999999
 45
0.00000001
 46
10.0
 48
0.000000001
 71
     1
 73
     0
 74
     0
 77
     1
 78
     8
 79
     2
140
3.5
143
0.03937
146
0.7142857313156128
147
0.8
171
     3
172
     1
176
   256
177
   256
178
   256
271
     3
272
     3
274
     3
275
     1
278
    44
284
     8
340
D3
371
    -1
372
    -1
  0
DIMSTYLE
105
DE
330
A
100
AcDbSymbolTableRecord
100
AcDbDimStyleTableRecord
  2
Schlüsselweite MD$7
 70
     0
 41
2.5
 42
0.8
 43
5.999999999999999
 44
3.174999999999999
 45
0.00000001
 46
10.0
 48
0.000000001
 71
     1
 73
     0
 74
     0
 77
     1
 78
     8
 79
     2
140
3.5
143
0.03937
146
0.7142857313156128
147
0.8
171
     3
172
     1
176
   256
177
   256
178
   256
271
     3
272
     3
274
     3
275
     1
278
    44
284
     8
340
D3
371
    -1
372
    -1
  0
DIMSTYLE
105
EE
330
A
100
AcDbSymbolTableRecord
100
AcDbDimStyleTableRecord
  2
Sonstiges Objekt MD
 70
     0
 41
5.0
 42
0.0
 43
5.999999999999999
 44
3.174999999999999
 45
0.00000001
 46
10.0
 77
     1
 78
     8
 79
     2
140
3.5
143
0.03937
147
0.8
171
     3
172
     1
176
   256
177
   256
178
   256
271
     2
272
     2
274
     3
278
    44
284
     8
286
     8
340
D3
341
DF
371
    -1
372
    -1
  0
DIMSTYLE
105
EF
330
A
100
AcDbSymbolTableRecord
100
AcDbDimStyleTableRecord
  2
Sonstiges Objekt MD$7
 70
     0
 41
5.0
 42
0.0
 43
5.999999999999999
 44
3.174999999999999
 45
0.00000001
 46
10.0
 77
     1
 78
     8
 79
     2
140
3.5
143
0.03937
147
0.8
171
     3
172
     1
176
   256
177
   256
178
   256
271
     2
272
     2
274
     3
278
    44
284
     8
286
     8
340
D3
341
DF
371
    25
372
    -1
  0
DIMSTYLE
105
F0
330
A
100
AcDbSymbolTableRecord
100
AcDbDimStyleTableRecord
  2
Winkel Dezimal MD
 70
     0
 41
2.5
 42
0.8
 43
5.999999999999999
 44
3.174999999999999
 45
0.00000001
 46
10.0
 73
     0
 74
     0
 77
     1
 78
     8
 79
     2
140
3.5
143
0.03937
146
0.7142857313156128
147
0.8
171
     3
172
     1
176
   256
177
   256
178
   256
271
     3
272
     3
274
     3
278
    44
284
     8
340
D3
371
    -1
372
    -1
  0
DIMSTYLE
105
F1
330
A
100
AcDbSymbolTableRecord
100
AcDbDimStyleTableRecord
  2
Winkel Dezimal MD$7
 70
     0
 41
2.5
 42
0.8
 43
5.999999999999999
 44
3.174999999999999
 45
0.00000001
 46
10.0
 73
     0
 74
     0
 77
     1
 78
     8
 79
     2
140
3.5
143
0.03937
146
0.7142857313156128
147
0.8
171
     3
172
     1
176
   256
177
   256
178
   256
271
     3
272
     3
274
     3
278
    44
284
     8
340
D3
371
    -1
372
    -1
  0
DIMSTYLE
105
F2
330
A
100
AcDbSymbolTableRecord
100
AcDbDimStyleTableRecord
  2
Alternativ MD
 70
     0
 41
2.5
340
55
  0
DIMSTYLE
105
FD
330
A
100
AcDbSymbolTableRecord
100
AcDbDimStyleTableRecord
  2
Bezug MD
 70
     0
 41
2.5
340
55
  0
DIMSTYLE
105
FE
330
A
100
AcDbSymbolTableRecord
100
AcDbDimStyleTableRecord
  2
keine Pfeilspitze MD
 70
     0
 41
2.5
340
55
  0
DIMSTYLE
105
FF
330
A
100
AcDbSymbolTableRecord
100
AcDbDimStyleTableRecord
  2
kleiner Punkt MD
 70
     0
 41
2.5
340
55
  0
DIMSTYLE
105
100
330
A
100
AcDbSymbolTableRecord
100
AcDbDimStyleTableRecord
  2
Pfeil MD
 70
     0
 41
2.5
340
55
  0
ENDTAB
  0
TABLE
  2
BLOCK_RECORD
  5
1
330
0
100
AcDbSymbolTable
 70
    13
  0
BLOCK_RECORD
  5
70
330
1
100
AcDbSymbolTableRecord
100
AcDbBlockTableRecord
  2
*Model_Space
340
73
 70
     0
280
     1
281
     0
  0
BLOCK_RECORD
  5
6C
330
1
100
AcDbSymbolTableRecord
100
AcDbBlockTableRecord
  2
*Paper_Space
340
6F
 70
     0
280
     1
281
     0
  0
BLOCK_RECORD
  5
74
330
1
100
AcDbSymbolTableRecord
100
AcDbBlockTableRecord
  2
*Paper_Space0
340
77
 70
     0
280
     1
281
     0
  0
BLOCK_RECORD
  5
DF
330
1
100
AcDbSymbolTableRecord
100
AcDbBlockTableRecord
  2
Filled-1
340
0
 70
     0
280
     1
281
     0
  0
BLOCK_RECORD
  5
F3
330
1
100
AcDbSymbolTableRecord
100
AcDbBlockTableRecord
  2
DatumFilled45
340
0
 70
     0
280
     1
281
     0
  0
BLOCK_RECORD
  5
101
330
1
100
AcDbSymbolTableRecord
100
AcDbBlockTableRecord
  2
Loctite ETL
340
0
 70
     0
280
     1
281
     0
  0
BLOCK_RECORD
  5
112
330
1
100
AcDbSymbolTableRecord
100
AcDbBlockTableRecord
  2
Anzugsmoment ETL
340
0
 70
     0
280
     1
281
     0
  0
BLOCK_RECORD
  5
133
330
1
100
AcDbSymbolTableRecord
100
AcDbBlockTableRecord
  2
Anzugsmoment + Loctite ETL
340
0
 70
     0
280
     1
281
     0
  0
BLOCK_RECORD
  5
155
330
1
100
AcDbSymbolTableRecord
100
AcDbBlockTableRecord
  2
Änderungszustand
340
0
 70
     0
280
     1
281
     0
  0
BLOCK_RECORD
  5
15B
330
1
100
AcDbSymbolTableRecord
100
AcDbBlockTableRecord
  2
MD-Schriftzug
340
0
 70
     0
280
     1
281
     0
  0
BLOCK_RECORD
  5
225
330
1
100
AcDbSymbolTableRecord
100
AcDbBlockTableRecord
  2
Text
340
0
 70
     0
280
     1
281
     0
  0
BLOCK_RECORD
  5
22B
330
1
100
AcDbSymbolTableRecord
100
AcDbBlockTableRecord
  2
Beschriftung
340
0
 70
     0
280
     1
281
     0
  0
BLOCK_RECORD
  5
235
330
1
100
AcDbSymbolTableRecord
100
AcDbBlockTableRecord
  2
Fett ETL
340
0
 70
     0
280
     1
281
     0
  0
BLOCK_RECORD
  5
242
330
1
100
AcDbSymbolTableRecord
100
AcDbBlockTableRecord
  2
Kopie von Änderungszustand
340
0
 70
     0
280
     1
281
     0
  0
BLOCK_RECORD
  5
247
330
1
100
AcDbSymbolTableRecord
100
AcDbBlockTableRecord
  2
UHU
340
0
 70
     0
280
     1
281
     0
  0
ENDTAB
  0
ENDSEC
  0
SECTION
  2
BLOCKS
  0
BLOCK
  5
71
330
70
100
AcDbEntity
  8
0
100
AcDbBlockBegin
  2
*Model_Space
 70
     0
 10
0.0
 20
0.0
 30
0.0
  3
*Model_Space
  1

  0
ENDBLK
  5
72
330
70
100
AcDbEntity
  8
0
100
AcDbBlockEnd
  0
BLOCK
  5
6D
330
6C
100
AcDbEntity
 67
     1
  8
0
100
AcDbBlockBegin
  2
*Paper_Space
 70
     0
 10
0.0
 20
0.0
 30
0.0
  3
*Paper_Space
  1

  0
ENDBLK
  5
6E
330
6C
100
AcDbEntity
 67
     1
  8
0
100
AcDbBlockEnd
  0
BLOCK
  5
75
330
74
100
AcDbEntity
 67
     1
  8
0
100
AcDbBlockBegin
  2
*Paper_Space0
 70
     0
 10
0.0
 20
0.0
 30
0.0
  3
*Paper_Space0
  1

  0
ENDBLK
  5
76
330
74
100
AcDbEntity
 67
     1
  8
0
100
AcDbBlockEnd
  0
BLOCK
  5
E0
330
DF
100
AcDbEntity
  8
0
100
AcDbBlockBegin
  2
Filled-1
 70
     0
 10
0.0
 20
0.0
 30
0.0
  3
Filled-1
  1

  0
LINE
  5
E2
330
DF
100
AcDbEntity
  8
0
 62
     0
100
AcDbLine
 10
-1.0
 20
0.0
 30
0.0
 11
0.0
 21
0.0
 31
0.0
  0
POLYLINE
  5
E4
330
DF
100
AcDbEntity
  8
0
 62
     0
100
AcDb2dPolyline
 66
     1
 10
0.0
 20
0.0
 30
0.0
 70
   128
  0
VERTEX
  5
E5
330
E4
100
AcDbEntity
  8
0
 62
     0
100
AcDbVertex
100
AcDb2dVertex
 10
-1.0
 20
-0.1
 30
0.0
  0
VERTEX
  5
E6
330
E4
100
AcDbEntity
  8
0
 62
     0
100
AcDbVertex
100
AcDb2dVertex
 10
0.0
 20
0.0
 30
0.0
  0
VERTEX
  5
E8
330
E4
100
AcDbEntity
  8
0
 62
     0
100
AcDbVertex
100
AcDb2dVertex
 10
-1.0
 20
0.1
 30
0.0
  0
VERTEX
  5
E9
330
E4
100
AcDbEntity
  8
0
 62
     0
100
AcDbVertex
100
AcDb2dVertex
 10
-1.0
 20
-0.1
 30
0.0
  0
SEQEND
  5
E7
330
E4
100
AcDbEntity
  8
0
 62
     0
  0
SOLID
  5
EA
330
DF
100
AcDbEntity
  8
0
 62
     0
100
AcDbTrace
 10
-1.0
 20
-0.1
 30
0.0
 11
0.0
 21
0.0
 31
0.0
 12
-1.0
 22
0.1
 32
0.0
 13
-1.0
 23
-0.1
 33
0.0
  0
LINE
  5
EB
330
DF
100
AcDbEntity
  8
0
 62
     0
100
AcDbLine
 10
-1.0
 20
-0.1
 30
0.0
 11
0.0
 21
0.0
 31
0.0
  0
LINE
  5
EC
330
DF
100
AcDbEntity
  8
0
 62
     0
100
AcDbLine
 10
0.0
 20
0.0
 30
0.0
 11
-1.0
 21
0.1
 31
0.0
  0
LINE
  5
ED
330
DF
100
AcDbEntity
  8
0
 62
     0
100
AcDbLine
 10
-1.0
 20
0.1
 30
0.0
 11
-1.0
 21
-0.1
 31
0.0
  0
ENDBLK
  5
E1
330
DF
100
AcDbEntity
  8
0
100
AcDbBlockEnd
  0
BLOCK
  5
F4
330
F3
100
AcDbEntity
  8
0
100
AcDbBlockBegin
  2
DatumFilled45
 70
     0
 10
0.0
 20
0.0
 30
0.0
  3
DatumFilled45
  1

  0
POLYLINE
  5
F6
330
F3
100
AcDbEntity
  8
0
 62
     0
100
AcDb2dPolyline
 66
     1
 10
0.0
 20
0.0
 30
0.0
 70
   128
  0
VERTEX
  5
F7
330
F6
100
AcDbEntity
  8
0
 62
     0
100
AcDbVertex
100
AcDb2dVertex
 10
0.0
 20
1.0
 30
0.0
  0
VERTEX
  5
F8
330
F6
100
AcDbEntity
  8
0
 62
     0
100
AcDbVertex
100
AcDb2dVertex
 10
0.0
 20
-1.0
 30
0.0
  0
VERTEX
  5
FA
330
F6
100
AcDbEntity
  8
0
 62
     0
100
AcDbVertex
100
AcDb2dVertex
 10
-1.0
 20
0.0
 30
0.0
  0
VERTEX
  5
FB
330
F6
100
AcDbEntity
  8
0
 62
     0
100
AcDbVertex
100
AcDb2dVertex
 10
0.0
 20
1.0
 30
0.0
  0
SEQEND
  5
F9
330
F6
100
AcDbEntity
  8
0
 62
     0
  0
SOLID
  5
FC
330
F3
100
AcDbEntity
  8
0
 62
     0
100
AcDbTrace
 10
0.0
 20
1.0
 30
0.0
 11
0.0
 21
-1.0
 31
0.0
 12
-1.0
 22
0.0
 32
0.0
 13
0.0
 23
1.0
 33
0.0
  0
ENDBLK
  5
F5
330
F3
100
AcDbEntity
  8
0
100
AcDbBlockEnd
  0
BLOCK
  5
102
330
101
100
AcDbEntity
  8
0
100
AcDbBlockBegin
  2
Loctite ETL
 70
     2
 10
0.0
 20
0.0
 30
0.0
  3
Loctite ETL
  1

  0
LINE
  5
104
330
101
100
AcDbEntity
  8
Skizziergeometrie MD
100
AcDbLine
 10
-24.50000000000001
 20
5.999999999999996
 30
0.0
 11
24.50000000000001
 21
6.000000000000014
 31
0.0
  0
LINE
  5
105
330
101
100
AcDbEntity
  8
Skizziergeometrie MD
100
AcDbLine
 10
26.5
 20
4.000000000000021
 30
0.0
 11
26.5
 21
-4.000000000000003
 31
0.0
  0
LINE
  5
106
330
101
100
AcDbEntity
  8
Skizziergeometrie MD
100
AcDbLine
 10
24.50000000000001
 20
-5.999999999999996
 30
0.0
 11
-24.50000000000001
 21
-5.999999999999996
 31
0.0
  0
LINE
  5
107
330
101
100
AcDbEntity
  8
Skizziergeometrie MD
100
AcDbLine
 10
-26.50000000000002
 20
-4.000000000000003
 30
0.0
 11
-26.5
 21
4.000000000000021
 31
0.0
  0
ARC
  5
108
330
101
100
AcDbEntity
  8
Skizziergeometrie MD
100
AcDbCircle
 10
-24.50000000000001
 20
4.000000000000021
 30
0.0
 40
1.999999999999984
100
AcDbArc
 50
90.0
 51
180.0
  0
ARC
  5
109
330
101
100
AcDbEntity
  8
Skizziergeometrie MD
100
AcDbCircle
 10
-24.50000000000001
 20
-4.000000000000003
 30
0.0
 40
1.999999999999992
100
AcDbArc
 50
180.0
 51
270.0
  0
ARC
  5
10A
330
101
100
AcDbEntity
  8
Skizziergeometrie MD
100
AcDbCircle
 10
24.50000000000001
 20
-4.000000000000003
 30
0.0
 40
1.999999999999992
100
AcDbArc
 50
270.0
 51
0.0
  0
ARC
  5
10B
330
101
100
AcDbEntity
  8
Skizziergeometrie MD
100
AcDbCircle
 10
24.50000000000001
 20
4.000000000000021
 30
0.0
 40
1.999999999999992
100
AcDbArc
 50
0.0
 51
90.0
  0
MTEXT
  5
10C
330
101
100
AcDbEntity
  8
Symbol MD
100
AcDbMText
 10
-23.50000000000001
 20
3.000000000000007
 30
0.0
 40
6.000000238418579
 41
0.0
 46
0.0
 71
     1
 72
     1
  1
\fISOCPEUR|b0|i0;\H6.0000;Loctite
  7
Notiztext MD
 73
     1
 44
1.0
  0
ATTDEF
  5
10F
330
101
100
AcDbEntity
  8
Symbol MD
100
AcDbText
 10
6.499999999999985
 20
-3.000000238418571
 30
0.0
 40
6.000000238418579
  1
243
  7
Textstil34
 11
6.499999999999985
 21
3.000000000000007
 31
0.0
100
AcDbAttributeDefinition
280
     0
  3
Type
  2
Type
 70
     0
 74
     3
280
     0
 71
     4
 72
     0
 11
6.499999999999985
 21
3.000000000000007
 31
0.0
101
Embedded Object
 10
6.499999999999985
 20
3.000000000000007
 30
0.0
 40
6.000000238418579
 41
0.0
 46
0.0
 71
     1
 72
     5
  1
243
  7
Textstil34
 73
     1
 44
1.0
  0
ENDBLK
  5
103
330
101
100
AcDbEntity
  8
0
100
AcDbBlockEnd
  0
BLOCK
  5
113
330
112
100
AcDbEntity
  8
0
100
AcDbBlockBegin
  2
Anzugsmoment ETL
 70
     2
 10
0.0
 20
0.0
 30
0.0
  3
Anzugsmoment ETL
  1

  0
HATCH
  5
11E
330
112
100
AcDbEntity
  8
Schraffur MD
100
AcDbHatch
 10
0.0
 20
0.0
 30
0.0
210
0.0
220
0.0
230
1.0
  2
SOLID
 70
     1
 71
     0
 91
        1
 92
        1
 93
        9
 72
     2
 10
-9.586737237182365
 20
8.241689887563818
 40
8.0
 50
214.1930771251396
 51
243.2099568642829
 73
     1
 72
     1
 10
-13.19251659926716
 20
1.100376619546281
 11
-10.83229405907888
 21
3.460599159734569
 72
     2
 10
-14.69599736423515
 20
2.425322979324486
 40
4.0
 50
344.9999999999999
 51
472.9756871629578
 73
     0
 72
     1
 10
-16.25735931288071
 20
-1.257359312880717
 11
-20.5
 21
-5.500000000000002
 72
     1
 10
-20.5
 20
-5.500000000000002
 11
-21.0
 21
-5.500000000000002
 72
     4
 94
        4
 73
     0
 74
     0
 95
       10
 96
        5
 40
0.0
 40
0.0
 40
0.0
 40
0.0
 40
0.0
 40
1.0
 40
1.0
 40
1.0
 40
1.0
 40
1.0
 10
-21.00000000000001
 20
-5.500000000000011
 10
-22.67742965990922
 20
-6.071013397838886
 10
-21.30383512119264
 20
-4.037201714681621
 10
-23.08950883214095
 20
-3.934639894698204
 10
-22.98532273418274
 20
-3.03557526587693
 97
        0
 72
     1
 10
-22.98532273418276
 20
-3.03557526587693
 11
-18.74268204706348
 21
1.207065421242354
 72
     2
 10
-14.8789787419072
 20
2.242341601652437
 40
4.0
 50
165.0
 51
285.0
 73
     0
 72
     1
 10
-13.84370256149711
 20
6.106044906808714
 11
-16.20392510168541
 21
3.745822366620426
 97
        0
 75
     0
 76
     1
 98
        1
 10
0.0
 20
0.0
450
        0
451
        0
460
0.0
461
0.0
452
        0
462
0.0
453
        0
470

  0
LINE
  5
11F
330
112
100
AcDbEntity
  8
Skizziergeometrie MD
100
AcDbLine
 10
-13.84370256149711
 20
6.106044906808714
 30
0.0
 11
-16.20392510168541
 21
3.745822366620426
 31
0.0
  0
LINE
  5
120
330
112
100
AcDbEntity
  8
Skizziergeometrie MD
100
AcDbLine
 10
-13.19251659926716
 20
1.100376619546281
 30
0.0
 11
-10.83229405907888
 21
3.460599159734569
 31
0.0
  0
ARC
  5
121
330
112
100
AcDbEntity
  8
Skizziergeometrie MD
100
AcDbCircle
 10
-14.8789787419072
 20
2.242341601652437
 30
0.0
 40
4.0
100
AcDbArc
 50
75.0
 51
194.9999999999999
  0
ARC
  5
122
330
112
100
AcDbEntity
  8
Skizziergeometrie MD
100
AcDbCircle
 10
-14.69599736423515
 20
2.425322979324486
 30
0.0
 40
4.0
100
AcDbArc
 50
247.0243128370421
 51
14.99999999999995
  0
LINE
  5
123
330
112
100
AcDbEntity
  8
Skizziergeometrie MD
100
AcDbLine
 10
-18.74268204706347
 20
1.207065421242354
 30
0.0
 11
-22.98532273418276
 21
-3.03557526587693
 31
0.0
  0
LINE
  5
124
330
112
100
AcDbEntity
  8
Skizziergeometrie MD
100
AcDbLine
 10
-16.25735931288071
 20
-1.257359312880717
 30
0.0
 11
-20.5
 21
-5.500000000000002
 31
0.0
  0
ARC
  5
125
330
112
100
AcDbEntity
  8
Skizziergeometrie MD
100
AcDbCircle
 10
-9.586737237182365
 20
8.241689887563818
 30
0.0
 40
8.0
100
AcDbArc
 50
214.1930771251396
 51
243.209956864283
  0
LINE
  5
126
330
112
100
AcDbEntity
  8
Skizziergeometrie MD
100
AcDbLine
 10
-20.5
 20
-5.500000000000002
 30
0.0
 11
-21.0
 21
-5.500000000000002
 31
0.0
  0
SPLINE
  5
127
330
112
100
AcDbEntity
  8
Skizziergeometrie MD
100
AcDbSpline
210
0.0
220
0.0
230
1.0
 70
     8
 71
     4
 72
    10
 73
     5
 74
     0
 42
0.000000001
 43
0.0000000001
 40
0.0
 40
0.0
 40
0.0
 40
0.0
 40
0.0
 40
1.0
 40
1.0
 40
1.0
 40
1.0
 40
1.0
 10
-22.98532273418274
 20
-3.03557526587693
 30
0.0
 10
-23.08950883214095
 20
-3.934639894698204
 30
0.0
 10
-21.30383512119264
 20
-4.037201714681621
 30
0.0
 10
-22.67742965990922
 20
-6.071013397838886
 30
0.0
 10
-21.00000000000001
 20
-5.500000000000011
 30
0.0
  0
LINE
  5
128
330
112
100
AcDbEntity
  8
Skizziergeometrie MD
100
AcDbLine
 10
-21.5
 20
8.5
 30
0.0
 11
21.50000000000001
 21
8.5
 31
0.0
  0
LINE
  5
129
330
112
100
AcDbEntity
  8
Skizziergeometrie MD
100
AcDbLine
 10
26.5
 20
3.5
 30
0.0
 11
26.5
 21
-3.5
 31
0.0
  0
LINE
  5
12A
330
112
100
AcDbEntity
  8
Skizziergeometrie MD
100
AcDbLine
 10
21.5
 20
-8.5
 30
0.0
 11
-21.5
 21
-8.5
 31
0.0
  0
LINE
  5
12B
330
112
100
AcDbEntity
  8
Skizziergeometrie MD
100
AcDbLine
 10
-26.49999999999999
 20
-3.5
 30
0.0
 11
-26.49999999999999
 21
3.5
 31
0.0
  0
ARC
  5
12C
330
112
100
AcDbEntity
  8
Skizziergeometrie MD
100
AcDbCircle
 10
-21.5
 20
-3.5
 30
0.0
 40
5.0
100
AcDbArc
 50
180.0
 51
270.0
  0
ARC
  5
12D
330
112
100
AcDbEntity
  8
Skizziergeometrie MD
100
AcDbCircle
 10
-21.5
 20
3.5
 30
0.0
 40
5.0
100
AcDbArc
 50
90.0
 51
180.0
  0
ARC
  5
12E
330
112
100
AcDbEntity
  8
Skizziergeometrie MD
100
AcDbCircle
 10
21.5
 20
3.5
 30
0.0
 40
5.0
100
AcDbArc
 50
0.0
 51
90.0
  0
ARC
  5
12F
330
112
100
AcDbEntity
  8
Skizziergeometrie MD
100
AcDbCircle
 10
21.5
 20
-3.5
 30
0.0
 40
5.0
100
AcDbArc
 50
270.0
 51
0.0
  0
ATTDEF
  5
131
330
112
100
AcDbEntity
  8
Symbol MD
100
AcDbText
 10
4.600000238604834
 20
-3.5
 30
0.0
 40
6.99999988079071
  1
5
  7
Textstil33
 72
     2
 11
9.499999999999992
 21
3.499999880790709
 31
0.0
100
AcDbAttributeDefinition
280
     0
  3
Anzugsmoment
  2
Anzugsmoment
 70
     0
 74
     3
280
     0
 71
     4
 72
     0
 11
9.499999999999992
 21
3.499999880790709
 31
0.0
101
Embedded Object
 10
9.499999999999992
 20
3.499999880790709
 30
0.0
 40
6.99999988079071
 41
0.0
 46
0.0
 71
     3
 72
     5
  1
5
  7
Textstil33
 73
     1
 44
1.0
  0
MTEXT
  5
132
330
112
100
AcDbEntity
  8
Symbol MD
100
AcDbMText
 10
11.49999999999999
 20
-3.5
 30
0.0
 40
6.99999988079071
 41
0.0
 46
0.0
 71
     7
 72
     1
  1
\fISOCPEUR|b0|i0;\H7.0000;Nm
  7
Notiztext MD
 73
     1
 44
1.0
  0
ENDBLK
  5
114
330
112
100
AcDbEntity
  8
0
100
AcDbBlockEnd
  0
BLOCK
  5
134
330
133
100
AcDbEntity
  8
0
100
AcDbBlockBegin
  2
Anzugsmoment + Loctite ETL
 70
     2
 10
0.0
 20
0.0
 30
0.0
  3
Anzugsmoment + Loctite ETL
  1

  0
HATCH
  5
13F
330
133
100
AcDbEntity
  8
Schraffur MD
100
AcDbHatch
 10
0.0
 20
0.0
 30
0.0
210
0.0
220
0.0
230
1.0
  2
SOLID
 70
     1
 71
     0
 91
        1
 92
        1
 93
        9
 72
     2
 10
-9.086737237182358
 20
13.74168988756382
 40
8.0
 50
214.1930771251396
 51
243.2099568642829
 73
     1
 72
     1
 10
-12.69251659926716
 20
6.600376619546284
 11
-10.33229405907887
 21
8.960599159734572
 72
     2
 10
-14.19599736423515
 20
7.925322979324489
 40
4.0
 50
344.9999999999999
 51
472.9756871629578
 73
     0
 72
     1
 10
-15.7573593128807
 20
4.242640687119285
 11
-19.99999999999999
 21
0.0
 72
     1
 10
-19.99999999999999
 20
0.0
 11
-20.49999999999999
 21
0.0
 72
     4
 94
        4
 73
     0
 74
     0
 95
       10
 96
        5
 40
0.0
 40
0.0
 40
0.0
 40
0.0
 40
0.0
 40
1.0
 40
1.0
 40
1.0
 40
1.0
 40
1.0
 10
-20.5
 20
0.0000000000000178
 10
-21.92263084943602
 20
-0.3856372893018811
 10
-21.23524774414511
 20
1.831957815136684
 10
-22.37346536970233
 20
1.563310390801966
 10
-22.48532273418277
 20
2.464424734123085
 97
        0
 72
     1
 10
-22.48532273418275
 20
2.464424734123071
 11
-18.24268204706347
 21
6.707065421242357
 72
     2
 10
-14.37897874190719
 20
7.74234160165244
 40
4.0
 50
165.0
 51
285.0
 73
     0
 72
     1
 10
-13.34370256149711
 20
11.60604490680871
 11
-15.7039251016854
 21
9.245822366620426
 97
        0
 75
     0
 76
     1
 98
        1
 10
0.0
 20
0.0
450
        0
451
        0
460
0.0
461
0.0
452
        0
462
0.0
453
        0
470

  0
LINE
  5
140
330
133
100
AcDbEntity
  8
Skizziergeometrie MD
100
AcDbLine
 10
-13.34370256149711
 20
11.60604490680871
 30
0.0
 11
-15.7039251016854
 21
9.245822366620428
 31
0.0
  0
LINE
  5
141
330
133
100
AcDbEntity
  8
Skizziergeometrie MD
100
AcDbLine
 10
-12.69251659926716
 20
6.600376619546284
 30
0.0
 11
-10.33229405907887
 21
8.960599159734572
 31
0.0
  0
ARC
  5
142
330
133
100
AcDbEntity
  8
Skizziergeometrie MD
100
AcDbCircle
 10
-14.37897874190719
 20
7.74234160165244
 30
0.0
 40
4.0
100
AcDbArc
 50
75.0
 51
194.9999999999999
  0
ARC
  5
143
330
133
100
AcDbEntity
  8
Skizziergeometrie MD
100
AcDbCircle
 10
-14.19599736423515
 20
7.925322979324489
 30
0.0
 40
4.0
100
AcDbArc
 50
247.0243128370421
 51
14.99999999999995
  0
LINE
  5
144
330
133
100
AcDbEntity
  8
Skizziergeometrie MD
100
AcDbLine
 10
-18.24268204706347
 20
6.707065421242357
 30
0.0
 11
-22.48532273418275
 21
2.464424734123071
 31
0.0
  0
LINE
  5
145
330
133
100
AcDbEntity
  8
Skizziergeometrie MD
100
AcDbLine
 10
-15.7573593128807
 20
4.242640687119285
 30
0.0
 11
-19.99999999999999
 21
0.0
 31
0.0
  0
ARC
  5
146
330
133
100
AcDbEntity
  8
Skizziergeometrie MD
100
AcDbCircle
 10
-9.086737237182358
 20
13.74168988756382
 30
0.0
 40
8.0
100
AcDbArc
 50
214.1930771251396
 51
243.2099568642829
  0
LINE
  5
147
330
133
100
AcDbEntity
  8
Skizziergeometrie MD
100
AcDbLine
 10
-19.99999999999999
 20
0.0
 30
0.0
 11
-20.49999999999999
 21
0.0
 31
0.0
  0
SPLINE
  5
148
330
133
100
AcDbEntity
  8
Skizziergeometrie MD
100
AcDbSpline
210
0.0
220
0.0
230
1.0
 70
     8
 71
     4
 72
    10
 73
     5
 74
     0
 42
0.000000001
 43
0.0000000001
 40
0.0
 40
0.0
 40
0.0
 40
0.0
 40
0.0
 40
1.0
 40
1.0
 40
1.0
 40
1.0
 40
1.0
 10
-22.48532273418277
 20
2.464424734123085
 30
0.0
 10
-22.37346536970233
 20
1.563310390801966
 30
0.0
 10
-21.23524774414511
 20
1.831957815136684
 30
0.0
 10
-21.92263084943602
 20
-0.3856372893018811
 30
0.0
 10
-20.5
 20
0.0000000000000178
 30
0.0
  0
LINE
  5
149
330
133
100
AcDbEntity
  8
Skizziergeometrie MD
100
AcDbLine
 10
-21.5
 20
14.0
 30
0.0
 11
21.5
 21
14.0
 31
0.0
  0
LINE
  5
14A
330
133
100
AcDbEntity
  8
Skizziergeometrie MD
100
AcDbLine
 10
26.5
 20
9.000000000000003
 30
0.0
 11
26.5
 21
-9.000000000000003
 31
0.0
  0
LINE
  5
14B
330
133
100
AcDbEntity
  8
Skizziergeometrie MD
100
AcDbLine
 10
21.5
 20
-14.00000000000001
 30
0.0
 11
-21.5
 21
-14.00000000000001
 31
0.0
  0
LINE
  5
14C
330
133
100
AcDbEntity
  8
Skizziergeometrie MD
100
AcDbLine
 10
-26.49999999999999
 20
-9.000000000000003
 30
0.0
 11
-26.5
 21
9.000000000000003
 31
0.0
  0
ARC
  5
14D
330
133
100
AcDbEntity
  8
Skizziergeometrie MD
100
AcDbCircle
 10
-21.5
 20
-9.000000000000003
 30
0.0
 40
5.0
100
AcDbArc
 50
180.0
 51
270.0
  0
ARC
  5
14E
330
133
100
AcDbEntity
  8
Skizziergeometrie MD
100
AcDbCircle
 10
-21.5
 20
9.000000000000003
 30
0.0
 40
5.0
100
AcDbArc
 50
90.0
 51
180.0
  0
ARC
  5
14F
330
133
100
AcDbEntity
  8
Skizziergeometrie MD
100
AcDbCircle
 10
21.5
 20
9.000000000000003
 30
0.0
 40
5.0
100
AcDbArc
 50
0.0
 51
90.0
  0
ARC
  5
150
330
133
100
AcDbEntity
  8
Skizziergeometrie MD
100
AcDbCircle
 10
21.5
 20
-9.000000000000003
 30
0.0
 40
5.0
100
AcDbArc
 50
270.0
 51
0.0
  0
ATTDEF
  5
151
330
133
100
AcDbEntity
  8
Symbol MD
100
AcDbText
 10
-5.749999233055859
 20
2.000000000000001
 30
0.0
 40
6.99999988079071
  1
12,5
  7
Textstil33
 72
     2
 11
10.00000000000001
 21
8.999999880790712
 31
0.0
100
AcDbAttributeDefinition
280
     0
  3
Anzugsmoment
  2
Anzugsmoment
 70
     0
 74
     3
280
     0
 71
     4
 72
     0
 11
10.00000000000001
 21
8.999999880790712
 31
0.0
101
Embedded Object
 10
10.00000000000001
 20
8.999999880790712
 30
0.0
 40
6.99999988079071
 41
0.0
 46
0.0
 71
     3
 72
     5
  1
12,5
  7
Textstil33
 73
     1
 44
1.0
  0
MTEXT
  5
152
330
133
100
AcDbEntity
  8
Symbol MD
100
AcDbMText
 10
11.5
 20
2.000000000000001
 30
0.0
 40
6.99999988079071
 41
0.0
 46
0.0
 71
     7
 72
     1
  1
\fISOCPEUR|b0|i0;\H7.0000;Nm
  7
Notiztext MD
 73
     1
 44
1.0
  0
ATTDEF
  5
153
330
133
100
AcDbEntity
  8
Symbol MD
100
AcDbText
 10
6.500000000000003
 20
-10.00000023841858
 30
0.0
 40
6.000000238418579
  1
243
  7
Textstil34
 11
6.500000000000003
 21
-4.000000000000003
 31
0.0
100
AcDbAttributeDefinition
280
     0
  3
Loctite
  2
Loctite
 70
     0
 74
     3
280
     0
 71
     4
 72
     0
 11
6.500000000000003
 21
-4.000000000000003
 31
0.0
101
Embedded Object
 10
6.500000000000003
 20
-4.000000000000003
 30
0.0
 40
6.000000238418579
 41
0.0
 46
0.0
 71
     1
 72
     5
  1
243
  7
Textstil34
 73
     1
 44
1.0
  0
MTEXT
  5
154
330
133
100
AcDbEntity
  8
Symbol MD
100
AcDbMText
 10
-22.5
 20
-4.000000000000003
 30
0.0
 40
6.000000238418579
 41
0.0
 46
0.0
 71
     1
 72
     1
  1
\fISOCPEUR|b0|i0;\H6.0000;Loctite
  7
Notiztext MD
 73
     1
 44
1.0
  0
ENDBLK
  5
135
330
133
100
AcDbEntity
  8
0
100
AcDbBlockEnd
  0
BLOCK
  5
156
330
155
100
AcDbEntity
  8
0
100
AcDbBlockBegin
  2
Änderungszustand
 70
     2
 10
0.0
 20
0.0
 30
0.0
  3
Änderungszustand
  1

  0
CIRCLE
  5
158
330
155
100
AcDbEntity
  8
Skizziergeometrie MD
100
AcDbCircle
 10
0.0
 20
0.0000000000000178
 30
0.0
 40
3.0
  0
ATTDEF
  5
15A
330
155
100
AcDbEntity
  8
Symbol MD
100
AcDbText
 10
-1.050000008475034
 20
-1.500000059604644
 30
0.0
 40
3.000000119209289
  1
5
  7
Textstil17
 72
     1
 11
0.0
 21
0.0
 31
0.0
100
AcDbAttributeDefinition
280
     0
  3
Zust.
  2
Zust.
 70
     0
 74
     2
280
     0
 71
     4
 72
     0
 11
0.0
 21
0.0
 31
0.0
101
Embedded Object
 10
0.0
 20
0.0
 30
0.0
 40
3.000000119209289
 41
0.0
 46
0.0
 71
     5
 72
     5
  1
5
  7
Textstil17
 73
     1
 44
1.0
  0
ENDBLK
  5
157
330
155
100
AcDbEntity
  8
0
100
AcDbBlockEnd
  0
BLOCK
  5
15C
330
15B
100
AcDbEntity
  8
0
100
AcDbBlockBegin
  2
MD-Schriftzug
 70
     0
 10
0.0
 20
0.0
 30
0.0
  3
MD-Schriftzug
  1

  0
LINE
  5
15E
330
15B
100
AcDbEntity
  8
Skizziergeometrie MD
100
AcDbLine
 10
-17.31136761332348
 20
4.434757641419491
 30
0.0
 11
-18.35536761332344
 21
2.294240430810701
 31
0.0
  0
LINE
  5
15F
330
15B
100
AcDbEntity
  8
Skizziergeometrie MD
100
AcDbLine
 10
-18.35536761332344
 20
2.294240430810701
 30
0.0
 11
-19.39936761332348
 21
4.434757641419482
 31
0.0
  0
LINE
  5
160
330
15B
100
AcDbEntity
  8
Skizziergeometrie MD
100
AcDbLine
 10
-18.76136761332349
 20
0.9547576414195013
 30
0.0
 11
-17.94936761332349
 21
0.9547576414194924
 31
0.0
  0
LINE
  5
161
330
15B
100
AcDbEntity
  8
Skizziergeometrie MD
100
AcDbLine
 10
-16.15136761332355
 20
0.9547576414194836
 30
0.0
 11
-16.15136761332353
 21
4.434757641419473
 31
0.0
  0
LINE
  5
162
330
15B
100
AcDbEntity
  8
Skizziergeometrie MD
100
AcDbLine
 10
-16.96336761332352
 20
0.9547576414194924
 30
0.0
 11
-16.15136761332355
 21
0.9547576414194836
 31
0.0
  0
LINE
  5
163
330
15B
100
AcDbEntity
  8
Skizziergeometrie MD
100
AcDbLine
 10
-16.96336761332352
 20
0.9547576414194924
 30
0.0
 11
-16.96336761332353
 21
2.97635722921667
 31
0.0
  0
LINE
  5
164
330
15B
100
AcDbEntity
  8
Skizziergeometrie MD
100
AcDbLine
 10
-17.94936761332349
 20
0.9547576414194924
 30
0.0
 11
-16.96336761332353
 21
2.97635722921667
 31
0.0
  0
LINE
  5
165
330
15B
100
AcDbEntity
  8
Skizziergeometrie MD
100
AcDbLine
 10
-16.15136761332353
 20
4.434757641419473
 30
0.0
 11
-17.31136761332348
 21
4.434757641419491
 31
0.0
  0
LINE
  5
166
330
15B
100
AcDbEntity
  8
Skizziergeometrie MD
100
AcDbLine
 10
-19.74736761332345
 20
2.976357229216679
 30
0.0
 11
-19.74736761332344
 21
0.9547576414194924
 31
0.0
  0
LINE
  5
167
330
15B
100
AcDbEntity
  8
Skizziergeometrie MD
100
AcDbLine
 10
-18.76136761332349
 20
0.9547576414195013
 30
0.0
 11
-19.74736761332345
 21
2.976357229216679
 31
0.0
  0
LINE
  5
168
330
15B
100
AcDbEntity
  8
Skizziergeometrie MD
100
AcDbLine
 10
-20.55936761332353
 20
4.434757641419473
 30
0.0
 11
-20.55936761332353
 21
0.9547576414194747
 31
0.0
  0
LINE
  5
169
330
15B
100
AcDbEntity
  8
Skizziergeometrie MD
100
AcDbLine
 10
-19.39936761332348
 20
4.434757641419482
 30
0.0
 11
-20.55936761332353
 21
4.434757641419473
 31
0.0
  0
LINE
  5
16A
330
15B
100
AcDbEntity
  8
Skizziergeometrie MD
100
AcDbLine
 10
-20.55936761332353
 20
0.9547576414194747
 30
0.0
 11
-19.74736761332344
 21
0.9547576414194924
 31
0.0
  0
ARC
  5
16B
330
15B
100
AcDbEntity
  8
Skizziergeometrie MD
100
AcDbCircle
 10
1.553540665153798
 20
1.934345070168648
 30
0.0
 40
0.4570425975202458
100
AcDbArc
 50
331.3355395479728
 51
11.72396983130892
  0
ARC
  5
16C
330
15B
100
AcDbEntity
  8
Skizziergeometrie MD
100
AcDbCircle
 10
1.642147938454909
 20
1.88931405321477
 30
0.0
 40
0.3844816368478083
100
AcDbArc
 50
21.0183222334137
 51
83.39296852598474
  0
ARC
  5
16D
330
15B
100
AcDbEntity
  8
Skizziergeometrie MD
100
AcDbCircle
 10
1.611424013948541
 20
1.931097036714977
 30
0.0
 40
0.4054614417244424
100
AcDbArc
 50
278.7578663398576
 51
327.8125122476933
  0
ARC
  5
16E
330
15B
100
AcDbEntity
  8
Skizziergeometrie MD
100
AcDbCircle
 10
1.265285364710422
 20
4.429231128728554
 30
0.0
 40
3.489118723013506
100
AcDbArc
 50
268.7247394624261
 51
283.3008820411725
  0
ARC
  5
16F
330
15B
100
AcDbEntity
  8
Skizziergeometrie MD
100
AcDbCircle
 10
1.447689500901647
 20
5.0502326825133
 30
0.0
 40
3.52708363744742
100
AcDbArc
 50
257.4040038370595
 51
273.6651460924187
  0
ARC
  5
170
330
15B
100
AcDbEntity
  8
Skizziergeometrie MD
100
AcDbCircle
 10
2.092311670277933
 20
8.383497573340905
 30
0.0
 40
6.125719647533964
100
AcDbArc
 50
260.3660466637691
 51
266.2004658575505
  0
ARC
  5
171
330
15B
100
AcDbEntity
  8
Skizziergeometrie MD
100
AcDbCircle
 10
1.563540770165348
 20
4.002588872021588
 30
0.0
 40
1.731114441187764
100
AcDbArc
 50
232.628982638488
 51
253.3368731497334
  0
ARC
  5
172
330
15B
100
AcDbEntity
  8
Skizziergeometrie MD
100
AcDbCircle
 10
1.273745085585007
 20
2.98155089569601
 30
0.0
 40
1.471668828572101
100
AcDbArc
 50
108.9241660710531
 51
132.7158447178787
  0
ARC
  5
173
330
15B
100
AcDbEntity
  8
Skizziergeometrie MD
100
AcDbCircle
 10
1.381316966327785
 20
3.674436968135976
 30
0.0
 40
1.360806176159423
100
AcDbArc
 50
205.5940045082629
 51
230.3394820629377
  0
LINE
  5
174
330
15B
100
AcDbEntity
  8
Skizziergeometrie MD
100
AcDbLine
 10
-7.735307488065634
 20
4.434757641419464
 30
0.0
 11
-7.735307488065616
 21
0.9547576414194924
 31
0.0
  0
LINE
  5
175
330
15B
100
AcDbEntity
  8
Skizziergeometrie MD
100
AcDbLine
 10
-8.663307488065621
 20
0.9547576414194747
 30
0.0
 11
-7.735307488065616
 21
0.9547576414194924
 31
0.0
  0
LINE
  5
176
330
15B
100
AcDbEntity
  8
Skizziergeometrie MD
100
AcDbLine
 10
-7.735307488065634
 20
4.434757641419464
 30
0.0
 11
-8.663307488065621
 21
4.434757641419491
 31
0.0
  0
LINE
  5
177
330
15B
100
AcDbEntity
  8
Skizziergeometrie MD
100
AcDbLine
 10
-8.663307488065621
 20
4.434757641419491
 30
0.0
 11
-8.663307488065603
 21
2.29424043081071
 31
0.0
  0
LINE
  5
178
330
15B
100
AcDbEntity
  8
Skizziergeometrie MD
100
AcDbLine
 10
-10.2873074880656
 20
4.434757641419491
 30
0.0
 11
-8.663307488065603
 21
2.29424043081071
 31
0.0
  0
LINE
  5
179
330
15B
100
AcDbEntity
  8
Skizziergeometrie MD
100
AcDbLine
 10
-10.28730748806558
 20
2.738521983593464
 30
0.0
 11
-8.663307488065621
 21
0.9547576414194747
 31
0.0
  0
LINE
  5
17A
330
15B
100
AcDbEntity
  8
Skizziergeometrie MD
100
AcDbLine
 10
-10.28730748806558
 20
2.738521983593464
 30
0.0
 11
-10.28730748806558
 21
0.9547576414194747
 31
0.0
  0
LINE
  5
17B
330
15B
100
AcDbEntity
  8
Skizziergeometrie MD
100
AcDbLine
 10
-10.2873074880656
 20
4.434757641419491
 30
0.0
 11
-11.21530748806557
 21
4.434757641419473
 31
0.0
  0
LINE
  5
17C
330
15B
100
AcDbEntity
  8
Skizziergeometrie MD
100
AcDbLine
 10
-11.21530748806555
 20
0.9547576414194836
 30
0.0
 11
-10.28730748806558
 21
0.9547576414194747
 31
0.0
  0
LINE
  5
17D
330
15B
100
AcDbEntity
  8
Skizziergeometrie MD
100
AcDbLine
 10
-11.21530748806557
 20
4.434757641419473
 30
0.0
 11
-11.21530748806555
 21
0.9547576414194836
 31
0.0
  0
LINE
  5
17E
330
15B
100
AcDbEntity
  8
Skizziergeometrie MD
100
AcDbLine
 10
-14.39494682000875
 20
1.650757641419531
 30
0.0
 11
-12.92939262938575
 21
1.650757641419478
 31
0.0
  0
LINE
  5
17F
330
15B
100
AcDbEntity
  8
Skizziergeometrie MD
100
AcDbLine
 10
-14.30965368781166
 20
4.434757641419482
 30
0.0
 11
-13.01468576158278
 21
4.434757641419482
 31
0.0
  0
LINE
  5
180
330
15B
100
AcDbEntity
  8
Skizziergeometrie MD
100
AcDbLine
 10
-15.57627010305799
 20
0.9547576414195102
 30
0.0
 11
-14.64827010305802
 21
0.9547576414194924
 31
0.0
  0
LINE
  5
181
330
15B
100
AcDbEntity
  8
Skizziergeometrie MD
100
AcDbLine
 10
-15.57627010305799
 20
0.9547576414195102
 30
0.0
 11
-14.30965368781166
 21
4.434757641419482
 31
0.0
  0
LINE
  5
182
330
15B
100
AcDbEntity
  8
Skizziergeometrie MD
100
AcDbLine
 10
-14.64827010305802
 20
0.9547576414194924
 30
0.0
 11
-14.39494682000875
 21
1.650757641419531
 31
0.0
  0
LINE
  5
183
330
15B
100
AcDbEntity
  8
Skizziergeometrie MD
100
AcDbLine
 10
-14.22606463130917
 20
2.114757641419497
 30
0.0
 11
-13.66216972469722
 21
3.664046164281398
 31
0.0
  0
LINE
  5
184
330
15B
100
AcDbEntity
  8
Skizziergeometrie MD
100
AcDbLine
 10
-14.22606463130917
 20
2.114757641419497
 30
0.0
 11
-13.09827481808527
 21
2.114757641419497
 31
0.0
  0
LINE
  5
185
330
15B
100
AcDbEntity
  8
Skizziergeometrie MD
100
AcDbLine
 10
-13.09827481808527
 20
2.114757641419497
 30
0.0
 11
-13.66216972469722
 21
3.664046164281398
 31
0.0
  0
LINE
  5
186
330
15B
100
AcDbEntity
  8
Skizziergeometrie MD
100
AcDbLine
 10
-11.74806934633646
 20
0.9547576414194924
 30
0.0
 11
-13.01468576158278
 21
4.434757641419482
 31
0.0
  0
LINE
  5
187
330
15B
100
AcDbEntity
  8
Skizziergeometrie MD
100
AcDbLine
 10
-12.67606934633644
 20
0.9547576414194836
 30
0.0
 11
-11.74806934633646
 21
0.9547576414194924
 31
0.0
  0
LINE
  5
188
330
15B
100
AcDbEntity
  8
Skizziergeometrie MD
100
AcDbLine
 10
-12.67606934633644
 20
0.9547576414194836
 30
0.0
 11
-12.92939262938575
 21
1.650757641419478
 31
0.0
  0
LINE
  5
189
330
15B
100
AcDbEntity
  8
Skizziergeometrie MD
100
AcDbLine
 10
-6.997735938655678
 20
0.9547576414194836
 30
0.0
 11
-6.069735938655709
 21
0.9547576414194836
 31
0.0
  0
LINE
  5
18A
330
15B
100
AcDbEntity
  8
Skizziergeometrie MD
100
AcDbLine
 10
-6.069735938655691
 20
4.434757641419482
 30
0.0
 11
-6.997735938655678
 21
4.434757641419491
 31
0.0
  0
LINE
  5
18B
330
15B
100
AcDbEntity
  8
Skizziergeometrie MD
100
AcDbLine
 10
-6.997735938655678
 20
4.434757641419491
 30
0.0
 11
-6.997735938655678
 21
0.9547576414194836
 31
0.0
  0
LINE
  5
18C
330
15B
100
AcDbEntity
  8
Skizziergeometrie MD
100
AcDbLine
 10
-6.069735938655709
 20
2.738521983593464
 30
0.0
 11
-6.069735938655709
 21
0.9547576414194836
 31
0.0
  0
LINE
  5
18D
330
15B
100
AcDbEntity
  8
Skizziergeometrie MD
100
AcDbLine
 10
-6.069735938655709
 20
2.738521983593464
 30
0.0
 11
-4.445735938655639
 21
0.9547576414194836
 31
0.0
  0
LINE
  5
18E
330
15B
100
AcDbEntity
  8
Skizziergeometrie MD
100
AcDbLine
 10
-6.069735938655691
 20
4.434757641419482
 30
0.0
 11
-4.445735938655639
 21
2.294240430810718
 31
0.0
  0
LINE
  5
18F
330
15B
100
AcDbEntity
  8
Skizziergeometrie MD
100
AcDbLine
 10
-3.517735938655652
 20
4.434757641419482
 30
0.0
 11
-3.51773593865567
 21
0.9547576414194924
 31
0.0
  0
LINE
  5
190
330
15B
100
AcDbEntity
  8
Skizziergeometrie MD
100
AcDbLine
 10
-4.445735938655639
 20
0.9547576414194836
 30
0.0
 11
-3.51773593865567
 21
0.9547576414194924
 31
0.0
  0
LINE
  5
191
330
15B
100
AcDbEntity
  8
Skizziergeometrie MD
100
AcDbLine
 10
-3.517735938655652
 20
4.434757641419482
 30
0.0
 11
-4.445735938655639
 21
4.434757641419482
 31
0.0
  0
LINE
  5
192
330
15B
100
AcDbEntity
  8
Skizziergeometrie MD
100
AcDbLine
 10
-4.445735938655639
 20
4.434757641419482
 30
0.0
 11
-4.445735938655639
 21
2.294240430810718
 31
0.0
  0
ARC
  5
193
330
15B
100
AcDbEntity
  8
Skizziergeometrie MD
100
AcDbCircle
 10
1.309736434192343
 20
4.159553775190003
 30
0.0
 40
3.220892458778623
100
AcDbArc
 50
248.3560010847984
 51
267.8274023014668
  0
LINE
  5
194
330
15B
100
AcDbEntity
  8
Skizziergeometrie MD
100
AcDbLine
 10
-0.5003842469031295
 20
1.650757641419495
 30
0.0
 11
-0.5003842469031472
 21
0.9547576414195102
 31
0.0
  0
LINE
  5
195
330
15B
100
AcDbEntity
  8
Skizziergeometrie MD
100
AcDbLine
 10
0.1217474728520695
 20
1.165755108153314
 30
0.0
 11
0.121747472852034
 21
1.756842968201572
 31
0.0
  0
ARC
  5
196
330
15B
100
AcDbEntity
  8
Skizziergeometrie MD
100
AcDbCircle
 10
1.389131623543979
 20
5.382925776016502
 30
0.0
 40
3.841189804547038
100
AcDbArc
 50
250.7345188126709
 51
259.3390053129357
  0
LINE
  5
197
330
15B
100
AcDbEntity
  8
Skizziergeometrie MD
100
AcDbLine
 10
-2.008384246903114
 20
2.416357641419502
 30
0.0
 11
-2.008384246903114
 21
1.650757641419478
 31
0.0
  0
LINE
  5
198
330
15B
100
AcDbEntity
  8
Skizziergeometrie MD
100
AcDbLine
 10
-2.820384246903193
 20
4.434757641419491
 30
0.0
 11
-2.820384246903193
 21
0.9547576414194747
 31
0.0
  0
LINE
  5
199
330
15B
100
AcDbEntity
  8
Skizziergeometrie MD
100
AcDbLine
 10
-2.00838424690322
 20
3.738757641419461
 30
0.0
 11
-2.008384246903114
 21
2.97315764141949
 31
0.0
  0
LINE
  5
19A
330
15B
100
AcDbEntity
  8
Skizziergeometrie MD
100
AcDbLine
 10
-2.008384246903114
 20
2.416357641419502
 30
0.0
 11
-0.5003842469031472
 21
2.416357641419493
 31
0.0
  0
LINE
  5
19B
330
15B
100
AcDbEntity
  8
Skizziergeometrie MD
100
AcDbLine
 10
-2.008384246903114
 20
1.650757641419478
 30
0.0
 11
-0.5003842469031295
 21
1.650757641419495
 31
0.0
  0
LINE
  5
19C
330
15B
100
AcDbEntity
  8
Skizziergeometrie MD
100
AcDbLine
 10
-0.5003842469031472
 20
2.973157641419481
 30
0.0
 11
-2.008384246903114
 21
2.97315764141949
 31
0.0
  0
LINE
  5
19D
330
15B
100
AcDbEntity
  8
Skizziergeometrie MD
100
AcDbLine
 10
-0.5003842469031472
 20
2.973157641419481
 30
0.0
 11
-0.5003842469031472
 21
2.416357641419493
 31
0.0
  0
LINE
  5
19E
330
15B
100
AcDbEntity
  8
Skizziergeometrie MD
100
AcDbLine
 10
-0.5003842469031472
 20
3.738757641419478
 30
0.0
 11
-2.00838424690322
 21
3.738757641419461
 31
0.0
  0
LINE
  5
19F
330
15B
100
AcDbEntity
  8
Skizziergeometrie MD
100
AcDbLine
 10
-0.5003842469031472
 20
4.434757641419508
 30
0.0
 11
-0.5003842469031472
 21
3.738757641419478
 31
0.0
  0
LINE
  5
1A0
330
15B
100
AcDbEntity
  8
Skizziergeometrie MD
100
AcDbLine
 10
-0.5003842469031472
 20
4.434757641419508
 30
0.0
 11
-2.820384246903193
 21
4.434757641419491
 31
0.0
  0
ARC
  5
1A1
330
15B
100
AcDbEntity
  8
Skizziergeometrie MD
100
AcDbCircle
 10
0.9886816489375238
 20
3.375319637275335
 30
0.0
 40
0.8831780097770545
100
AcDbArc
 50
179.5885658599057
 51
199.0826692789079
  0
ARC
  5
1A2
330
15B
100
AcDbEntity
  8
Skizziergeometrie MD
100
AcDbCircle
 10
2.447450381482267
 20
3.449922296775334
 30
0.0
 40
2.342918567867358
100
AcDbArc
 50
170.8565973958725
 51
181.669543553105
  0
ARC
  5
1A3
330
15B
100
AcDbEntity
  8
Skizziergeometrie MD
100
AcDbCircle
 10
0.636836145280002
 20
3.689160978033942
 30
0.0
 40
0.5198531530168706
100
AcDbArc
 50
134.0454032738122
 51
165.1691195883359
  0
LINE
  5
1A4
330
15B
100
AcDbEntity
  8
Skizziergeometrie MD
100
AcDbLine
 10
-2.820384246903193
 20
0.9547576414194747
 30
0.0
 11
-0.5003842469031472
 21
0.9547576414195102
 31
0.0
  0
LINE
  5
1A5
330
15B
100
AcDbEntity
  8
Skizziergeometrie MD
100
AcDbLine
 10
3.539480586207313
 20
0.9547576414194836
 30
0.0
 11
4.351480586207321
 21
0.9547576414194747
 31
0.0
  0
ARC
  5
1A6
330
15B
100
AcDbEntity
  8
Skizziergeometrie MD
100
AcDbCircle
 10
1.310926526898272
 20
3.473035832474717
 30
0.0
 40
0.457042597520243
100
AcDbArc
 50
151.3355395480101
 51
191.7239698313071
  0
ARC
  5
1A7
330
15B
100
AcDbEntity
  8
Skizziergeometrie MD
100
AcDbCircle
 10
1.222319253597143
 20
3.518066849428667
 30
0.0
 40
0.3844816368478088
100
AcDbArc
 50
201.018322233423
 51
263.3929685260032
  0
ARC
  5
1A8
330
15B
100
AcDbEntity
  8
Skizziergeometrie MD
100
AcDbCircle
 10
1.253043178103583
 20
3.476283865928477
 30
0.0
 40
0.4054614417244096
100
AcDbArc
 50
98.75786633985814
 51
147.8125122477498
  0
ARC
  5
1A9
330
15B
100
AcDbEntity
  8
Skizziergeometrie MD
100
AcDbCircle
 10
0.7721555217741294
 20
-2.976116670697459
 30
0.0
 40
6.125719647533964
100
AcDbArc
 50
80.36604666376712
 51
86.20046585754947
  0
ARC
  5
1AA
330
15B
100
AcDbEntity
  8
Skizziergeometrie MD
100
AcDbCircle
 10
1.300926421886678
 20
1.404792030621893
 30
0.0
 40
1.731114441187764
100
AcDbArc
 50
52.62898263848888
 51
73.33687314972518
  0
ARC
  5
1AB
330
15B
100
AcDbEntity
  8
Skizziergeometrie MD
100
AcDbCircle
 10
1.599181827341737
 20
0.9781497739148559
 30
0.0
 40
3.489118723013506
100
AcDbArc
 50
88.72473946245063
 51
103.3008820411695
  0
ARC
  5
1AC
330
15B
100
AcDbEntity
  8
Skizziergeometrie MD
100
AcDbCircle
 10
1.416777691150352
 20
0.3571482201301368
 30
0.0
 40
3.527083637447387
100
AcDbArc
 50
77.40400383706507
 51
93.66514609241674
  0
ARC
  5
1AD
330
15B
100
AcDbEntity
  8
Skizziergeometrie MD
100
AcDbCircle
 10
1.554730757859816
 20
1.247827127453415
 30
0.0
 40
3.220892458778597
100
AcDbArc
 50
68.35600108479933
 51
87.82740230149334
  0
LINE
  5
1AE
330
15B
100
AcDbEntity
  8
Skizziergeometrie MD
100
AcDbLine
 10
2.742719719200037
 20
4.241625794490104
 30
0.0
 11
2.742719719200055
 21
3.650537934441837
 31
0.0
  0
LINE
  5
1AF
330
15B
100
AcDbEntity
  8
Skizziergeometrie MD
100
AcDbLine
 10
2.688874901408508
 20
-1.219268496928362
 30
0.0
 11
0.6573565815884752
 21
-1.219268496928371
 31
0.0
  0
LINE
  5
1B0
330
15B
100
AcDbEntity
  8
Skizziergeometrie MD
100
AcDbLine
 10
2.688874901408526
 20
-2.379268496928341
 30
0.0
 11
2.688874901408508
 21
-1.219268496928362
 31
0.0
  0
LINE
  5
1B1
330
15B
100
AcDbEntity
  8
Skizziergeometrie MD
100
AcDbLine
 10
2.688874901408526
 20
-2.379268496928341
 30
0.0
 11
0.8893565815884318
 21
-2.379268496928359
 31
0.0
  0
LINE
  5
1B2
330
15B
100
AcDbEntity
  8
Skizziergeometrie MD
100
AcDbLine
 10
1.817356581588418
 20
-2.959268496928331
 30
0.0
 11
3.500874901408499
 21
-2.95926849692834
 31
0.0
  0
LINE
  5
1B3
330
15B
100
AcDbEntity
  8
Skizziergeometrie MD
100
AcDbLine
 10
0.8893565815884318
 20
-3.307268496928346
 30
0.0
 11
1.817356581588418
 21
-3.307268496928355
 31
0.0
  0
LINE
  5
1B4
330
15B
100
AcDbEntity
  8
Skizziergeometrie MD
100
AcDbLine
 10
1.817356581588418
 20
-3.307268496928355
 30
0.0
 11
1.817356581588418
 21
-2.959268496928331
 31
0.0
  0
LINE
  5
1B5
330
15B
100
AcDbEntity
  8
Skizziergeometrie MD
100
AcDbLine
 10
0.6573565815884752
 20
-4.467268496928378
 30
0.0
 11
3.500874901408517
 21
-4.467268496928369
 31
0.0
  0
LINE
  5
1B6
330
15B
100
AcDbEntity
  8
Skizziergeometrie MD
100
AcDbLine
 10
3.500874901408517
 20
-4.467268496928369
 30
0.0
 11
3.500874901408499
 21
-2.95926849692834
 31
0.0
  0
ARC
  5
1B7
330
15B
100
AcDbEntity
  8
Skizziergeometrie MD
100
AcDbCircle
 10
1.875785543114636
 20
2.03206126536811
 30
0.0
 40
0.8831780097769998
100
AcDbArc
 50
359.5885658598925
 51
19.08266927892371
  0
ARC
  5
1B8
330
15B
100
AcDbEntity
  8
Skizziergeometrie MD
100
AcDbCircle
 10
0.4170168105697148
 20
1.957458605867339
 30
0.0
 40
2.342918567867507
100
AcDbArc
 50
350.8565973958879
 51
1.669543553118977
  0
ARC
  5
1B9
330
15B
100
AcDbEntity
  8
Skizziergeometrie MD
100
AcDbCircle
 10
1.590722106467152
 20
2.425830006947373
 30
0.0
 40
1.471668828572101
100
AcDbArc
 50
288.9241660710607
 51
312.7158447178804
  0
ARC
  5
1BA
330
15B
100
AcDbEntity
  8
Skizziergeometrie MD
100
AcDbCircle
 10
2.227631046772247
 20
1.718219924609538
 30
0.0
 40
0.5198531530168706
100
AcDbArc
 50
314.0454032738024
 51
345.1691195883126
  0
LINE
  5
1BB
330
15B
100
AcDbEntity
  8
Skizziergeometrie MD
100
AcDbLine
 10
5.337480586207279
 20
0.9547576414194836
 30
0.0
 11
4.351480586207303
 21
2.976357229216644
 31
0.0
  0
LINE
  5
1BC
330
15B
100
AcDbEntity
  8
Skizziergeometrie MD
100
AcDbLine
 10
4.699480586207256
 20
4.434757641419482
 30
0.0
 11
3.539480586207313
 21
4.434757641419482
 31
0.0
  0
LINE
  5
1BD
330
15B
100
AcDbEntity
  8
Skizziergeometrie MD
100
AcDbLine
 10
3.539480586207313
 20
4.434757641419482
 30
0.0
 11
3.539480586207313
 21
0.9547576414194836
 31
0.0
  0
ARC
  5
1BE
330
15B
100
AcDbEntity
  8
Skizziergeometrie MD
100
AcDbCircle
 10
1.475335568508091
 20
0.0244551266269433
 30
0.0
 40
3.841189804547012
100
AcDbArc
 50
70.73451881267041
 51
79.33900531294185
  0
ARC
  5
1BF
330
15B
100
AcDbEntity
  8
Skizziergeometrie MD
100
AcDbCircle
 10
1.483150225724392
 20
1.732943934507451
 30
0.0
 40
1.360806176159391
100
AcDbArc
 50
25.59400450827445
 51
50.3394820629451
  0
LINE
  5
1C0
330
15B
100
AcDbEntity
  8
Skizziergeometrie MD
100
AcDbLine
 10
4.351480586207303
 20
2.976357229216644
 30
0.0
 11
4.351480586207321
 21
0.9547576414194747
 31
0.0
  0
LINE
  5
1C1
330
15B
100
AcDbEntity
  8
Skizziergeometrie MD
100
AcDbLine
 10
7.947480586207307
 20
0.9547576414194836
 30
0.0
 11
7.947480586207307
 21
4.434757641419482
 31
0.0
  0
LINE
  5
1C2
330
15B
100
AcDbEntity
  8
Skizziergeometrie MD
100
AcDbLine
 10
9.450578096472836
 20
0.9547576414195013
 30
0.0
 11
9.70390137952207
 21
1.650757641419513
 31
0.0
  0
LINE
  5
1C3
330
15B
100
AcDbEntity
  8
Skizziergeometrie MD
100
AcDbLine
 10
8.522578096472779
 20
0.9547576414194836
 30
0.0
 11
9.789194511719214
 21
4.434757641419473
 31
0.0
  0
LINE
  5
1C4
330
15B
100
AcDbEntity
  8
Skizziergeometrie MD
100
AcDbLine
 10
7.135480586207316
 20
0.9547576414194836
 30
0.0
 11
7.947480586207307
 21
0.9547576414194836
 31
0.0
  0
LINE
  5
1C5
330
15B
100
AcDbEntity
  8
Skizziergeometrie MD
100
AcDbLine
 10
7.135480586207316
 20
0.9547576414194836
 30
0.0
 11
7.135480586207316
 21
2.97635722921667
 31
0.0
  0
LINE
  5
1C6
330
15B
100
AcDbEntity
  8
Skizziergeometrie MD
100
AcDbLine
 10
6.149480586207287
 20
0.9547576414194747
 30
0.0
 11
7.135480586207316
 21
2.97635722921667
 31
0.0
  0
LINE
  5
1C7
330
15B
100
AcDbEntity
  8
Skizziergeometrie MD
100
AcDbLine
 10
7.947480586207307
 20
4.434757641419482
 30
0.0
 11
6.787480586207292
 21
4.434757641419473
 31
0.0
  0
LINE
  5
1C8
330
15B
100
AcDbEntity
  8
Skizziergeometrie MD
100
AcDbLine
 10
5.337480586207279
 20
0.9547576414194836
 30
0.0
 11
6.149480586207287
 21
0.9547576414194747
 31
0.0
  0
LINE
  5
1C9
330
15B
100
AcDbEntity
  8
Skizziergeometrie MD
100
AcDbLine
 10
6.787480586207292
 20
4.434757641419473
 30
0.0
 11
5.74348058620731
 21
2.29424043081071
 31
0.0
  0
LINE
  5
1CA
330
15B
100
AcDbEntity
  8
Skizziergeometrie MD
100
AcDbLine
 10
5.74348058620731
 20
2.29424043081071
 30
0.0
 11
4.699480586207256
 21
4.434757641419482
 31
0.0
  0
LINE
  5
1CB
330
15B
100
AcDbEntity
  8
Skizziergeometrie MD
100
AcDbLine
 10
8.522578096472779
 20
0.9547576414194836
 30
0.0
 11
9.450578096472836
 21
0.9547576414195013
 31
0.0
  0
LINE
  5
1CC
330
15B
100
AcDbEntity
  8
Skizziergeometrie MD
100
AcDbLine
 10
9.87278356822169
 20
2.11475764141948
 30
0.0
 11
10.43667847483362
 21
3.664046164281389
 31
0.0
  0
LINE
  5
1CD
330
15B
100
AcDbEntity
  8
Skizziergeometrie MD
100
AcDbLine
 10
9.87278356822169
 20
2.11475764141948
 30
0.0
 11
11.00057338144558
 21
2.114757641419497
 31
0.0
  0
LINE
  5
1CE
330
15B
100
AcDbEntity
  8
Skizziergeometrie MD
100
AcDbLine
 10
9.789194511719214
 20
4.434757641419473
 30
0.0
 11
11.08416243794797
 21
4.434757641419482
 31
0.0
  0
LINE
  5
1CF
330
15B
100
AcDbEntity
  8
Skizziergeometrie MD
100
AcDbLine
 10
9.70390137952207
 20
1.650757641419513
 30
0.0
 11
11.16945557014513
 21
1.650757641419478
 31
0.0
  0
LINE
  5
1D0
330
15B
100
AcDbEntity
  8
Skizziergeometrie MD
100
AcDbLine
 10
11.00057338144558
 20
2.114757641419497
 30
0.0
 11
10.43667847483362
 21
3.664046164281389
 31
0.0
  0
LINE
  5
1D1
330
15B
100
AcDbEntity
  8
Skizziergeometrie MD
100
AcDbLine
 10
11.42277885319431
 20
0.9547576414195013
 30
0.0
 11
11.16945557014513
 21
1.650757641419478
 31
0.0
  0
LINE
  5
1D2
330
15B
100
AcDbEntity
  8
Skizziergeometrie MD
100
AcDbLine
 10
12.3507788531944
 20
0.9547576414194836
 30
0.0
 11
11.08416243794797
 21
4.434757641419482
 31
0.0
  0
LINE
  5
1D3
330
15B
100
AcDbEntity
  8
Skizziergeometrie MD
100
AcDbLine
 10
11.42277885319431
 20
0.9547576414195013
 30
0.0
 11
12.3507788531944
 21
0.9547576414194836
 31
0.0
  0
LINE
  5
1D4
330
15B
100
AcDbEntity
  8
Skizziergeometrie MD
100
AcDbLine
 10
15.43554071146526
 20
0.9547576414194836
 30
0.0
 11
16.36354071146521
 21
0.9547576414194658
 31
0.0
  0
LINE
  5
1D5
330
15B
100
AcDbEntity
  8
Skizziergeometrie MD
100
AcDbLine
 10
16.36354071146523
 20
4.434757641419473
 30
0.0
 11
15.43554071146521
 21
4.4347576414195
 31
0.0
  0
LINE
  5
1D6
330
15B
100
AcDbEntity
  8
Skizziergeometrie MD
100
AcDbLine
 10
12.88354071146519
 20
4.434757641419491
 30
0.0
 11
12.8835407114652
 21
0.9547576414194836
 31
0.0
  0
LINE
  5
1D7
330
15B
100
AcDbEntity
  8
Skizziergeometrie MD
100
AcDbLine
 10
13.81154071146526
 20
2.738521983593473
 30
0.0
 11
13.81154071146526
 21
0.954757641419448
 31
0.0
  0
LINE
  5
1D8
330
15B
100
AcDbEntity
  8
Skizziergeometrie MD
100
AcDbLine
 10
12.8835407114652
 20
0.9547576414194836
 30
0.0
 11
13.81154071146526
 21
0.954757641419448
 31
0.0
  0
LINE
  5
1D9
330
15B
100
AcDbEntity
  8
Skizziergeometrie MD
100
AcDbLine
 10
13.81154071146526
 20
4.434757641419482
 30
0.0
 11
12.88354071146519
 21
4.434757641419491
 31
0.0
  0
LINE
  5
1DA
330
15B
100
AcDbEntity
  8
Skizziergeometrie MD
100
AcDbLine
 10
13.81154071146526
 20
2.738521983593473
 30
0.0
 11
15.43554071146526
 21
0.9547576414194836
 31
0.0
  0
LINE
  5
1DB
330
15B
100
AcDbEntity
  8
Skizziergeometrie MD
100
AcDbLine
 10
13.81154071146526
 20
4.434757641419482
 30
0.0
 11
15.43554071146524
 21
2.294240430810701
 31
0.0
  0
LINE
  5
1DC
330
15B
100
AcDbEntity
  8
Skizziergeometrie MD
100
AcDbLine
 10
15.43554071146521
 20
4.4347576414195
 30
0.0
 11
15.43554071146524
 21
2.294240430810701
 31
0.0
  0
LINE
  5
1DD
330
15B
100
AcDbEntity
  8
Skizziergeometrie MD
100
AcDbLine
 10
16.36354071146523
 20
4.434757641419473
 30
0.0
 11
16.36354071146521
 21
0.9547576414194658
 31
0.0
  0
LINE
  5
1DE
330
15B
100
AcDbEntity
  8
Skizziergeometrie MD
100
AcDbLine
 10
17.10111226087508
 20
4.4347576414195
 30
0.0
 11
17.1011122608751
 21
0.9547576414194924
 31
0.0
  0
LINE
  5
1DF
330
15B
100
AcDbEntity
  8
Skizziergeometrie MD
100
AcDbLine
 10
18.02911226087512
 20
4.434757641419517
 30
0.0
 11
17.10111226087508
 21
4.4347576414195
 31
0.0
  0
LINE
  5
1E0
330
15B
100
AcDbEntity
  8
Skizziergeometrie MD
100
AcDbLine
 10
17.1011122608751
 20
0.9547576414194924
 30
0.0
 11
18.02911226087514
 21
0.9547576414194658
 31
0.0
  0
LINE
  5
1E1
330
15B
100
AcDbEntity
  8
Skizziergeometrie MD
100
AcDbLine
 10
18.02911226087516
 20
2.738521983593464
 30
0.0
 11
18.02911226087514
 21
0.9547576414194658
 31
0.0
  0
LINE
  5
1E2
330
15B
100
AcDbEntity
  8
Skizziergeometrie MD
100
AcDbLine
 10
18.02911226087516
 20
2.738521983593464
 30
0.0
 11
19.65311226087514
 21
0.9547576414194658
 31
0.0
  0
LINE
  5
1E3
330
15B
100
AcDbEntity
  8
Skizziergeometrie MD
100
AcDbLine
 10
18.02911226087512
 20
4.434757641419517
 30
0.0
 11
19.65311226087512
 21
2.294240430810718
 31
0.0
  0
LINE
  5
1E4
330
15B
100
AcDbEntity
  8
Skizziergeometrie MD
100
AcDbLine
 10
19.65311226087512
 20
4.434757641419491
 30
0.0
 11
19.65311226087512
 21
2.294240430810718
 31
0.0
  0
LINE
  5
1E5
330
15B
100
AcDbEntity
  8
Skizziergeometrie MD
100
AcDbLine
 10
20.58111226087505
 20
4.434757641419491
 30
0.0
 11
20.58111226087511
 21
0.9547576414194747
 31
0.0
  0
LINE
  5
1E6
330
15B
100
AcDbEntity
  8
Skizziergeometrie MD
100
AcDbLine
 10
20.58111226087505
 20
4.434757641419491
 30
0.0
 11
19.65311226087512
 21
4.434757641419491
 31
0.0
  0
LINE
  5
1E7
330
15B
100
AcDbEntity
  8
Skizziergeometrie MD
100
AcDbLine
 10
19.65311226087514
 20
0.9547576414194658
 30
0.0
 11
20.58111226087511
 21
0.9547576414194747
 31
0.0
  0
LINE
  5
1E8
330
15B
100
AcDbEntity
  8
Skizziergeometrie MD
100
AcDbLine
 10
-11.78114689185111
 20
-1.219268496928345
 30
0.0
 11
-15.37714689185112
 21
-1.219268496928354
 31
0.0
  0
LINE
  5
1E9
330
15B
100
AcDbEntity
  8
Skizziergeometrie MD
100
AcDbLine
 10
-11.78114689185111
 20
-1.219268496928345
 30
0.0
 11
-11.78114689185112
 21
-1.915268496928366
 31
0.0
  0
LINE
  5
1EA
330
15B
100
AcDbEntity
  8
Skizziergeometrie MD
100
AcDbLine
 10
-11.78114689185112
 20
-1.915268496928366
 30
0.0
 11
-13.98514689185111
 21
-1.915268496928348
 31
0.0
  0
LINE
  5
1EB
330
15B
100
AcDbEntity
  8
Skizziergeometrie MD
100
AcDbLine
 10
-13.98514689185111
 20
-1.915268496928348
 30
0.0
 11
-13.98514689185111
 21
-2.611268496928333
 31
0.0
  0
LINE
  5
1EC
330
15B
100
AcDbEntity
  8
Skizziergeometrie MD
100
AcDbLine
 10
-12.12914689185107
 20
-2.611268496928342
 30
0.0
 11
-13.98514689185111
 21
-2.611268496928333
 31
0.0
  0
LINE
  5
1ED
330
15B
100
AcDbEntity
  8
Skizziergeometrie MD
100
AcDbLine
 10
-12.12914689185107
 20
-2.611268496928342
 30
0.0
 11
-12.12914689185106
 21
-3.075268496928362
 31
0.0
  0
LINE
  5
1EE
330
15B
100
AcDbEntity
  8
Skizziergeometrie MD
100
AcDbLine
 10
-13.98514689185111
 20
-3.075268496928345
 30
0.0
 11
-12.12914689185106
 21
-3.075268496928362
 31
0.0
  0
LINE
  5
1EF
330
15B
100
AcDbEntity
  8
Skizziergeometrie MD
100
AcDbLine
 10
-13.98514689185111
 20
-3.075268496928345
 30
0.0
 11
-13.98514689185111
 21
-3.77126849692833
 31
0.0
  0
LINE
  5
1F0
330
15B
100
AcDbEntity
  8
Skizziergeometrie MD
100
AcDbLine
 10
-13.98514689185111
 20
-3.77126849692833
 30
0.0
 11
-11.78114689185111
 21
-3.771268496928339
 31
0.0
  0
LINE
  5
1F1
330
15B
100
AcDbEntity
  8
Skizziergeometrie MD
100
AcDbLine
 10
-11.78114689185111
 20
-3.771268496928339
 30
0.0
 11
-11.78114689185112
 21
-4.46726849692836
 31
0.0
  0
LINE
  5
1F2
330
15B
100
AcDbEntity
  8
Skizziergeometrie MD
100
AcDbLine
 10
-15.37714689185111
 20
-4.467268496928378
 30
0.0
 11
-11.78114689185112
 21
-4.46726849692836
 31
0.0
  0
LINE
  5
1F3
330
15B
100
AcDbEntity
  8
Skizziergeometrie MD
100
AcDbLine
 10
-6.449957764664384
 20
-1.219268496928345
 30
0.0
 11
-7.609957764664416
 21
-1.219268496928362
 31
0.0
  0
LINE
  5
1F4
330
15B
100
AcDbEntity
  8
Skizziergeometrie MD
100
AcDbLine
 10
-7.377957764664442
 20
-4.467268496928369
 30
0.0
 11
-6.449957764664366
 21
-4.467268496928369
 31
0.0
  0
LINE
  5
1F5
330
15B
100
AcDbEntity
  8
Skizziergeometrie MD
100
AcDbLine
 10
-8.537957764664385
 20
-2.611268496928325
 30
0.0
 11
-7.609957764664416
 21
-1.219268496928362
 31
0.0
  0
LINE
  5
1F6
330
15B
100
AcDbEntity
  8
Skizziergeometrie MD
100
AcDbLine
 10
-9.465957764664354
 20
-1.219268496928362
 30
0.0
 11
-8.537957764664385
 21
-2.611268496928325
 31
0.0
  0
LINE
  5
1F7
330
15B
100
AcDbEntity
  8
Skizziergeometrie MD
100
AcDbLine
 10
-10.62595776466438
 20
-1.219268496928345
 30
0.0
 11
-10.6259577646644
 21
-4.46726849692836
 31
0.0
  0
LINE
  5
1F8
330
15B
100
AcDbEntity
  8
Skizziergeometrie MD
100
AcDbLine
 10
-10.6259577646644
 20
-4.46726849692836
 30
0.0
 11
-9.697957764664435
 21
-4.46726849692836
 31
0.0
  0
LINE
  5
1F9
330
15B
100
AcDbEntity
  8
Skizziergeometrie MD
100
AcDbLine
 10
-9.465957764664354
 20
-1.219268496928362
 30
0.0
 11
-10.62595776466438
 21
-1.219268496928345
 31
0.0
  0
LINE
  5
1FA
330
15B
100
AcDbEntity
  8
Skizziergeometrie MD
100
AcDbLine
 10
-9.697957764664417
 20
-3.017268496928302
 30
0.0
 11
-9.697957764664435
 21
-4.46726849692836
 31
0.0
  0
LINE
  5
1FB
330
15B
100
AcDbEntity
  8
Skizziergeometrie MD
100
AcDbLine
 10
-9.697957764664417
 20
-3.017268496928302
 30
0.0
 11
-8.537957764664385
 21
-4.46726849692836
 31
0.0
  0
LINE
  5
1FC
330
15B
100
AcDbEntity
  8
Skizziergeometrie MD
100
AcDbLine
 10
-7.377957764664442
 20
-3.0172684969284
 30
0.0
 11
-7.377957764664442
 21
-4.467268496928369
 31
0.0
  0
LINE
  5
1FD
330
15B
100
AcDbEntity
  8
Skizziergeometrie MD
100
AcDbLine
 10
-6.449957764664384
 20
-1.219268496928345
 30
0.0
 11
-6.449957764664366
 21
-4.467268496928369
 31
0.0
  0
LINE
  5
1FE
330
15B
100
AcDbEntity
  8
Skizziergeometrie MD
100
AcDbLine
 10
-5.781055442448335
 20
-4.46726849692836
 30
0.0
 11
-4.389055442448333
 21
-4.46726849692836
 31
0.0
  0
LINE
  5
1FF
330
15B
100
AcDbEntity
  8
Skizziergeometrie MD
100
AcDbLine
 10
-5.781055442448335
 20
-4.46726849692836
 30
0.0
 11
-4.389055442448333
 21
-4.46726849692836
 31
0.0
  0
LINE
  5
200
330
15B
100
AcDbEntity
  8
Skizziergeometrie MD
100
AcDbLine
 10
-5.781055442448335
 20
-4.46726849692836
 30
0.0
 11
-4.389055442448333
 21
-4.46726849692836
 31
0.0
  0
LINE
  5
201
330
15B
100
AcDbEntity
  8
Skizziergeometrie MD
100
AcDbLine
 10
-4.389055442448333
 20
-1.219268496928362
 30
0.0
 11
-5.781055442448335
 21
-4.46726849692836
 31
0.0
  0
LINE
  5
202
330
15B
100
AcDbEntity
  8
Skizziergeometrie MD
100
AcDbLine
 10
-4.389055442448333
 20
-1.219268496928362
 30
0.0
 11
-5.781055442448335
 21
-4.46726849692836
 31
0.0
  0
LINE
  5
203
330
15B
100
AcDbEntity
  8
Skizziergeometrie MD
100
AcDbLine
 10
-5.781055442448335
 20
-4.46726849692836
 30
0.0
 11
-4.389055442448333
 21
-1.219268496928362
 31
0.0
  0
LINE
  5
204
330
15B
100
AcDbEntity
  8
Skizziergeometrie MD
100
AcDbLine
 10
-8.537957764664385
 20
-4.46726849692836
 30
0.0
 11
-7.377957764664442
 21
-3.0172684969284
 31
0.0
  0
ARC
  5
205
330
15B
100
AcDbEntity
  8
Skizziergeometrie MD
100
AcDbCircle
 10
0.8893565815884318
 20
-2.843268496928352
 30
0.0
 40
0.4639999999999872
100
AcDbArc
 50
90.0
 51
270.0
  0
ARC
  5
206
330
15B
100
AcDbEntity
  8
Skizziergeometrie MD
100
AcDbCircle
 10
0.6573565815884752
 20
-2.84326849692837
 30
0.0
 40
1.623999999999999
100
AcDbArc
 50
90.0
 51
270.0
  0
LINE
  5
207
330
15B
100
AcDbEntity
  8
Skizziergeometrie MD
100
AcDbLine
 10
-2.533055442448288
 20
-4.46726849692836
 30
0.0
 11
-1.141055442448299
 21
-4.467268496928351
 31
0.0
  0
LINE
  5
208
330
15B
100
AcDbEntity
  8
Skizziergeometrie MD
100
AcDbLine
 10
-2.533055442448288
 20
-4.46726849692836
 30
0.0
 11
-1.141055442448299
 21
-4.467268496928351
 31
0.0
  0
LINE
  5
209
330
15B
100
AcDbEntity
  8
Skizziergeometrie MD
100
AcDbLine
 10
-2.533055442448288
 20
-4.46726849692836
 30
0.0
 11
-1.141055442448299
 21
-4.467268496928351
 31
0.0
  0
LINE
  5
20A
330
15B
100
AcDbEntity
  8
Skizziergeometrie MD
100
AcDbLine
 10
-1.141055442448299
 20
-4.467268496928351
 30
0.0
 11
-2.533055442448306
 21
-1.219268496928362
 31
0.0
  0
LINE
  5
20B
330
15B
100
AcDbEntity
  8
Skizziergeometrie MD
100
AcDbLine
 10
-1.141055442448299
 20
-4.467268496928351
 30
0.0
 11
-2.533055442448306
 21
-1.219268496928362
 31
0.0
  0
LINE
  5
20C
330
15B
100
AcDbEntity
  8
Skizziergeometrie MD
100
AcDbLine
 10
-2.533055442448306
 20
-1.219268496928362
 30
0.0
 11
-1.141055442448299
 21
-4.467268496928351
 31
0.0
  0
LINE
  5
20D
330
15B
100
AcDbEntity
  8
Skizziergeometrie MD
100
AcDbLine
 10
-4.389055442448333
 20
-4.46726849692836
 30
0.0
 11
-4.182833220226145
 21
-4.003268496928358
 31
0.0
  0
LINE
  5
20E
330
15B
100
AcDbEntity
  8
Skizziergeometrie MD
100
AcDbLine
 10
-2.739277664670565
 20
-4.00326849692834
 30
0.0
 11
-2.533055442448288
 21
-4.46726849692836
 31
0.0
  0
LINE
  5
20F
330
15B
100
AcDbEntity
  8
Skizziergeometrie MD
100
AcDbLine
 10
-2.739277664670565
 20
-4.00326849692834
 30
0.0
 11
-2.533055442448288
 21
-4.46726849692836
 31
0.0
  0
LINE
  5
210
330
15B
100
AcDbEntity
  8
Skizziergeometrie MD
100
AcDbLine
 10
-2.739277664670565
 20
-4.00326849692834
 30
0.0
 11
-2.533055442448288
 21
-4.46726849692836
 31
0.0
  0
LINE
  5
211
330
15B
100
AcDbEntity
  8
Skizziergeometrie MD
100
AcDbLine
 10
-2.533055442448306
 20
-1.219268496928362
 30
0.0
 11
-3.362036082440118
 21
-1.219268496928362
 31
0.0
  0
LINE
  5
212
330
15B
100
AcDbEntity
  8
Skizziergeometrie MD
100
AcDbLine
 10
-3.461055442448364
 20
-2.379268496928377
 30
0.0
 11
-2.976433220226093
 21
-3.469668496928353
 31
0.0
  0
LINE
  5
213
330
15B
100
AcDbEntity
  8
Skizziergeometrie MD
100
AcDbLine
 10
-3.945677664670599
 20
-3.469668496928379
 30
0.0
 11
-3.461055442448364
 21
-2.379268496928377
 31
0.0
  0
LINE
  5
214
330
15B
100
AcDbEntity
  8
Skizziergeometrie MD
100
AcDbLine
 10
-4.389055442448333
 20
-1.219268496928362
 30
0.0
 11
-2.533055442448306
 21
-1.219268496928362
 31
0.0
  0
LINE
  5
215
330
15B
100
AcDbEntity
  8
Skizziergeometrie MD
100
AcDbLine
 10
-3.810046114701153
 20
-1.219268496928362
 30
0.0
 11
-4.389055442448333
 21
-1.219268496928362
 31
0.0
  0
LINE
  5
216
330
15B
100
AcDbEntity
  8
Skizziergeometrie MD
100
AcDbLine
 10
-3.945677664670599
 20
-3.469668496928379
 30
0.0
 11
-2.976433220226093
 21
-3.469668496928353
 31
0.0
  0
LINE
  5
217
330
15B
100
AcDbEntity
  8
Skizziergeometrie MD
100
AcDbLine
 10
-4.182833220226145
 20
-4.003268496928358
 30
0.0
 11
-2.739277664670565
 21
-4.00326849692834
 31
0.0
  0
LINE
  5
218
330
15B
100
AcDbEntity
  8
Skizziergeometrie MD
100
AcDbLine
 10
-4.182833220226145
 20
-4.003268496928358
 30
0.0
 11
-2.739277664670565
 21
-4.00326849692834
 31
0.0
  0
LINE
  5
219
330
15B
100
AcDbEntity
  8
Skizziergeometrie MD
100
AcDbLine
 10
-4.182833220226145
 20
-4.003268496928358
 30
0.0
 11
-2.739277664670565
 21
-4.00326849692834
 31
0.0
  0
LINE
  5
21A
330
15B
100
AcDbEntity
  8
Skizziergeometrie MD
100
AcDbLine
 10
-4.389055442448333
 20
-4.46726849692836
 30
0.0
 11
-4.182833220226145
 21
-4.003268496928358
 31
0.0
  0
LINE
  5
21B
330
15B
100
AcDbEntity
  8
Skizziergeometrie MD
100
AcDbLine
 10
-4.389055442448333
 20
-4.46726849692836
 30
0.0
 11
-4.182833220226145
 21
-4.003268496928358
 31
0.0
  0
LINE
  5
21C
330
15B
100
AcDbEntity
  8
Skizziergeometrie MD
100
AcDbLine
 10
-15.37714689185112
 20
-1.219268496928354
 30
0.0
 11
-15.37714689185111
 21
-4.467268496928378
 31
0.0
  0
ARC
  5
21D
330
15B
100
AcDbEntity
  8
Skizziergeometrie MD
100
AcDbCircle
 10
-17.7971122608751
 20
-2.843268496928343
 30
0.0
 40
1.623999999999999
100
AcDbArc
 50
270.0
 51
90.0
  0
ARC
  5
21E
330
15B
100
AcDbEntity
  8
Skizziergeometrie MD
100
AcDbCircle
 10
-18.26111226087508
 20
-2.843268496928352
 30
0.0
 40
0.4639999999999873
100
AcDbArc
 50
270.0
 51
90.0
  0
LINE
  5
21F
330
15B
100
AcDbEntity
  8
Skizziergeometrie MD
100
AcDbLine
 10
-19.1891122608751
 20
-3.307268496928346
 30
0.0
 11
-18.26111226087514
 21
-3.307268496928346
 31
0.0
  0
LINE
  5
220
330
15B
100
AcDbEntity
  8
Skizziergeometrie MD
100
AcDbLine
 10
-18.26111226087513
 20
-2.379268496928368
 30
0.0
 11
-19.1891122608751
 21
-2.379268496928368
 31
0.0
  0
LINE
  5
221
330
15B
100
AcDbEntity
  8
Skizziergeometrie MD
100
AcDbLine
 10
-19.1891122608751
 20
-2.379268496928368
 30
0.0
 11
-19.1891122608751
 21
-3.307268496928346
 31
0.0
  0
LINE
  5
222
330
15B
100
AcDbEntity
  8
Skizziergeometrie MD
100
AcDbLine
 10
-20.58111226087511
 20
-4.467268496928351
 30
0.0
 11
-17.7971122608751
 21
-4.467268496928342
 31
0.0
  0
LINE
  5
223
330
15B
100
AcDbEntity
  8
Skizziergeometrie MD
100
AcDbLine
 10
-17.79711226087509
 20
-1.219268496928345
 30
0.0
 11
-20.58111226087511
 21
-1.219268496928354
 31
0.0
  0
LINE
  5
224
330
15B
100
AcDbEntity
  8
Skizziergeometrie MD
100
AcDbLine
 10
-20.58111226087511
 20
-1.219268496928354
 30
0.0
 11
-20.58111226087511
 21
-4.467268496928351
 31
0.0
  0
ENDBLK
  5
15D
330
15B
100
AcDbEntity
  8
0
100
AcDbBlockEnd
  0
BLOCK
  5
226
330
225
100
AcDbEntity
  8
0
100
AcDbBlockBegin
  2
Text
 70
     2
 10
0.0
 20
0.0
 30
0.0
  3
Text
  1

  0
ATTDEF
  5
228
330
225
100
AcDbEntity
  8
Symbol MD
100
AcDbText
 10
-2.448051869869232
 20
4.250000029802318
 30
0.0
 40
3.499999940395355
  1
Außenring
  7
Notiztext MD
 11
-2.448051869869232
 21
7.749999970197674
 31
0.0
100
AcDbAttributeDefinition
280
     0
  3
Text_Zeile_1
  2
Text_Zeile_1
 70
     0
 74
     3
280
     0
 71
     4
 72
     0
 11
-2.448051869869232
 21
7.749999970197674
 31
0.0
101
Embedded Object
 10
-2.448051869869232
 20
7.749999970197674
 30
0.0
 40
3.499999940395355
 41
0.0
 46
0.0
 71
     1
 72
     5
  1
Außenring
  7
Notiztext MD
 73
     1
 44
1.0
  0
ATTDEF
  5
229
330
225
100
AcDbEntity
  8
Symbol MD
100
AcDbText
 10
-2.448051869869232
 20
-1.749999970197677
 30
0.0
 40
3.499999940395355
  1

  7
Notiztext MD
 11
-2.448051869869232
 21
1.749999970197677
 31
0.0
100
AcDbAttributeDefinition
280
     0
  3
Text_Zeile_2
  2
Text_Zeile_2
 70
     0
 74
     3
280
     0
 71
     4
 72
     0
 11
-2.448051869869232
 21
1.749999970197677
 31
0.0
101
Embedded Object
 10
-2.448051869869232
 20
1.749999970197677
 30
0.0
 40
3.499999940395355
 41
0.0
 46
0.0
 71
     1
 72
     5
  1

  7
Notiztext MD
 73
     1
 44
1.0
  0
ATTDEF
  5
22A
330
225
100
AcDbEntity
  8
Symbol MD
100
AcDbText
 10
-2.448051869869232
 20
-7.749999970197674
 30
0.0
 40
3.499999940395355
  1

  7
Notiztext MD
 11
-2.448051869869232
 21
-4.250000029802318
 31
0.0
100
AcDbAttributeDefinition
280
     0
  3
Text_Zeile_3
  2
Text_Zeile_3
 70
     0
 74
     3
280
     0
 71
     4
 72
     0
 11
-2.448051869869232
 21
-4.250000029802318
 31
0.0
101
Embedded Object
 10
-2.448051869869232
 20
-4.250000029802318
 30
0.0
 40
3.499999940395355
 41
0.0
 46
0.0
 71
     1
 72
     5
  1

  7
Notiztext MD
 73
     1
 44
1.0
  0
ENDBLK
  5
227
330
225
100
AcDbEntity
  8
0
100
AcDbBlockEnd
  0
BLOCK
  5
22C
330
22B
100
AcDbEntity
  8
0
100
AcDbBlockBegin
  2
Beschriftung
 70
     2
 10
0.0
 20
0.0
 30
0.0
  3
Beschriftung
  1

  0
ATTDEF
  5
22E
330
22B
100
AcDbEntity
  8
Symbol MD
100
AcDbText
 10
-22.79916530847548
 20
5.750000029802322
 30
0.0
 40
3.499999940395355
  1
ESR 350 X3
  7
Notiztext MD
 11
-22.79916530847548
 21
9.249999970197677
 31
0.0
100
AcDbAttributeDefinition
280
     0
  3
Type
  2
Type
 70
     0
 74
     3
280
     0
 71
     4
 72
     0
 11
-22.79916530847548
 21
9.249999970197677
 31
0.0
101
Embedded Object
 10
-22.79916530847548
 20
9.249999970197677
 30
0.0
 40
3.499999940395355
 41
0.0
 46
0.0
 71
     1
 72
     5
  1
ESR 350 X3
  7
Notiztext MD
 73
     1
 44
1.0
  0
ATTDEF
  5
22F
330
22B
100
AcDbEntity
  8
Symbol MD
100
AcDbText
 10
-22.79916530847548
 20
0.7500000298023224
 30
0.0
 40
3.499999940395355
  1
60051755
  7
Notiztext MD
 11
-22.79916530847548
 21
4.249999970197677
 31
0.0
100
AcDbAttributeDefinition
280
     0
  3
Lagernr.
  2
Lagernr.
 70
     0
 74
     3
280
     0
 71
     4
 72
     0
 11
-22.79916530847548
 21
4.249999970197677
 31
0.0
101
Embedded Object
 10
-22.79916530847548
 20
4.249999970197677
 30
0.0
 40
3.499999940395355
 41
0.0
 46
0.0
 71
     1
 72
     5
  1
60051755
  7
Notiztext MD
 73
     1
 44
1.0
  0
ATTDEF
  5
230
330
22B
100
AcDbEntity
  8
Symbol MD
100
AcDbText
 10
-2.049164711963381
 20
-4.249999970197677
 30
0.0
 40
3.499999940395355
  1
35000
  7
Notiztext MD
 72
     2
 11
10.20083469152451
 21
-0.7500000298023224
 31
0.0
100
AcDbAttributeDefinition
280
     0
  3
Drehzahl
  2
Drehzahl
 70
     0
 74
     3
280
     0
 71
     4
 72
     0
 11
10.20083469152451
 21
-0.7500000298023224
 31
0.0
101
Embedded Object
 10
10.20083469152451
 20
-0.7500000298023224
 30
0.0
 40
3.499999940395355
 41
0.0
 46
0.0
 71
     3
 72
     5
  1
35000
  7
Notiztext MD
 73
     1
 44
1.0
  0
MTEXT
  5
231
330
22B
100
AcDbEntity
  8
Symbol MD
100
AcDbMText
 10
-22.79916530847548
 20
-5.750000029802322
 30
0.0
 40
3.499999940395355
 41
0.0
 46
0.0
 71
     1
 72
     1
  1
Serien-Nr.
  7
Notiztext MD
 73
     1
 44
1.0
  0
MTEXT
  5
232
330
22B
100
AcDbEntity
  8
Symbol MD
100
AcDbMText
 10
-22.79916530847548
 20
-0.7500000298023224
 30
0.0
 40
3.499999940395355
 41
0.0
 46
0.0
 71
     1
 72
     1
  1
6 bar
  7
Notiztext MD
 73
     1
 44
1.0
  0
MTEXT
  5
233
330
22B
100
AcDbEntity
  8
Symbol MD
100
AcDbMText
 10
12.20083469152451
 20
-0.7500000298023224
 30
0.0
 40
3.499999940395355
 41
0.0
 46
0.0
 71
     1
 72
     1
  1
min
  7
Notiztext MD
 73
     1
 44
1.0
  0
MTEXT
  5
234
330
22B
100
AcDbEntity
  8
Symbol MD
100
AcDbMText
 10
19.2008346915245
 20
0.2499999701976741
 30
0.0
 40
3.000000119209289
 41
0.0
 46
0.0
 71
     1
 72
     1
  1
\fISOCPEUR|b0|i0;\H3.0000;-1
  7
Notiztext MD
 73
     1
 44
1.0
  0
ENDBLK
  5
22D
330
22B
100
AcDbEntity
  8
0
100
AcDbBlockEnd
  0
BLOCK
  5
236
330
235
100
AcDbEntity
  8
0
100
AcDbBlockBegin
  2
Fett ETL
 70
     2
 10
0.0
 20
0.0
 30
0.0
  3
Fett ETL
  1

  0
LINE
  5
238
330
235
100
AcDbEntity
  8
Skizziergeometrie MD
100
AcDbLine
 10
-19.0
 20
6.000000000000009
 30
0.0
 11
19.00000000000001
 21
6.000000000000005
 31
0.0
  0
LINE
  5
239
330
235
100
AcDbEntity
  8
Skizziergeometrie MD
100
AcDbLine
 10
20.00000000000001
 20
5.000000000000004
 30
0.0
 11
19.99999999999999
 21
-5.0
 31
0.0
  0
LINE
  5
23A
330
235
100
AcDbEntity
  8
Skizziergeometrie MD
100
AcDbLine
 10
19.0
 20
-6.0
 30
0.0
 11
-19.0
 21
-6.000000000000005
 31
0.0
  0
LINE
  5
23B
330
235
100
AcDbEntity
  8
Skizziergeometrie MD
100
AcDbLine
 10
-20.0
 20
-5.000000000000004
 30
0.0
 11
-20.0
 21
5.000000000000004
 31
0.0
  0
ARC
  5
23C
330
235
100
AcDbEntity
  8
Skizziergeometrie MD
100
AcDbCircle
 10
-19.0
 20
5.000000000000004
 30
0.0
 40
1.0
100
AcDbArc
 50
90.0
 51
180.0
  0
ARC
  5
23D
330
235
100
AcDbEntity
  8
Skizziergeometrie MD
100
AcDbCircle
 10
-19.0
 20
-5.000000000000004
 30
0.0
 40
1.0
100
AcDbArc
 50
180.0
 51
270.0
  0
ARC
  5
23E
330
235
100
AcDbEntity
  8
Skizziergeometrie MD
100
AcDbCircle
 10
19.0
 20
-5.0
 30
0.0
 40
1.0
100
AcDbArc
 50
270.0
 51
0.0
  0
ARC
  5
23F
330
235
100
AcDbEntity
  8
Skizziergeometrie MD
100
AcDbCircle
 10
19.0
 20
5.000000000000004
 30
0.0
 40
1.0
100
AcDbArc
 50
0.0
 51
90.0
  0
ATTDEF
  5
240
330
235
100
AcDbEntity
  8
Symbol MD
100
AcDbText
 10
-18.0
 20
0.999999880790714
 30
0.0
 40
3.000000119209289
  1
Klüber
  7
Textstil17
 11
-18.0
 21
4.000000000000003
 31
0.0
100
AcDbAttributeDefinition
280
     0
  3
Schmierstoff_Zeile_1
  2
Schmierstoff_Zeile_1
 70
     0
 74
     3
280
     0
 71
     4
 72
     0
 11
-18.0
 21
4.000000000000003
 31
0.0
101
Embedded Object
 10
-18.0
 20
4.000000000000003
 30
0.0
 40
3.000000119209289
 41
0.0
 46
0.0
 71
     1
 72
     5
  1
Klüber
  7
Textstil17
 73
     1
 44
1.0
  0
ATTDEF
  5
241
330
235
100
AcDbEntity
  8
Symbol MD
100
AcDbText
 10
-18.0
 20
-4.000000119209285
 30
0.0
 40
3.000000119209289
  1
ALTEMP Q NB 50
  7
Textstil17
 11
-18.0
 21
-0.9999999999999964
 31
0.0
100
AcDbAttributeDefinition
280
     0
  3
Schmierstoff_Zeile_2
  2
Schmierstoff_Zeile_2
 70
     0
 74
     3
280
     0
 71
     4
 72
     0
 11
-18.0
 21
-0.9999999999999964
 31
0.0
101
Embedded Object
 10
-18.0
 20
-0.9999999999999964
 30
0.0
 40
3.000000119209289
 41
0.0
 46
0.0
 71
     1
 72
     5
  1
ALTEMP Q NB 50
  7
Textstil17
 73
     1
 44
1.0
  0
ENDBLK
  5
237
330
235
100
AcDbEntity
  8
0
100
AcDbBlockEnd
  0
BLOCK
  5
243
330
242
100
AcDbEntity
  8
0
100
AcDbBlockBegin
  2
Kopie von Änderungszustand
 70
     2
 10
0.0
 20
0.0
 30
0.0
  3
Kopie von Änderungszustand
  1

  0
CIRCLE
  5
245
330
242
100
AcDbEntity
  8
Skizziergeometrie MD
100
AcDbCircle
 10
0.0
 20
0.0000000000000178
 30
0.0
 40
3.0
  0
ATTDEF
  5
246
330
242
100
AcDbEntity
  8
Symbol MD
100
AcDbText
 10
-1.200000009685753
 20
-1.500000059604644
 30
0.0
 40
3.000000119209289
  1
4
  7
Textstil17
 72
     1
 11
0.0
 21
0.0
 31
0.0
100
AcDbAttributeDefinition
280
     0
  3
Zust.
  2
Zust.
 70
     0
 74
     2
280
     0
 71
     4
 72
     0
 11
0.0
 21
0.0
 31
0.0
101
Embedded Object
 10
0.0
 20
0.0
 30
0.0
 40
3.000000119209289
 41
0.0
 46
0.0
 71
     5
 72
     5
  1
4
  7
Textstil17
 73
     1
 44
1.0
  0
ENDBLK
  5
244
330
242
100
AcDbEntity
  8
0
100
AcDbBlockEnd
  0
BLOCK
  5
248
330
247
100
AcDbEntity
  8
0
100
AcDbBlockBegin
  2
UHU
 70
     0
 10
0.0
 20
0.0
 30
0.0
  3
UHU
  1

  0
LINE
  5
24A
330
247
100
AcDbEntity
  8
Skizziergeometrie MD
100
AcDbLine
 10
-23.5
 20
10.99999999999999
 30
0.0
 11
23.50000000000001
 21
11.00000000000001
 31
0.0
  0
LINE
  5
24B
330
247
100
AcDbEntity
  8
Skizziergeometrie MD
100
AcDbLine
 10
25.50000000000001
 20
9.000000000000021
 30
0.0
 11
25.50000000000001
 21
-9.000000000000003
 31
0.0
  0
LINE
  5
24C
330
247
100
AcDbEntity
  8
Skizziergeometrie MD
100
AcDbLine
 10
23.50000000000001
 20
-10.99999999999999
 30
0.0
 11
-23.5
 21
-10.99999999999999
 31
0.0
  0
LINE
  5
24D
330
247
100
AcDbEntity
  8
Skizziergeometrie MD
100
AcDbLine
 10
-25.5
 20
-9.000000000000003
 30
0.0
 11
-25.49999999999999
 21
9.000000000000021
 31
0.0
  0
ARC
  5
24E
330
247
100
AcDbEntity
  8
Skizziergeometrie MD
100
AcDbCircle
 10
-23.5
 20
9.000000000000021
 30
0.0
 40
1.999999999999984
100
AcDbArc
 50
90.0
 51
180.0
  0
ARC
  5
24F
330
247
100
AcDbEntity
  8
Skizziergeometrie MD
100
AcDbCircle
 10
-23.5
 20
-9.000000000000003
 30
0.0
 40
1.999999999999992
100
AcDbArc
 50
180.0
 51
270.0
  0
ARC
  5
250
330
247
100
AcDbEntity
  8
Skizziergeometrie MD
100
AcDbCircle
 10
23.50000000000001
 20
-9.000000000000003
 30
0.0
 40
1.999999999999992
100
AcDbArc
 50
270.0
 51
0.0
  0
ARC
  5
251
330
247
100
AcDbEntity
  8
Skizziergeometrie MD
100
AcDbCircle
 10
23.50000000000001
 20
9.000000000000021
 30
0.0
 40
1.999999999999992
100
AcDbArc
 50
0.0
 51
90.0
  0
MTEXT
  5
252
330
247
100
AcDbEntity
  8
Symbol MD
100
AcDbMText
 10
-22.5
 20
8.000000000000007
 30
0.0
 40
6.000000238418579
 41
0.0
 46
0.0
 71
     1
 72
     1
  1
\fISOCPEUR|b0|i0;\H6.0000;UHU plus\Pendfest 300
  7
Notiztext MD
 73
     2
 44
1.068348169326782
  0
ENDBLK
  5
249
330
247
100
AcDbEntity
  8
0
100
AcDbBlockEnd
  0
ENDSEC
  0
SECTION
  2
ENTITIES
  0
LINE
  5
253
330
70
100
AcDbEntity
  8
Sichtbar MD
100
AcDbLine
 10
282.6462097978332
 20
134.5242558025304
 30
0.0
 11
282.6462097978332
 21
204.5242558025305
 31
0.0
  0
LINE
  5
254
330
70
100
AcDbEntity
  8
Sichtbar MD
100
AcDbLine
 10
283.1462097978333
 20
204.0242558025305
 30
0.0
 11
283.1462097978333
 21
135.0242558025303
 31
0.0
  0
LINE
  5
255
330
70
100
AcDbEntity
  8
Sichtbar MD
100
AcDbLine
 10
266.1462097978333
 20
204.5242558025305
 30
0.0
 11
266.1462097978333
 21
134.5242558025304
 31
0.0
  0
LINE
  5
256
330
70
100
AcDbEntity
  8
Sichtbar MD
100
AcDbLine
 10
265.6462097978333
 20
135.0242558025303
 30
0.0
 11
265.6462097978333
 21
202.5122916118759
 31
0.0
  0
LINE
  5
257
330
70
100
AcDbEntity
  8
Sichtbar MD
100
AcDbLine
 10
283.1462097978333
 20
135.0242558025303
 30
0.0
 11
282.6462097978332
 21
134.5242558025304
 31
0.0
  0
LINE
  5
258
330
70
100
AcDbEntity
  8
Sichtbar MD
100
AcDbLine
 10
283.1462097978333
 20
204.0242558025305
 30
0.0
 11
282.6462097978332
 21
204.5242558025305
 31
0.0
  0
LINE
  5
259
330
70
100
AcDbEntity
  8
Sichtbar MD
100
AcDbLine
 10
265.6462097978333
 20
204.0242558025304
 30
0.0
 11
266.1462097978333
 21
204.5242558025305
 31
0.0
  0
LINE
  5
25A
330
70
100
AcDbEntity
  8
Sichtbar MD
100
AcDbLine
 10
265.6462097978333
 20
135.0242558025303
 30
0.0
 11
266.1462097978333
 21
134.5242558025304
 31
0.0
  0
LINE
  5
25B
330
70
100
AcDbEntity
  8
Sichtbar MD
100
AcDbLine
 10
266.1462097978333
 20
204.5242558025305
 30
0.0
 11
282.6462097978332
 21
204.5242558025305
 31
0.0
  0
LINE
  5
25C
330
70
100
AcDbEntity
  8
Sichtbar MD
100
AcDbLine
 10
266.1462097978333
 20
134.5242558025304
 30
0.0
 11
282.6462097978332
 21
134.5242558025304
 31
0.0
  0
LINE
  5
25D
330
70
100
AcDbEntity
  8
Sichtbar MD
100
AcDbLine
 10
283.1462097978333
 20
201.0242558025305
 30
0.0
 11
294.0462097978334
 21
201.0242558025305
 31
0.0
  0
LINE
  5
25E
330
70
100
AcDbEntity
  8
Sichtbar MD
100
AcDbLine
 10
283.1462097978333
 20
138.0242558025303
 30
0.0
 11
294.0462097978334
 21
138.0242558025304
 31
0.0
  0
LINE
  5
25F
330
70
100
AcDbEntity
  8
Sichtbar MD
100
AcDbLine
 10
336.1462097978334
 20
158.5242558025304
 30
0.0
 11
347.6462097978334
 21
158.5242558025304
 31
0.0
  0
SPLINE
  5
260
330
70
100
AcDbEntity
  8
Sichtbar MD
100
AcDbSpline
210
0.0
220
0.0
230
1.0
 70
    28
 71
     2
 72
     6
 73
     3
 74
     0
 42
0.000000001
 43
0.0000000001
 40
0.00032425187757
 40
0.00032425187757
 40
0.00032425187757
 40
0.2353001034280148
 40
0.2353001034280148
 40
0.2353001034280148
 10
347.6462097978334
 20
158.5242558025304
 30
0.0
 41
1.000003505644522
 10
348.7619616134697
 20
158.5242558025304
 30
0.0
 41
1.001271971846118
 10
349.6462097978333
 20
158.5242558025304
 30
0.0
 41
1.0
  0
LINE
  5
261
330
70
100
AcDbEntity
  8
Sichtbar MD
100
AcDbLine
 10
336.1462097978334
 20
158.5242558025304
 30
0.0
 11
336.1462097978334
 21
157.0242558025304
 31
0.0
  0
LINE
  5
262
330
70
100
AcDbEntity
  8
Sichtbar MD
100
AcDbLine
 10
336.1462097978334
 20
182.0242558025304
 30
0.0
 11
336.1462097978334
 21
180.5242558025304
 31
0.0
  0
LINE
  5
263
330
70
100
AcDbEntity
  8
Sichtbar MD
100
AcDbLine
 10
347.6462097978334
 20
180.5242558025304
 30
0.0
 11
336.1462097978334
 21
180.5242558025304
 31
0.0
  0
SPLINE
  5
264
330
70
100
AcDbEntity
  8
Sichtbar MD
100
AcDbSpline
210
0.0
220
0.0
230
1.0
 70
    28
 71
     2
 72
     6
 73
     3
 74
     0
 42
0.000000001
 43
0.0000000001
 40
0.0
 40
0.0
 40
0.0
 40
0.2349758515504449
 40
0.2349758515504449
 40
0.2349758515504449
 10
349.6462097978333
 20
180.5242558025304
 30
0.0
 41
1.0
 10
348.7619616134697
 20
180.5242558025304
 30
0.0
 41
1.001271971846118
 10
347.6462097978334
 20
180.5242558025304
 30
0.0
 41
1.000003505644522
  0
LINE
  5
265
330
70
100
AcDbEntity
  8
Sichtbar MD
100
AcDbLine
 10
349.6462097978333
 20
180.5242558025304
 30
0.0
 11
349.6462097978333
 21
158.5242558025304
 31
0.0
  0
LINE
  5
266
330
70
100
AcDbEntity
  8
Sichtbar MD
100
AcDbLine
 10
347.6462097978334
 20
158.5242558025304
 30
0.0
 11
347.6462097978334
 21
165.4545506535055
 31
0.0
  0
LINE
  5
267
330
70
100
AcDbEntity
  8
Sichtbar MD
100
AcDbLine
 10
347.6462097978334
 20
173.5939609515554
 30
0.0
 11
347.6462097978334
 21
180.5242558025304
 31
0.0
  0
SPLINE
  5
268
330
70
100
AcDbEntity
  8
Sichtbar MD
100
AcDbSpline
210
0.0
220
0.0
230
1.0
 70
     8
 71
     3
 72
    16
 73
    12
 74
     0
 42
0.000000001
 43
0.0000000001
 40
0.7082366398752762
 40
0.7082366398752762
 40
0.7082366398752762
 40
0.7082366398752762
 40
0.7137653146412694
 40
0.7137653146412694
 40
0.7486901726079689
 40
0.7486901726079689
 40
0.7836150305746685
 40
0.7836150305746685
 40
0.8386559315750552
 40
0.8386559315750552
 40
0.8444420021337638
 40
0.8444420021337638
 40
0.8444420021337638
 40
0.8444420021337638
 10
364.6383869975451
 20
175.7185555562186
 30
0.0
 10
364.619608912755
 20
175.7193585804842
 30
0.0
 10
364.6009767187077
 20
175.7197906402816
 30
0.0
 10
364.4661316095987
 20
175.7197906402816
 30
0.0
 10
364.3416036033005
 20
175.7025492981606
 30
0.0
 10
364.1076485676958
 20
175.6335900255629
 30
0.0
 10
363.9981078595426
 20
175.5820384689361
 30
0.0
 10
363.7613406559029
 20
175.4348105802966
 30
0.0
 10
363.6310600881079
 20
175.3137310037079
 30
0.0
 10
363.5130579643162
 20
175.1618458470888
 30
0.0
 10
363.5020872019674
 20
175.1472186584911
 30
0.0
 10
363.4913504267211
 20
175.1324543723115
 30
0.0
  0
SPLINE
  5
269
330
70
100
AcDbEntity
  8
Sichtbar MD
100
AcDbSpline
210
0.0
220
0.0
230
1.0
 70
     8
 71
     3
 72
    16
 73
    12
 74
     0
 42
0.000000001
 43
0.0000000001
 40
2.010619256431313
 40
2.010619256431313
 40
2.010619256431313
 40
2.010619256431313
 40
2.016405326990022
 40
2.016405326990022
 40
2.071446227990409
 40
2.071446227990409
 40
2.106371085957108
 40
2.106371085957108
 40
2.141295943923808
 40
2.141295943923808
 40
2.146824618689801
 40
2.146824618689801
 40
2.146824618689801
 40
2.146824618689801
 10
363.4913504267211
 20
163.9160572327492
 30
0.0
 10
363.5020872019674
 20
163.9012929465696
 30
0.0
 10
363.5130579643162
 20
163.886665757972
 30
0.0
 10
363.6310600881079
 20
163.7347806013529
 30
0.0
 10
363.7613406559029
 20
163.6137010247642
 30
0.0
 10
363.9981078595426
 20
163.4664731361247
 30
0.0
 10
364.1076485676958
 20
163.414921579498
 30
0.0
 10
364.3416036033005
 20
163.3459623069003
 30
0.0
 10
364.4661316095987
 20
163.3287209647792
 30
0.0
 10
364.6009767187077
 20
163.3287209647792
 30
0.0
 10
364.619608912755
 20
163.3291530245766
 30
0.0
 10
364.6383869975451
 20
163.3299560488423
 30
0.0
  0
ELLIPSE
  5
26A
330
70
100
AcDbEntity
  8
Sichtbar MD
100
AcDbEllipse
 10
372.3698968980802
 20
169.5242558025304
 30
0.0
 11
-10.72368710024683
 21
-0.000000000000001
 31
0.0
210
0.0
220
0.0
230
1.0
 40
0.9325150861376648
 41
5.687809599143095
 42
6.878561015216076
  0
ELLIPSE
  5
26B
330
70
100
AcDbEntity
  8
Sichtbar MD
100
AcDbEllipse
 10
139.8289328779269
 20
169.5242558025304
 30
0.0
 11
286.362532829155
 21
0.0000000000000266
 31
0.0
210
0.0
220
0.0
230
1.0
 40
0.034920769491748
 41
5.615168910165581
 42
5.836916586550731
  0
SPLINE
  5
26C
330
70
100
AcDbEntity
  8
Sichtbar MD
100
AcDbSpline
210
0.0
220
0.0
230
1.0
 70
    12
 71
     2
 72
     6
 73
     3
 74
     0
 42
0.000000001
 43
0.0000000001
 40
0.0
 40
0.0
 40
0.0
 40
0.883735125161391
 40
0.883735125161391
 40
0.883735125161391
 10
398.1462097978334
 20
173.8402827457409
 30
0.0
 41
1.0
 10
399.9521307680401
 20
169.5242558025304
 30
0.0
 41
1.100872721663712
 10
398.1462097978334
 20
165.2082288593199
 30
0.0
 41
1.0
  0
ELLIPSE
  5
26D
330
70
100
AcDbEntity
  8
Sichtbar MD
100
AcDbEllipse
 10
139.8289328779269
 20
169.5242558025304
 30
0.0
 11
286.362532829155
 21
0.0000000000000266
 31
0.0
210
0.0
220
0.0
230
1.0
 40
0.034920769491748
 41
0.4462687206288561
 42
0.6680163970140108
  0
SPLINE
  5
26E
330
70
100
AcDbEntity
  8
Sichtbar MD
100
AcDbSpline
210
0.0
220
0.0
230
1.0
 70
     8
 71
     3
 72
    21
 73
    17
 74
     0
 42
0.000000001
 43
0.0000000001
 40
-0.7032393619267515
 40
-0.7032393619267515
 40
-0.7032393619267515
 40
-0.7032393619267515
 40
-0.563629844878391
 40
-0.563629844878391
 40
-0.2818149224391959
 40
-0.2818149224391959
 40
0.0
 40
0.0
 40
0.0
 40
0.2818149224391954
 40
0.2818149224391954
 40
0.5636298448783908
 40
0.5636298448783908
 40
0.8439033448897754
 40
0.8439033448897754
 40
1.12417684490116
 40
1.12417684490116
 40
1.12417684490116
 40
1.12417684490116
 10
347.6462097978334
 20
165.4545506535055
 30
0.0
 10
347.3827949306322
 20
165.06619593361
 30
0.0
 10
347.086325402381
 20
164.711323079873
 30
0.0
 10
346.1397201850402
 20
163.7647178625323
 30
0.0
 10
345.340343369382
 20
163.2121252740528
 30
0.0
 10
343.5647397213141
 20
162.4667188522782
 30
0.0
 10
342.5855928726307
 20
162.2742558025304
 30
0.0
 10
341.6462097978334
 20
162.2742558025304
 30
0.0
 10
340.7068267230361
 20
162.2742558025304
 30
0.0
 10
339.7276798743526
 20
162.4667188522782
 30
0.0
 10
337.9520762262847
 20
163.2121252740528
 30
0.0
 10
337.1526994106265
 20
163.7647178625323
 30
0.0
 10
335.8901342068961
 20
165.0272830662627
 30
0.0
 10
335.3351003366082
 20
165.8276635626485
 30
0.0
 10
334.5875857118684
 20
167.6083419286388
 30
0.0
 10
334.3962097978334
 20
168.5900108024924
 30
0.0
 10
334.3962097978334
 20
169.5242558025304
 30
0.0
  0
SPLINE
  5
26F
330
70
100
AcDbEntity
  8
Sichtbar MD
100
AcDbSpline
210
0.0
220
0.0
230
1.0
 70
     8
 71
     3
 72
    20
 73
    16
 74
     0
 42
0.000000001
 43
0.0000000001
 40
1.12417684490116
 40
1.12417684490116
 40
1.12417684490116
 40
1.12417684490116
 40
1.404450344912544
 40
1.404450344912544
 40
1.684723844923929
 40
1.684723844923929
 40
1.966538767363124
 40
1.966538767363124
 40
2.248353689802319
 40
2.248353689802319
 40
2.530168612241515
 40
2.530168612241515
 40
2.81198353468071
 40
2.81198353468071
 40
2.951593052481923
 40
2.951593052481923
 40
2.951593052481923
 40
2.951593052481923
 10
334.3962097978334
 20
169.5242558025304
 30
0.0
 10
334.3962097978334
 20
170.4585008025684
 30
0.0
 10
334.5875857118684
 20
171.440169676422
 30
0.0
 10
335.3351003366082
 20
173.2208480424123
 30
0.0
 10
335.8901342068961
 20
174.0212285387982
 30
0.0
 10
337.1526994106265
 20
175.2837937425285
 30
0.0
 10
337.9520762262847
 20
175.836386331008
 30
0.0
 10
339.7276798743526
 20
176.5817927527826
 30
0.0
 10
340.7068267230361
 20
176.7742558025304
 30
0.0
 10
342.5855928726307
 20
176.7742558025304
 30
0.0
 10
343.5647397213141
 20
176.5817927527826
 30
0.0
 10
345.340343369382
 20
175.836386331008
 30
0.0
 10
346.1397201850402
 20
175.2837937425285
 30
0.0
 10
347.0863254040721
 20
174.3371885234967
 30
0.0
 10
347.3827949306169
 20
173.9823156714734
 30
0.0
 10
347.6462097978334
 20
173.5939609515553
 30
0.0
  0
SPLINE
  5
270
330
70
100
AcDbEntity
  8
Sichtbar MD
100
AcDbSpline
210
0.0
220
0.0
230
1.0
 70
     8
 71
     3
 72
    14
 73
    10
 74
     0
 42
0.000000001
 43
0.0000000001
 40
3.135685909096615
 40
3.135685909096615
 40
3.135685909096615
 40
3.135685909096615
 40
3.296338349729492
 40
3.296338349729492
 40
3.548777889413634
 40
3.548777889413634
 40
3.801217429097775
 40
3.801217429097775
 40
3.961869869730652
 40
3.961869869730652
 40
3.961869869730652
 40
3.961869869730652
 10
347.6462097978334
 20
173.5939609515553
 30
0.0
 10
347.9569753195237
 20
173.135796769664
 30
0.0
 10
348.2221711736928
 20
172.6293839313208
 30
0.0
 10
348.740711624818
 20
171.2640981041031
 30
0.0
 10
348.8962097978334
 20
170.3657209348109
 30
0.0
 10
348.8962097978334
 20
168.68279067025
 30
0.0
 10
348.740711624818
 20
167.7844135009577
 30
0.0
 10
348.2221711736928
 20
166.41912767374
 30
0.0
 10
347.9569753195237
 20
165.9127148353969
 30
0.0
 10
347.6462097978334
 20
165.4545506535055
 30
0.0
  0
LINE
  5
271
330
70
100
AcDbEntity
  8
Sichtbar MD
100
AcDbLine
 10
398.1462097978334
 20
159.5242558025304
 30
0.0
 11
398.1462097978334
 21
165.2082288593199
 31
0.0
  0
LINE
  5
272
330
70
100
AcDbEntity
  8
Sichtbar MD
100
AcDbLine
 10
398.1462097978334
 20
173.8402827457409
 30
0.0
 11
398.1462097978334
 21
179.5242558025304
 31
0.0
  0
LINE
  5
273
330
70
100
AcDbEntity
  8
Sichtbar MD
100
AcDbLine
 10
399.6462097978333
 20
178.0242558025304
 30
0.0
 11
399.6462097978333
 21
161.0242558025303
 31
0.0
  0
LINE
  5
274
330
70
100
AcDbEntity
  8
Sichtbar MD
100
AcDbLine
 10
399.6462097978333
 20
161.0242558025303
 30
0.0
 11
398.1462097978334
 21
159.5242558025304
 31
0.0
  0
LINE
  5
275
330
70
100
AcDbEntity
  8
Sichtbar MD
100
AcDbLine
 10
399.6462097978333
 20
178.0242558025304
 30
0.0
 11
398.1462097978334
 21
179.5242558025305
 31
0.0
  0
ARC
  5
276
330
70
100
AcDbEntity
  8
Sichtbar MD
100
AcDbCircle
 10
333.0462097978334
 20
157.1242558025303
 30
0.0
 40
0.1000000000000003
100
AcDbArc
 50
180.0
 51
270.0
  0
ARC
  5
277
330
70
100
AcDbEntity
  8
Sichtbar MD
100
AcDbCircle
 10
333.0462097978334
 20
181.9242558025304
 30
0.0
 40
0.1000000000000003
100
AcDbArc
 50
90.0
 51
180.0
  0
LINE
  5
278
330
70
100
AcDbEntity
  8
Sichtbar MD
100
AcDbLine
 10
333.0462097978334
 20
182.0242558025304
 30
0.0
 11
336.1462097978334
 21
182.0242558025304
 31
0.0
  0
LINE
  5
279
330
70
100
AcDbEntity
  8
Sichtbar MD
100
AcDbLine
 10
333.0462097978334
 20
157.0242558025304
 30
0.0
 11
336.1462097978334
 21
157.0242558025304
 31
0.0
  0
LINE
  5
27A
330
70
100
AcDbEntity
  8
Sichtbar MD
100
AcDbLine
 10
349.6462097978333
 20
179.5242558025304
 30
0.0
 11
398.1462097978334
 21
179.5242558025304
 31
0.0
  0
LINE
  5
27B
330
70
100
AcDbEntity
  8
Sichtbar MD
100
AcDbLine
 10
349.6462097978333
 20
159.5242558025304
 30
0.0
 11
398.1462097978334
 21
159.5242558025304
 31
0.0
  0
SPLINE
  5
27C
330
70
100
AcDbEntity
  8
Sichtbar MD
100
AcDbSpline
210
0.0
220
0.0
230
1.0
 70
    12
 71
     2
 72
     6
 73
     3
 74
     0
 42
0.000000001
 43
0.0000000001
 40
0.0
 40
0.0
 40
0.0
 40
0.1282382143845544
 40
0.1282382143845544
 40
0.1282382143845544
 10
151.1462097978331
 20
172.216838206098
 30
0.0
 41
1.0
 10
151.35126314024
 20
172.7879999525369
 30
0.0
 41
1.00291245875496
 10
151.646209797833
 20
173.3972391487382
 30
0.0
 41
1.0
  0
SPLINE
  5
27D
330
70
100
AcDbEntity
  8
Sichtbar MD
100
AcDbSpline
210
0.0
220
0.0
230
1.0
 70
    12
 71
     2
 72
     6
 73
     3
 74
     0
 42
0.000000001
 43
0.0000000001
 40
0.0
 40
0.0
 40
0.0
 40
0.1282382143845544
 40
0.1282382143845544
 40
0.1282382143845544
 10
151.646209797833
 20
165.6512724563234
 30
0.0
 41
1.0
 10
151.35126314024
 20
166.2605116525248
 30
0.0
 41
1.002912458754783
 10
151.146209797833
 20
166.8316733989636
 30
0.0
 41
1.0
  0
LINE
  5
27E
330
70
100
AcDbEntity
  8
Sichtbar MD
100
AcDbLine
 10
160.646209797833
 20
165.6512724563234
 30
0.0
 11
151.646209797833
 21
165.6512724563234
 31
0.0
  0
SPLINE
  5
27F
330
70
100
AcDbEntity
  8
Sichtbar MD
100
AcDbSpline
210
0.0
220
0.0
230
1.0
 70
    12
 71
     2
 72
     6
 73
     3
 74
     0
 42
0.000000001
 43
0.0000000001
 40
0.0
 40
0.0
 40
0.0
 40
0.1282382143845526
 40
0.1282382143845526
 40
0.1282382143845526
 10
161.146209797833
 20
166.8316733989635
 30
0.0
 41
1.0
 10
160.9411564554261
 20
166.2605116525248
 30
0.0
 41
1.002912458754725
 10
160.646209797833
 20
165.6512724563234
 30
0.0
 41
1.0
  0
SPLINE
  5
280
330
70
100
AcDbEntity
  8
Sichtbar MD
100
AcDbSpline
210
0.0
220
0.0
230
1.0
 70
    12
 71
     2
 72
     6
 73
     3
 74
     0
 42
0.000000001
 43
0.0000000001
 40
0.0
 40
0.0
 40
0.0
 40
0.1282382143845526
 40
0.1282382143845526
 40
0.1282382143845526
 10
160.6462097978331
 20
173.3972391487382
 30
0.0
 41
1.0
 10
160.9411564554261
 20
172.7879999525368
 30
0.0
 41
1.002912458754652
 10
161.146209797833
 20
172.216838206098
 30
0.0
 41
1.0
  0
LINE
  5
281
330
70
100
AcDbEntity
  8
Sichtbar MD
100
AcDbLine
 10
151.646209797833
 20
173.3972391487382
 30
0.0
 11
160.6462097978331
 21
173.3972391487382
 31
0.0
  0
LINE
  5
282
330
70
100
AcDbEntity
  8
Sichtbar MD
100
AcDbLine
 10
161.146209797833
 20
166.8316733989635
 30
0.0
 11
161.146209797833
 21
172.216838206098
 31
0.0
  0
LINE
  5
283
330
70
100
AcDbEntity
  8
Sichtbar MD
100
AcDbLine
 10
151.146209797833
 20
166.8316733989636
 30
0.0
 11
151.146209797833
 21
172.2168382060981
 31
0.0
  0
LINE
  5
284
330
70
100
AcDbEntity
  8
Sichtbar MD
100
AcDbLine
 10
160.646209797833
 20
161.5242558025308
 30
0.0
 11
160.646209797833
 21
165.6512724563234
 31
0.0
  0
LINE
  5
285
330
70
100
AcDbEntity
  8
Sichtbar MD
100
AcDbLine
 10
161.146209797833
 20
162.0242558025308
 30
0.0
 11
161.146209797833
 21
166.8316733989635
 31
0.0
  0
LINE
  5
286
330
70
100
AcDbEntity
  8
Sichtbar MD
100
AcDbLine
 10
161.146209797833
 20
172.216838206098
 30
0.0
 11
161.146209797833
 21
177.0242558025307
 31
0.0
  0
LINE
  5
287
330
70
100
AcDbEntity
  8
Sichtbar MD
100
AcDbLine
 10
160.646209797833
 20
173.3972391487382
 30
0.0
 11
160.6462097978331
 21
177.5242558025307
 31
0.0
  0
LINE
  5
288
330
70
100
AcDbEntity
  8
Sichtbar MD
100
AcDbLine
 10
151.646209797833
 20
161.5242558025308
 30
0.0
 11
151.646209797833
 21
165.6512724563234
 31
0.0
  0
LINE
  5
289
330
70
100
AcDbEntity
  8
Sichtbar MD
100
AcDbLine
 10
151.646209797833
 20
173.3972391487382
 30
0.0
 11
151.6462097978331
 21
177.5242558025307
 31
0.0
  0
LINE
  5
28A
330
70
100
AcDbEntity
  8
Sichtbar MD
100
AcDbLine
 10
151.146209797833
 20
162.0242558025308
 30
0.0
 11
151.146209797833
 21
166.8316733989636
 31
0.0
  0
LINE
  5
28B
330
70
100
AcDbEntity
  8
Sichtbar MD
100
AcDbLine
 10
147.146209797833
 20
161.5242558025309
 30
0.0
 11
147.1462097978331
 21
177.5242558025308
 31
0.0
  0
LINE
  5
28C
330
70
100
AcDbEntity
  8
Sichtbar MD
100
AcDbLine
 10
150.646209797833
 20
161.5242558025309
 30
0.0
 11
150.6462097978331
 21
177.5242558025308
 31
0.0
  0
LINE
  5
28D
330
70
100
AcDbEntity
  8
Sichtbar MD
100
AcDbLine
 10
151.1462097978331
 20
172.216838206098
 30
0.0
 11
151.1462097978331
 21
177.0242558025308
 31
0.0
  0
LINE
  5
28E
330
70
100
AcDbEntity
  8
Sichtbar MD
100
AcDbLine
 10
161.646209797833
 20
161.5242558025308
 30
0.0
 11
161.6462097978331
 21
177.5242558025307
 31
0.0
  0
LINE
  5
28F
330
70
100
AcDbEntity
  8
Sichtbar MD
100
AcDbLine
 10
161.146209797833
 20
162.0242558025308
 30
0.0
 11
160.646209797833
 21
161.5242558025308
 31
0.0
  0
LINE
  5
290
330
70
100
AcDbEntity
  8
Sichtbar MD
100
AcDbLine
 10
161.146209797833
 20
177.0242558025308
 30
0.0
 11
160.6462097978331
 21
177.5242558025307
 31
0.0
  0
LINE
  5
291
330
70
100
AcDbEntity
  8
Sichtbar MD
100
AcDbLine
 10
151.646209797833
 20
161.5242558025308
 30
0.0
 11
160.646209797833
 21
161.5242558025308
 31
0.0
  0
LINE
  5
292
330
70
100
AcDbEntity
  8
Sichtbar MD
100
AcDbLine
 10
151.6462097978331
 20
177.5242558025308
 30
0.0
 11
160.6462097978331
 21
177.5242558025307
 31
0.0
  0
LINE
  5
293
330
70
100
AcDbEntity
  8
Sichtbar MD
100
AcDbLine
 10
151.146209797833
 20
162.0242558025308
 30
0.0
 11
151.646209797833
 21
161.5242558025308
 31
0.0
  0
LINE
  5
294
330
70
100
AcDbEntity
  8
Sichtbar MD
100
AcDbLine
 10
142.6755089385328
 20
176.0242558025308
 30
0.0
 11
147.1462097978331
 21
176.0242558025308
 31
0.0
  0
LINE
  5
295
330
70
100
AcDbEntity
  8
Sichtbar MD
100
AcDbLine
 10
142.6755089385327
 20
163.0242558025308
 30
0.0
 11
147.146209797833
 21
163.0242558025308
 31
0.0
  0
LINE
  5
296
330
70
100
AcDbEntity
  8
Sichtbar MD
100
AcDbLine
 10
147.1462097978331
 20
177.5242558025308
 30
0.0
 11
150.6462097978331
 21
177.5242558025308
 31
0.0
  0
LINE
  5
297
330
70
100
AcDbEntity
  8
Sichtbar MD
100
AcDbLine
 10
147.146209797833
 20
161.5242558025309
 30
0.0
 11
150.646209797833
 21
161.5242558025308
 31
0.0
  0
LINE
  5
298
330
70
100
AcDbEntity
  8
Sichtbar MD
100
AcDbLine
 10
151.146209797833
 20
162.0242558025308
 30
0.0
 11
150.646209797833
 21
161.5242558025309
 31
0.0
  0
LINE
  5
299
330
70
100
AcDbEntity
  8
Sichtbar MD
100
AcDbLine
 10
151.1462097978331
 20
177.0242558025308
 30
0.0
 11
150.6462097978331
 21
177.5242558025308
 31
0.0
  0
LINE
  5
29A
330
70
100
AcDbEntity
  8
Sichtbar MD
100
AcDbLine
 10
151.1462097978331
 20
177.0242558025308
 30
0.0
 11
151.646209797833
 21
177.5242558025308
 31
0.0
  0
LINE
  5
29B
330
70
100
AcDbEntity
  8
Sichtbar MD
100
AcDbLine
 10
161.1462097978331
 20
177.0242558025308
 30
0.0
 11
161.6462097978331
 21
177.5242558025307
 31
0.0
  0
LINE
  5
29C
330
70
100
AcDbEntity
  8
Sichtbar MD
100
AcDbLine
 10
161.146209797833
 20
162.0242558025308
 30
0.0
 11
161.646209797833
 21
161.5242558025308
 31
0.0
  0
LINE
  5
29D
330
70
100
AcDbEntity
  8
Sichtbar MD
100
AcDbLine
 10
161.6462097978331
 20
177.5242558025307
 30
0.0
 11
162.6462097978333
 21
177.5242558025307
 31
0.0
  0
LINE
  5
29E
330
70
100
AcDbEntity
  8
Sichtbar MD
100
AcDbLine
 10
161.646209797833
 20
161.5242558025308
 30
0.0
 11
162.6462097978333
 21
161.5242558025308
 31
0.0
  0
LINE
  5
29F
330
70
100
AcDbEntity
  8
Sichtbar schmal MD
100
AcDbLine
 10
146.1462097978331
 20
175.4097558025308
 30
0.0
 11
142.6755089385328
 21
175.4097558025308
 31
0.0
  0
LINE
  5
2A0
330
70
100
AcDbEntity
  8
Sichtbar schmal MD
100
AcDbLine
 10
142.6755089385327
 20
163.6387558025308
 30
0.0
 11
146.146209797833
 21
163.6387558025308
 31
0.0
  0
LINE
  5
2A1
330
70
100
AcDbEntity
  8
Sichtbar MD
100
AcDbLine
 10
146.1462097978331
 20
176.0242558025308
 30
0.0
 11
146.146209797833
 21
163.0242558025308
 31
0.0
  0
LINE
  5
2A2
330
70
100
AcDbEntity
  8
Sichtbar MD
100
AcDbLine
 10
234.646209797833
 20
147.2922049949616
 30
0.0
 11
234.6462097978331
 21
191.7563066100992
 31
0.0
  0
LINE
  5
2A3
330
70
100
AcDbEntity
  8
Sichtbar MD
100
AcDbLine
 10
234.6462097978331
 20
191.7563066100992
 30
0.0
 11
235.6462097978331
 21
192.0242558025303
 31
0.0
  0
LINE
  5
2A4
330
70
100
AcDbEntity
  8
Sichtbar MD
100
AcDbLine
 10
234.646209797833
 20
147.2922049949616
 30
0.0
 11
235.646209797833
 21
147.0242558025305
 31
0.0
  0
LINE
  5
2A5
330
70
100
AcDbEntity
  8
Sichtbar MD
100
AcDbLine
 10
170.6462097978342
 20
154.5242558025308
 30
0.0
 11
170.6462097978323
 21
184.5242558025306
 31
0.0
  0
LINE
  5
2A6
330
70
100
AcDbEntity
  8
Sichtbar MD
100
AcDbLine
 10
233.1462097978343
 20
152.2742558025306
 30
0.0
 11
233.1462097978322
 21
186.7742558025304
 31
0.0
  0
LINE
  5
2A7
330
70
100
AcDbEntity
  8
Sichtbar MD
100
AcDbLine
 10
234.1462097978343
 20
152.2742558025306
 30
0.0
 11
234.1462097978322
 21
186.7742558025304
 31
0.0
  0
LINE
  5
2A8
330
70
100
AcDbEntity
  8
Sichtbar MD
100
AcDbLine
 10
170.6462097978333
 20
184.5242558025306
 30
0.0
 11
233.1462097978333
 21
184.5242558025305
 31
0.0
  0
LINE
  5
2A9
330
70
100
AcDbEntity
  8
Sichtbar MD
100
AcDbLine
 10
170.6462097978332
 20
154.5242558025308
 30
0.0
 11
233.1462097978332
 21
154.5242558025306
 31
0.0
  0
LINE
  5
2AA
330
70
100
AcDbEntity
  8
Sichtbar MD
100
AcDbLine
 10
233.1462097978333
 20
186.7742558025304
 30
0.0
 11
234.1462097978333
 21
186.7742558025304
 31
0.0
  0
LINE
  5
2AB
330
70
100
AcDbEntity
  8
Sichtbar MD
100
AcDbLine
 10
233.1462097978332
 20
152.2742558025306
 30
0.0
 11
234.1462097978332
 21
152.2742558025306
 31
0.0
  0
LINE
  5
2AC
330
70
100
AcDbEntity
  8
Sichtbar MD
100
AcDbLine
 10
234.1462097978333
 20
186.5242558025304
 30
0.0
 11
234.6462097978333
 21
186.5242558025304
 31
0.0
  0
LINE
  5
2AD
330
70
100
AcDbEntity
  8
Sichtbar MD
100
AcDbLine
 10
234.1462097978332
 20
152.5242558025306
 30
0.0
 11
234.6462097978333
 21
152.5242558025306
 31
0.0
  0
LINE
  5
2AE
330
70
100
AcDbEntity
  8
Sichtbar MD
100
AcDbLine
 10
165.1089265194015
 20
155.2587053161252
 30
0.0
 11
165.1089265194015
 21
183.7898062889363
 31
0.0
  0
LINE
  5
2AF
330
70
100
AcDbEntity
  8
Sichtbar MD
100
AcDbLine
 10
162.6462097978333
 20
159.5242558025308
 30
0.0
 11
162.6462097978333
 21
179.5242558025307
 31
0.0
  0
LINE
  5
2B0
330
70
100
AcDbEntity
  8
Sichtbar MD
100
AcDbLine
 10
162.6462097978333
 20
179.5242558025307
 30
0.0
 11
165.1089265194015
 21
183.7898062889362
 31
0.0
  0
LINE
  5
2B1
330
70
100
AcDbEntity
  8
Sichtbar MD
100
AcDbLine
 10
162.6462097978333
 20
159.5242558025308
 30
0.0
 11
165.1089265194015
 21
155.2587053161252
 31
0.0
  0
LINE
  5
2B2
330
70
100
AcDbEntity
  8
Sichtbar MD
100
AcDbLine
 10
165.1089265194015
 20
183.7898062889363
 30
0.0
 11
170.6462097978334
 21
184.2742558025307
 31
0.0
  0
LINE
  5
2B3
330
70
100
AcDbEntity
  8
Sichtbar MD
100
AcDbLine
 10
165.1089265194015
 20
155.2587053161252
 30
0.0
 11
170.6462097978333
 21
154.7742558025308
 31
0.0
  0
LINE
  5
2B4
330
70
100
AcDbEntity
  8
Sichtbar MD
100
AcDbLine
 10
142.675508938533
 20
161.5242558025306
 30
0.0
 11
142.675508938533
 21
177.524255802531
 31
0.0
  0
LINE
  5
2B5
330
70
100
AcDbEntity
  8
Sichtbar MD
100
AcDbLine
 10
131.6755089385328
 20
177.524255802531
 30
0.0
 11
142.675508938533
 21
177.524255802531
 31
0.0
  0
LINE
  5
2B6
330
70
100
AcDbEntity
  8
Sichtbar MD
100
AcDbLine
 10
131.6755089385327
 20
161.5242558025307
 30
0.0
 11
142.675508938533
 21
161.5242558025306
 31
0.0
  0
LINE
  5
2B7
330
70
100
AcDbEntity
  8
Sichtbar MD
100
AcDbLine
 10
135.6755089385328
 20
165.6512724563233
 30
0.0
 11
135.6755089385329
 21
173.3972391487383
 31
0.0
  0
LINE
  5
2B8
330
70
100
AcDbEntity
  8
Sichtbar MD
100
AcDbLine
 10
131.6755089385327
 20
173.3972391487384
 30
0.0
 11
135.6755089385328
 21
173.3972391487384
 31
0.0
  0
LINE
  5
2B9
330
70
100
AcDbEntity
  8
Sichtbar MD
100
AcDbLine
 10
135.6755089385328
 20
165.6512724563233
 30
0.0
 11
131.6755089385327
 21
165.6512724563234
 31
0.0
  0
SPLINE
  5
2BA
330
70
100
AcDbEntity
  8
Sichtbar MD
100
AcDbSpline
210
0.0
220
0.0
230
1.0
 70
    12
 71
     2
 72
     6
 73
     3
 74
     0
 42
0.000000001
 43
0.0000000001
 40
0.4026427188539779
 40
0.4026427188539779
 40
0.4026427188539779
 40
0.8052854377079556
 40
0.8052854377079556
 40
0.8052854377079556
 10
130.6755089385327
 20
169.5242558025309
 30
0.0
 41
1.0
 10
130.6755089385327
 20
171.3316480307611
 30
0.0
 41
1.035098339013525
 10
131.6755089385328
 20
173.3972391487384
 30
0.0
 41
1.0
  0
SPLINE
  5
2BB
330
70
100
AcDbEntity
  8
Sichtbar MD
100
AcDbSpline
210
0.0
220
0.0
230
1.0
 70
    12
 71
     2
 72
     6
 73
     3
 74
     0
 42
0.000000001
 43
0.0000000001
 40
0.0
 40
0.0
 40
0.0
 40
0.4026427188539779
 40
0.4026427188539779
 40
0.4026427188539779
 10
131.6755089385327
 20
165.6512724563234
 30
0.0
 41
1.0
 10
130.6755089385327
 20
167.7168635743007
 30
0.0
 41
1.035098339013525
 10
130.6755089385327
 20
169.5242558025309
 30
0.0
 41
1.0
  0
LINE
  5
2BC
330
70
100
AcDbEntity
  8
Sichtbar MD
100
AcDbLine
 10
131.6755089385327
 20
165.6512724563234
 30
0.0
 11
131.6755089385327
 21
161.5242558025307
 31
0.0
  0
LINE
  5
2BD
330
70
100
AcDbEntity
  8
Sichtbar MD
100
AcDbLine
 10
131.6755089385328
 20
177.524255802531
 30
0.0
 11
131.6755089385328
 21
173.3972391487384
 31
0.0
  0
LINE
  5
2BE
330
70
100
AcDbEntity
  8
Sichtbar MD
100
AcDbLine
 10
130.6755089385327
 20
162.5242558025307
 30
0.0
 11
130.6755089385327
 21
169.5242558025309
 31
0.0
  0
LINE
  5
2BF
330
70
100
AcDbEntity
  8
Sichtbar MD
100
AcDbLine
 10
130.6755089385327
 20
169.5242558025309
 30
0.0
 11
130.6755089385327
 21
176.524255802531
 31
0.0
  0
LINE
  5
2C0
330
70
100
AcDbEntity
  8
Sichtbar MD
100
AcDbLine
 10
130.6755089385327
 20
162.5242558025307
 30
0.0
 11
131.6755089385327
 21
161.5242558025307
 31
0.0
  0
LINE
  5
2C1
330
70
100
AcDbEntity
  8
Sichtbar MD
100
AcDbLine
 10
130.6755089385327
 20
176.524255802531
 30
0.0
 11
131.6755089385328
 21
177.524255802531
 31
0.0
  0
LINE
  5
2C2
330
70
100
AcDbEntity
  8
Sichtbar MD
100
AcDbLine
 10
265.6462097978355
 20
207.9728429903045
 30
0.0
 11
265.6462097978354
 21
205.7934821239538
 31
0.0
  0
LINE
  5
2C3
330
70
100
AcDbEntity
  8
Sichtbar MD
100
AcDbLine
 10
265.6462097978353
 20
205.438129804488
 30
0.0
 11
265.6462097978354
 21
205.7934821239538
 31
0.0
  0
LINE
  5
2C4
330
70
100
AcDbEntity
  8
Sichtbar MD
100
AcDbLine
 10
265.6462097978352
 20
204.4479589030195
 30
0.0
 11
265.6462097978354
 21
205.438129804488
 31
0.0
  0
LINE
  5
2C5
330
70
100
AcDbEntity
  8
Sichtbar MD
100
AcDbLine
 10
265.6462097978352
 20
204.4479589030196
 30
0.0
 11
265.6462097978354
 21
203.3161421319752
 31
0.0
  0
LINE
  5
2C6
330
70
100
AcDbEntity
  8
Sichtbar MD
100
AcDbLine
 10
258.6462097978353
 20
202.1830235982672
 30
0.0
 11
258.6462097978313
 21
135.1742558025305
 31
0.0
  0
LINE
  5
2C7
330
70
100
AcDbEntity
  8
Sichtbar MD
100
AcDbLine
 10
258.6462097978353
 20
204.44795890302
 30
0.0
 11
258.6462097978353
 21
203.3161421319756
 31
0.0
  0
LINE
  5
2C8
330
70
100
AcDbEntity
  8
Sichtbar MD
100
AcDbLine
 10
258.6462097978353
 20
204.4479589030199
 30
0.0
 11
258.6462097978353
 21
205.4381298044884
 31
0.0
  0
LINE
  5
2C9
330
70
100
AcDbEntity
  8
Sichtbar MD
100
AcDbLine
 10
258.6462097978353
 20
205.4381298044884
 30
0.0
 11
258.6462097978353
 21
205.7934821239542
 31
0.0
  0
LINE
  5
2CA
330
70
100
AcDbEntity
  8
Sichtbar MD
100
AcDbLine
 10
258.6462097978355
 20
207.9728429903048
 30
0.0
 11
258.6462097978353
 21
205.7934821239542
 31
0.0
  0
LINE
  5
2CB
330
70
100
AcDbEntity
  8
Sichtbar MD
100
AcDbLine
 10
265.6462097978355
 20
207.9728429903045
 30
0.0
 11
258.6462097978355
 21
207.9728429903049
 31
0.0
  0
LINE
  5
2CC
330
70
100
AcDbEntity
  8
Sichtbar MD
100
AcDbLine
 10
265.6462097978314
 20
135.1742558025302
 30
0.0
 11
258.6462097978313
 21
135.1742558025305
 31
0.0
  0
LINE
  5
2CD
330
70
100
AcDbEntity
  8
Sichtbar MD
100
AcDbLine
 10
265.6462097978354
 20
203.3161421319752
 30
0.0
 11
265.6462097978354
 21
202.6364577212047
 31
0.0
  0
LINE
  5
2CE
330
70
100
AcDbEntity
  8
Sichtbar MD
100
AcDbLine
 10
258.6462097978353
 20
202.6364577212051
 30
0.0
 11
258.6462097978353
 21
203.3161421319756
 31
0.0
  0
LINE
  5
2CF
330
70
100
AcDbEntity
  8
Sichtbar MD
100
AcDbLine
 10
265.6462097978354
 20
202.5122916118759
 30
0.0
 11
265.6462097978354
 21
202.6364577212047
 31
0.0
  0
LINE
  5
2D0
330
70
100
AcDbEntity
  8
Sichtbar MD
100
AcDbLine
 10
258.6462097978353
 20
202.6364577212051
 30
0.0
 11
258.6462097978353
 21
202.1830235982672
 31
0.0
  0
LINE
  5
2D1
330
70
100
AcDbEntity
  8
Sichtbar MD
100
AcDbLine
 10
239.6462097978328
 20
146.95511527147
 30
0.0
 11
242.6462097978328
 21
146.9551152714699
 31
0.0
  0
LINE
  5
2D2
330
70
100
AcDbEntity
  8
Sichtbar MD
100
AcDbLine
 10
242.6462097978328
 20
146.460151365917
 30
0.0
 11
242.6462097978328
 21
146.9551152714699
 31
0.0
  0
LINE
  5
2D3
330
70
100
AcDbEntity
  8
Sichtbar MD
100
AcDbLine
 10
242.6462097978328
 20
146.460151365917
 30
0.0
 11
239.6462097978328
 21
146.460151365917
 31
0.0
  0
LINE
  5
2D4
330
70
100
AcDbEntity
  8
Sichtbar MD
100
AcDbLine
 10
239.6462097978328
 20
146.95511527147
 30
0.0
 11
239.6462097978328
 21
146.4601513659171
 31
0.0
  0
LINE
  5
2D5
330
70
100
AcDbEntity
  8
Sichtbar MD
100
AcDbLine
 10
239.6462097978329
 20
148.1290982020359
 30
0.0
 11
242.6462097978328
 21
148.1290982020358
 31
0.0
  0
LINE
  5
2D6
330
70
100
AcDbEntity
  8
Sichtbar MD
100
AcDbLine
 10
242.6462097978328
 20
147.5119396224568
 30
0.0
 11
242.6462097978328
 21
148.1290982020358
 31
0.0
  0
LINE
  5
2D7
330
70
100
AcDbEntity
  8
Sichtbar MD
100
AcDbLine
 10
242.6462097978328
 20
147.5119396224567
 30
0.0
 11
239.6462097978328
 21
147.5119396224568
 31
0.0
  0
LINE
  5
2D8
330
70
100
AcDbEntity
  8
Sichtbar MD
100
AcDbLine
 10
239.6462097978328
 20
148.0465435369698
 30
0.0
 11
242.6462097978328
 21
148.0465435369698
 31
0.0
  0
LINE
  5
2D9
330
70
100
AcDbEntity
  8
Sichtbar MD
100
AcDbLine
 10
239.6462097978328
 20
148.1290982020358
 30
0.0
 11
239.6462097978328
 21
147.5119396224568
 31
0.0
  0
LINE
  5
2DA
330
70
100
AcDbEntity
  8
Sichtbar MD
100
AcDbLine
 10
239.6462097978328
 20
146.0284045674586
 30
0.0
 11
242.6462097978328
 21
146.0284045674586
 31
0.0
  0
LINE
  5
2DB
330
70
100
AcDbEntity
  8
Sichtbar MD
100
AcDbLine
 10
242.6462097978328
 20
145.6610582640589
 30
0.0
 11
242.6462097978328
 21
146.0284045674586
 31
0.0
  0
LINE
  5
2DC
330
70
100
AcDbEntity
  8
Sichtbar MD
100
AcDbLine
 10
242.6462097978328
 20
145.6610582640589
 30
0.0
 11
239.6462097978327
 21
145.661058264059
 31
0.0
  0
LINE
  5
2DD
330
70
100
AcDbEntity
  8
Sichtbar MD
100
AcDbLine
 10
239.6462097978328
 20
146.0284045674586
 30
0.0
 11
239.6462097978328
 21
145.661058264059
 31
0.0
  0
SPLINE
  5
2DE
330
70
100
AcDbEntity
  8
Sichtbar MD
100
AcDbSpline
210
0.0
220
0.0
230
1.0
 70
     8
 71
     3
 72
    14
 73
    10
 74
     0
 42
0.000000001
 43
0.0000000001
 40
0.6064956785021584
 40
0.6064956785021584
 40
0.6064956785021584
 40
0.6064956785021584
 40
0.6443090330201003
 40
0.6443090330201003
 40
0.6821223875380422
 40
0.6821223875380422
 40
0.7202267129222814
 40
0.7202267129222814
 40
0.7583310383065207
 40
0.7583310383065207
 40
0.7583310383065207
 40
0.7583310383065207
 10
243.6462097978329
 20
150.9649290782494
 30
0.0
 10
243.7722543128927
 20
150.9649290782494
 30
0.0
 10
243.9064754965672
 20
150.9478663531038
 30
0.0
 10
244.1528232504566
 20
150.8793156409445
 30
0.0
 10
244.2649614516402
 20
150.8278896974955
 30
0.0
 10
244.4423515923354
 20
150.7104157345829
 30
0.0
 10
244.5192460471328
 20
150.6363638242265
 30
0.0
 10
244.6211744005274
 20
150.4761989942234
 30
0.0
 10
244.6462097978329
 20
150.3901280266433
 30
0.0
 10
244.6462097978329
 20
150.3102878998223
 30
0.0
  0
LINE
  5
2DF
330
70
100
AcDbEntity
  8
Sichtbar MD
100
AcDbLine
 10
244.6462097978329
 20
150.3102878998223
 30
0.0
 11
244.6462097978329
 21
150.8364646222987
 31
0.0
  0
SPLINE
  5
2E0
330
70
100
AcDbEntity
  8
Sichtbar MD
100
AcDbSpline
210
0.0
220
0.0
230
1.0
 70
     8
 71
     3
 72
    14
 73
    10
 74
     0
 42
0.000000001
 43
0.0000000001
 40
0.4547960650606637
 40
0.4547960650606637
 40
0.4547960650606637
 40
0.4547960650606637
 40
0.4930846963478414
 40
0.4930846963478414
 40
0.5313733276350191
 40
0.5313733276350191
 40
0.569032307838274
 40
0.569032307838274
 40
0.6066912880415289
 40
0.6066912880415289
 40
0.6066912880415289
 40
0.6066912880415289
 10
244.6462097978329
 20
150.8364646222987
 30
0.0
 10
244.6462097978329
 20
150.9170793788749
 30
0.0
 10
244.6209661488745
 20
151.0039846591379
 30
0.0
 10
244.5182462771398
 20
151.1656426405486
 30
0.0
 10
244.4407685652215
 20
151.2403518754092
 30
0.0
 10
244.2628138575536
 20
151.358204194467
 30
0.0
 10
244.1509708801486
 20
151.4095739935072
 30
0.0
 10
243.9054398874302
 20
151.4780457259818
 30
0.0
 10
243.7717397318437
 20
151.4950843018762
 30
0.0
 10
243.6462097978329
 20
151.4950843018762
 30
0.0
  0
SPLINE
  5
2E1
330
70
100
AcDbEntity
  8
Sichtbar MD
100
AcDbSpline
210
0.0
220
0.0
230
1.0
 70
     8
 71
     3
 72
    14
 73
    10
 74
     0
 42
0.000000001
 43
0.0000000001
 40
0.303345621215807
 40
0.303345621215807
 40
0.303345621215807
 40
0.303345621215807
 40
0.3410046014190619
 40
0.3410046014190619
 40
0.3786635816223166
 40
0.3786635816223166
 40
0.4169522129094944
 40
0.4169522129094944
 40
0.4552408441966721
 40
0.4552408441966721
 40
0.4552408441966721
 40
0.4552408441966721
 10
238.6462097978329
 20
151.4950843018763
 30
0.0
 10
238.5206798638221
 20
151.4950843018763
 30
0.0
 10
238.3869797082355
 20
151.478045725982
 30
0.0
 10
238.1414487155172
 20
151.4095739935073
 30
0.0
 10
238.0296057381122
 20
151.3582041944671
 30
0.0
 10
237.8516510304442
 20
151.2403518754093
 30
0.0
 10
237.7741733185259
 20
151.1656426405487
 30
0.0
 10
237.6714534467913
 20
151.0039846591381
 30
0.0
 10
237.6462097978329
 20
150.9170793788751
 30
0.0
 10
237.6462097978329
 20
150.8364646222989
 30
0.0
  0
SPLINE
  5
2E2
330
70
100
AcDbEntity
  8
Sichtbar MD
100
AcDbSpline
210
0.0
220
0.0
230
1.0
 70
     8
 71
     3
 72
    14
 73
    10
 74
     0
 42
0.000000001
 43
0.0000000001
 40
0.1514125755650742
 40
0.1514125755650742
 40
0.1514125755650742
 40
0.1514125755650742
 40
0.1896707496954777
 40
0.1896707496954777
 40
0.227928923825881
 40
0.227928923825881
 40
0.2655883127857423
 40
0.2655883127857423
 40
0.3032477017456035
 40
0.3032477017456035
 40
0.3032477017456035
 40
0.3032477017456035
 10
237.6462097978329
 20
150.3102878998225
 30
0.0
 10
237.6462097978329
 20
150.3904503864617
 30
0.0
 10
237.671446001481
 20
150.4768508839793
 30
0.0
 10
237.7741332792954
 20
150.6375317112551
 30
0.0
 10
237.8515858196361
 20
150.7117694836736
 30
0.0
 10
238.0295218913452
 20
150.8289048249832
 30
0.0
 10
238.141394479581
 20
150.879961278895
 30
0.0
 10
238.3869670294845
 20
150.9480040484068
 30
0.0
 10
238.5206785013
 20
150.9649290782495
 30
0.0
 10
238.6462097978329
 20
150.9649290782495
 30
0.0
  0
LINE
  5
2E3
330
70
100
AcDbEntity
  8
Sichtbar MD
100
AcDbLine
 10
237.6462097978329
 20
150.8364646222989
 30
0.0
 11
237.6462097978329
 21
150.3102878998225
 31
0.0
  0
LINE
  5
2E4
330
70
100
AcDbEntity
  8
Sichtbar MD
100
AcDbLine
 10
243.6462097978329
 20
151.4950843018762
 30
0.0
 11
238.6462097978329
 21
151.4950843018763
 31
0.0
  0
LINE
  5
2E5
330
70
100
AcDbEntity
  8
Sichtbar MD
100
AcDbLine
 10
243.6462097978329
 20
150.9649290782494
 30
0.0
 11
238.6462097978329
 21
150.9649290782495
 31
0.0
  0
LINE
  5
2E6
330
70
100
AcDbEntity
  8
Sichtbar MD
100
AcDbLine
 10
237.6462097978329
 20
150.3102878998225
 30
0.0
 11
237.6462097978327
 21
144.8630431887355
 31
0.0
  0
LINE
  5
2E7
330
70
100
AcDbEntity
  8
Sichtbar MD
100
AcDbLine
 10
244.6462097978328
 20
144.8630431887354
 30
0.0
 11
244.6462097978329
 21
150.3102878998223
 31
0.0
  0
LINE
  5
2E8
330
70
100
AcDbEntity
  8
Sichtbar MD
100
AcDbLine
 10
237.6462097978337
 20
193.6242558025305
 30
0.0
 11
237.6462097978329
 21
150.8364646222989
 31
0.0
  0
LINE
  5
2E9
330
70
100
AcDbEntity
  8
Sichtbar MD
100
AcDbLine
 10
237.6462097978327
 20
143.5179584985982
 30
0.0
 11
237.6462097978326
 21
141.3385976322475
 31
0.0
  0
LINE
  5
2EA
330
70
100
AcDbEntity
  8
Sichtbar MD
100
AcDbLine
 10
237.6462097978327
 20
143.5179584985982
 30
0.0
 11
237.6462097978327
 21
143.873310818064
 31
0.0
  0
LINE
  5
2EB
330
70
100
AcDbEntity
  8
Sichtbar MD
100
AcDbLine
 10
237.6462097978327
 20
143.873310818064
 30
0.0
 11
237.6462097978327
 21
144.8630431887355
 31
0.0
  0
LINE
  5
2EC
330
70
100
AcDbEntity
  8
Sichtbar MD
100
AcDbLine
 10
244.6462097978329
 20
150.8364646222987
 30
0.0
 11
244.6462097978337
 21
193.6242558025304
 31
0.0
  0
LINE
  5
2ED
330
70
100
AcDbEntity
  8
Sichtbar MD
100
AcDbLine
 10
244.6462097978327
 20
144.8630431887354
 30
0.0
 11
244.6462097978327
 21
143.8733108180639
 31
0.0
  0
LINE
  5
2EE
330
70
100
AcDbEntity
  8
Sichtbar MD
100
AcDbLine
 10
244.6462097978327
 20
143.8733108180639
 30
0.0
 11
244.6462097978327
 21
143.5179584985981
 31
0.0
  0
LINE
  5
2EF
330
70
100
AcDbEntity
  8
Sichtbar MD
100
AcDbLine
 10
244.6462097978326
 20
141.3385976322474
 30
0.0
 11
244.6462097978327
 21
143.5179584985981
 31
0.0
  0
LINE
  5
2F0
330
70
100
AcDbEntity
  8
Sichtbar MD
100
AcDbLine
 10
244.6462097978327
 20
141.3385976322474
 30
0.0
 11
237.6462097978326
 21
141.3385976322475
 31
0.0
  0
LINE
  5
2F1
330
70
100
AcDbEntity
  8
Sichtbar MD
100
AcDbLine
 10
244.6462097978337
 20
193.6242558025303
 30
0.0
 11
237.6462097978337
 21
193.6242558025305
 31
0.0
  0
LINE
  5
2F2
330
70
100
AcDbEntity
  8
Sichtbar MD
100
AcDbLine
 10
235.646209797832
 20
146.0242558025304
 30
0.0
 11
235.6462097978345
 21
193.0242558025304
 31
0.0
  0
LINE
  5
2F3
330
70
100
AcDbEntity
  8
Sichtbar MD
100
AcDbLine
 10
235.6462097978345
 20
193.0242558025304
 30
0.0
 11
237.6462097978336
 21
193.0242558025303
 31
0.0
  0
LINE
  5
2F4
330
70
100
AcDbEntity
  8
Sichtbar MD
100
AcDbLine
 10
244.6462097978336
 20
193.02425580253
 30
0.0
 11
245.0989525253813
 21
193.0242558025299
 31
0.0
  0
LINE
  5
2F5
330
70
100
AcDbEntity
  8
Sichtbar MD
100
AcDbLine
 10
235.646209797832
 20
146.0242558025304
 30
0.0
 11
237.6462097978329
 21
146.0242558025302
 31
0.0
  0
LINE
  5
2F6
330
70
100
AcDbEntity
  8
Sichtbar MD
100
AcDbLine
 10
244.6462097978329
 20
146.0242558025298
 30
0.0
 11
245.0989525253788
 21
146.0242558025298
 31
0.0
  0
ARC
  5
2F7
330
70
100
AcDbEntity
  8
Sichtbar MD
100
AcDbCircle
 10
245.0989525253788
 20
145.0242558025298
 30
0.0
 40
1.0
100
AcDbArc
 50
3.999999999997943
 51
90.0
  0
ARC
  5
2F8
330
70
100
AcDbEntity
  8
Sichtbar MD
100
AcDbCircle
 10
245.0989525253813
 20
194.0242558025299
 30
0.0
 40
1.000000000000001
100
AcDbArc
 50
269.9999999999959
 51
355.999999999997
  0
LINE
  5
2F9
330
70
100
AcDbEntity
  8
Sichtbar MD
100
AcDbLine
 10
246.0965165756411
 20
193.9544993287857
 30
0.0
 11
246.618119505696
 21
201.4137687500181
 31
0.0
  0
LINE
  5
2FA
330
70
100
AcDbEntity
  8
Sichtbar MD
100
AcDbLine
 10
246.0965165756386
 20
145.0940122762739
 30
0.0
 11
246.6181195056927
 21
137.6347428550415
 31
0.0
  0
ARC
  5
2FB
330
70
100
AcDbEntity
  8
Sichtbar MD
100
AcDbCircle
 10
248.6132476062124
 20
137.7742558025296
 30
0.0
 40
2.000000000000004
100
AcDbArc
 50
183.9999999999959
 51
355.9999999999959
  0
ARC
  5
2FC
330
70
100
AcDbEntity
  8
Sichtbar MD
100
AcDbCircle
 10
248.6132476062157
 20
201.2742558025297
 30
0.0
 40
2.000000000000004
100
AcDbArc
 50
3.999999999995937
 51
175.999999999997
  0
LINE
  5
2FD
330
70
100
AcDbEntity
  8
Sichtbar MD
100
AcDbLine
 10
251.1299786367869
 20
145.0940122762736
 30
0.0
 11
250.608375706732
 21
137.6347428550412
 31
0.0
  0
LINE
  5
2FE
330
70
100
AcDbEntity
  8
Sichtbar MD
100
AcDbLine
 10
251.1299786367894
 20
193.9544993287855
 30
0.0
 11
250.6083757067353
 21
201.4137687500179
 31
0.0
  0
ARC
  5
2FF
330
70
100
AcDbEntity
  8
Sichtbar MD
100
AcDbCircle
 10
252.1275426870468
 20
145.0242558025294
 30
0.0
 40
1.000000000000001
100
AcDbArc
 50
3.99999999999694
 51
175.999999999997
  0
ARC
  5
300
330
70
100
AcDbEntity
  8
Sichtbar MD
100
AcDbCircle
 10
252.1275426870493
 20
194.0242558025295
 30
0.0
 40
1.000000000000001
100
AcDbArc
 50
183.9999999999968
 51
355.999999999997
  0
LINE
  5
301
330
70
100
AcDbEntity
  8
Sichtbar MD
100
AcDbLine
 10
253.1251067373091
 20
193.9544993287853
 30
0.0
 11
253.646709667364
 21
201.4137687500177
 31
0.0
  0
LINE
  5
302
330
70
100
AcDbEntity
  8
Sichtbar MD
100
AcDbLine
 10
253.1251067373066
 20
145.0940122762735
 30
0.0
 11
253.6467096673607
 21
137.634742855041
 31
0.0
  0
ARC
  5
303
330
70
100
AcDbEntity
  8
Sichtbar MD
100
AcDbCircle
 10
255.6418377678804
 20
137.7742558025292
 30
0.0
 40
2.000000000000006
100
AcDbArc
 50
183.9999999999973
 51
269.9999999999969
  0
ARC
  5
304
330
70
100
AcDbEntity
  8
Sichtbar MD
100
AcDbCircle
 10
255.6418377678836
 20
201.2742558025294
 30
0.0
 40
2.000000000000007
100
AcDbArc
 50
89.99999999999694
 51
175.999999999997
  0
LINE
  5
305
330
70
100
AcDbEntity
  8
Sichtbar MD
100
AcDbLine
 10
255.6418377678837
 20
203.2742558025293
 30
0.0
 11
258.6462097978353
 21
203.2742558025292
 31
0.0
  0
LINE
  5
306
330
70
100
AcDbEntity
  8
Sichtbar MD
100
AcDbLine
 10
255.6418377678802
 20
135.7742558025292
 30
0.0
 11
258.6462097978318
 21
135.774255802529
 31
0.0
  0
LINE
  5
307
330
70
100
AcDbEntity
  8
Sichtbar MD
100
AcDbLine
 10
332.9462097978334
 20
157.6010144353911
 30
0.0
 11
332.9462097978334
 21
156.9059585385722
 31
0.0
  0
LINE
  5
308
330
70
100
AcDbEntity
  8
Sichtbar MD
100
AcDbLine
 10
332.9462097978334
 20
165.2523106606014
 30
0.0
 11
332.9462097978334
 21
161.4518307649703
 31
0.0
  0
LINE
  5
309
330
70
100
AcDbEntity
  8
Sichtbar MD
100
AcDbLine
 10
331.7462097978335
 20
156.9059585385722
 30
0.0
 11
332.9462097978335
 21
156.9059585385722
 31
0.0
  0
LINE
  5
30A
330
70
100
AcDbEntity
  8
Sichtbar MD
100
AcDbLine
 10
332.9462097978334
 20
165.2523106606014
 30
0.0
 11
332.9462097978334
 21
165.4231276902221
 31
0.0
  0
LINE
  5
30B
330
70
100
AcDbEntity
  8
Sichtbar MD
100
AcDbLine
 10
332.0462097978334
 20
165.4231276902221
 30
0.0
 11
332.9462097978334
 21
165.4231276902221
 31
0.0
  0
LINE
  5
30C
330
70
100
AcDbEntity
  8
Sichtbar MD
100
AcDbLine
 10
332.9462097978334
 20
157.6010144353911
 30
0.0
 11
332.9462097978334
 21
158.589546895526
 31
0.0
  0
LINE
  5
30D
330
70
100
AcDbEntity
  8
Sichtbar MD
100
AcDbLine
 10
331.7462097978335
 20
158.589546895526
 30
0.0
 11
332.9462097978334
 21
158.589546895526
 31
0.0
  0
LINE
  5
30E
330
70
100
AcDbEntity
  8
Sichtbar MD
100
AcDbLine
 10
332.9462097978334
 20
158.589546895526
 30
0.0
 11
332.9462097978334
 21
160.1170760732486
 31
0.0
  0
LINE
  5
30F
330
70
100
AcDbEntity
  8
Sichtbar MD
100
AcDbLine
 10
331.7462097978335
 20
160.1170760732486
 30
0.0
 11
332.9462097978334
 21
160.1170760732486
 31
0.0
  0
LINE
  5
310
330
70
100
AcDbEntity
  8
Sichtbar MD
100
AcDbLine
 10
332.9462097978334
 20
160.1170760732486
 30
0.0
 11
332.9462097978334
 21
161.4518307649703
 31
0.0
  0
LINE
  5
311
330
70
100
AcDbEntity
  8
Sichtbar MD
100
AcDbLine
 10
332.9462097978334
 20
183.876102225414
 30
0.0
 11
332.9462097978334
 21
165.4231276902221
 31
0.0
  0
LINE
  5
312
330
70
100
AcDbEntity
  8
Sichtbar MD
100
AcDbLine
 10
332.9462097978334
 20
156.9059585385721
 30
0.0
 11
332.9462097978334
 21
156.076102225414
 31
0.0
  0
LINE
  5
313
330
70
100
AcDbEntity
  8
Sichtbar MD
100
AcDbLine
 10
332.0462097978333
 20
183.876102225414
 30
0.0
 11
332.9462097978334
 21
183.876102225414
 31
0.0
  0
LINE
  5
314
330
70
100
AcDbEntity
  8
Sichtbar MD
100
AcDbLine
 10
332.0462097978334
 20
156.076102225414
 30
0.0
 11
332.9462097978335
 21
156.076102225414
 31
0.0
  0
SPLINE
  5
315
330
70
100
AcDbEntity
  8
Sichtbar MD
100
AcDbSpline
210
0.0
220
0.0
230
1.0
 70
    28
 71
     2
 72
     6
 73
     3
 74
     0
 42
0.000000001
 43
0.0000000001
 40
0.1655738807822844
 40
0.1655738807822844
 40
0.1655738807822844
 40
0.3209840727777221
 40
0.3209840727777221
 40
0.3209840727777221
 10
344.1962097978334
 20
169.5242558025304
 30
0.0
 41
1.0
 10
344.1962097978334
 20
170.2075262432298
 30
0.0
 41
1.04053426284705
 10
344.1962097978334
 20
170.9964989889639
 30
0.0
 41
1.004976360170278
  0
SPLINE
  5
316
330
70
100
AcDbEntity
  8
Sichtbar MD
100
AcDbSpline
210
0.0
220
0.0
230
1.0
 70
    28
 71
     2
 72
     6
 73
     3
 74
     0
 42
0.000000001
 43
0.0000000001
 40
0.0101636887868467
 40
0.0101636887868467
 40
0.0101636887868467
 40
0.1655738807822844
 40
0.1655738807822844
 40
0.1655738807822844
 10
344.1962097978334
 20
168.0520126160969
 30
0.0
 41
1.004976360170278
 10
344.1962097978334
 20
168.840985361831
 30
0.0
 41
1.040534262847049
 10
344.1962097978334
 20
169.5242558025304
 30
0.0
 41
1.0
  0
SPLINE
  5
317
330
70
100
AcDbEntity
  8
Sichtbar MD
100
AcDbSpline
210
0.0
220
0.0
230
1.0
 70
    28
 71
     2
 72
     6
 73
     3
 74
     0
 42
0.000000001
 43
0.0000000001
 40
0.165573880782284
 40
0.165573880782284
 40
0.165573880782284
 40
0.3209840727777214
 40
0.3209840727777214
 40
0.3209840727777214
 10
342.9212097978334
 20
167.3158910228801
 30
0.0
 41
1.0
 10
343.512939357134
 20
167.6575262432297
 30
0.0
 41
1.040534262847049
 10
344.1962097978334
 20
168.0520126160968
 30
0.0
 41
1.004976360170277
  0
SPLINE
  5
318
330
70
100
AcDbEntity
  8
Sichtbar MD
100
AcDbSpline
210
0.0
220
0.0
230
1.0
 70
    28
 71
     2
 72
     6
 73
     3
 74
     0
 42
0.000000001
 43
0.0000000001
 40
0.0101636887868461
 40
0.0101636887868461
 40
0.0101636887868461
 40
0.165573880782284
 40
0.165573880782284
 40
0.165573880782284
 10
341.6462097978334
 20
166.5797694296633
 30
0.0
 41
1.004976360170278
 10
342.3294802385327
 20
166.9742558025304
 30
0.0
 41
1.040534262847053
 10
342.9212097978334
 20
167.3158910228801
 30
0.0
 41
1.0
  0
SPLINE
  5
319
330
70
100
AcDbEntity
  8
Sichtbar MD
100
AcDbSpline
210
0.0
220
0.0
230
1.0
 70
    28
 71
     2
 72
     6
 73
     3
 74
     0
 42
0.000000001
 43
0.0000000001
 40
0.1655738807822835
 40
0.1655738807822835
 40
0.1655738807822835
 40
0.3209840727777208
 40
0.3209840727777208
 40
0.3209840727777208
 10
340.3712097978334
 20
167.3158910228801
 30
0.0
 41
1.0
 10
340.962939357134
 20
166.9742558025304
 30
0.0
 41
1.040534262847047
 10
341.6462097978334
 20
166.5797694296633
 30
0.0
 41
1.004976360170277
  0
SPLINE
  5
31A
330
70
100
AcDbEntity
  8
Sichtbar MD
100
AcDbSpline
210
0.0
220
0.0
230
1.0
 70
    28
 71
     2
 72
     6
 73
     3
 74
     0
 42
0.000000001
 43
0.0000000001
 40
0.0101636887868454
 40
0.0101636887868454
 40
0.0101636887868454
 40
0.1655738807822835
 40
0.1655738807822835
 40
0.1655738807822835
 10
339.0962097978333
 20
168.0520126160969
 30
0.0
 41
1.004976360170278
 10
339.7794802385328
 20
167.6575262432297
 30
0.0
 41
1.040534262847057
 10
340.3712097978334
 20
167.3158910228801
 30
0.0
 41
1.0
  0
SPLINE
  5
31B
330
70
100
AcDbEntity
  8
Sichtbar MD
100
AcDbSpline
210
0.0
220
0.0
230
1.0
 70
    28
 71
     2
 72
     6
 73
     3
 74
     0
 42
0.000000001
 43
0.0000000001
 40
0.1655738807822831
 40
0.1655738807822831
 40
0.1655738807822831
 40
0.3209840727777208
 40
0.3209840727777208
 40
0.3209840727777208
 10
339.0962097978333
 20
169.5242558025304
 30
0.0
 41
1.0
 10
339.0962097978333
 20
168.840985361831
 30
0.0
 41
1.040534262847064
 10
339.0962097978333
 20
168.0520126160969
 30
0.0
 41
1.004976360170279
  0
SPLINE
  5
31C
330
70
100
AcDbEntity
  8
Sichtbar MD
100
AcDbSpline
210
0.0
220
0.0
230
1.0
 70
    28
 71
     2
 72
     6
 73
     3
 74
     0
 42
0.000000001
 43
0.0000000001
 40
0.0101636887868456
 40
0.0101636887868456
 40
0.0101636887868456
 40
0.1655738807822831
 40
0.1655738807822831
 40
0.1655738807822831
 10
339.0962097978333
 20
170.9964989889639
 30
0.0
 41
1.004976360170278
 10
339.0962097978333
 20
170.2075262432298
 30
0.0
 41
1.040534262847056
 10
339.0962097978333
 20
169.5242558025304
 30
0.0
 41
1.0
  0
SPLINE
  5
31D
330
70
100
AcDbEntity
  8
Sichtbar MD
100
AcDbSpline
210
0.0
220
0.0
230
1.0
 70
    28
 71
     2
 72
     6
 73
     3
 74
     0
 42
0.000000001
 43
0.0000000001
 40
0.1655738807822833
 40
0.1655738807822833
 40
0.1655738807822833
 40
0.3209840727777213
 40
0.3209840727777213
 40
0.3209840727777213
 10
340.3712097978334
 20
171.7326205821807
 30
0.0
 41
1.0
 10
339.7794802385328
 20
171.390985361831
 30
0.0
 41
1.040534262847055
 10
339.0962097978333
 20
170.9964989889639
 30
0.0
 41
1.004976360170278
  0
SPLINE
  5
31E
330
70
100
AcDbEntity
  8
Sichtbar MD
100
AcDbSpline
210
0.0
220
0.0
230
1.0
 70
    28
 71
     2
 72
     6
 73
     3
 74
     0
 42
0.000000001
 43
0.0000000001
 40
0.0101636887868461
 40
0.0101636887868461
 40
0.0101636887868461
 40
0.1655738807822833
 40
0.1655738807822833
 40
0.1655738807822833
 10
341.6462097978334
 20
172.4687421753975
 30
0.0
 41
1.004976360170278
 10
340.962939357134
 20
172.0742558025304
 30
0.0
 41
1.040534262847053
 10
340.3712097978334
 20
171.7326205821807
 30
0.0
 41
1.0
  0
SPLINE
  5
31F
330
70
100
AcDbEntity
  8
Sichtbar MD
100
AcDbSpline
210
0.0
220
0.0
230
1.0
 70
    28
 71
     2
 72
     6
 73
     3
 74
     0
 42
0.000000001
 43
0.0000000001
 40
0.165573880782284
 40
0.165573880782284
 40
0.165573880782284
 40
0.320984072777722
 40
0.320984072777722
 40
0.320984072777722
 10
342.9212097978334
 20
171.7326205821807
 30
0.0
 41
1.0
 10
342.3294802385328
 20
172.0742558025304
 30
0.0
 41
1.040534262847055
 10
341.6462097978334
 20
172.4687421753975
 30
0.0
 41
1.004976360170278
  0
SPLINE
  5
320
330
70
100
AcDbEntity
  8
Sichtbar MD
100
AcDbSpline
210
0.0
220
0.0
230
1.0
 70
    28
 71
     2
 72
     6
 73
     3
 74
     0
 42
0.000000001
 43
0.0000000001
 40
0.0101636887868467
 40
0.0101636887868467
 40
0.0101636887868467
 40
0.165573880782284
 40
0.165573880782284
 40
0.165573880782284
 10
344.1962097978334
 20
170.9964989889639
 30
0.0
 41
1.004976360170277
 10
343.512939357134
 20
171.390985361831
 30
0.0
 41
1.040534262847048
 10
342.9212097978334
 20
171.7326205821807
 30
0.0
 41
1.0
  0
CIRCLE
  5
321
330
70
100
AcDbEntity
  8
Sichtbar MD
100
AcDbCircle
 10
341.6462097978334
 20
169.5242558025304
 30
0.0
 40
3.000000000000013
  0
ARC
  5
322
330
70
100
AcDbEntity
  8
Sichtbar MD
100
AcDbCircle
 10
341.6462097978334
 20
169.5242558025304
 30
0.0
 40
2.550000000000012
100
AcDbArc
 50
299.9999999999994
 51
0.0
  0
ARC
  5
323
330
70
100
AcDbEntity
  8
Sichtbar MD
100
AcDbCircle
 10
341.6462097978334
 20
169.5242558025304
 30
0.0
 40
2.550000000000006
100
AcDbArc
 50
0.0
 51
60.0000000000006
  0
ARC
  5
324
330
70
100
AcDbEntity
  8
Sichtbar MD
100
AcDbCircle
 10
341.6462097978334
 20
169.5242558025304
 30
0.0
 40
2.550000000000007
100
AcDbArc
 50
59.9999999999992
 51
119.9999999999994
  0
ARC
  5
325
330
70
100
AcDbEntity
  8
Sichtbar MD
100
AcDbCircle
 10
341.6462097978334
 20
169.5242558025304
 30
0.0
 40
2.550000000000011
100
AcDbArc
 50
119.9999999999994
 51
180.0
  0
ARC
  5
326
330
70
100
AcDbEntity
  8
Sichtbar MD
100
AcDbCircle
 10
341.6462097978334
 20
169.5242558025304
 30
0.0
 40
2.550000000000007
100
AcDbArc
 50
180.0
 51
240.0000000000005
  0
ARC
  5
327
330
70
100
AcDbEntity
  8
Sichtbar MD
100
AcDbCircle
 10
341.6462097978334
 20
169.5242558025304
 30
0.0
 40
2.550000000000007
100
AcDbArc
 50
239.9999999999992
 51
299.9999999999994
  0
LINE
  5
328
330
70
100
AcDbEntity
  8
Sichtbar MD
100
AcDbLine
 10
344.2442860091867
 20
176.0242558025304
 30
0.0
 11
339.0481335864801
 21
176.0242558025304
 31
0.0
  0
LINE
  5
329
330
70
100
AcDbEntity
  8
Sichtbar MD
100
AcDbLine
 10
337.3160827789111
 20
175.0242558025304
 30
0.0
 11
334.7180065675579
 21
170.5242558025304
 31
0.0
  0
LINE
  5
32A
330
70
100
AcDbEntity
  8
Sichtbar MD
100
AcDbLine
 10
334.7180065675579
 20
168.5242558025304
 30
0.0
 11
337.3160827789111
 21
164.0242558025304
 31
0.0
  0
LINE
  5
32B
330
70
100
AcDbEntity
  8
Sichtbar MD
100
AcDbLine
 10
339.0481335864801
 20
163.0242558025304
 30
0.0
 11
344.2442860091867
 21
163.0242558025304
 31
0.0
  0
LINE
  5
32C
330
70
100
AcDbEntity
  8
Sichtbar MD
100
AcDbLine
 10
345.9763368167557
 20
164.0242558025304
 30
0.0
 11
348.5744130281089
 21
168.5242558025304
 31
0.0
  0
LINE
  5
32D
330
70
100
AcDbEntity
  8
Sichtbar MD
100
AcDbLine
 10
348.5744130281089
 20
170.5242558025304
 30
0.0
 11
345.9763368167557
 21
175.0242558025304
 31
0.0
  0
ARC
  5
32E
330
70
100
AcDbEntity
  8
Sichtbar MD
100
AcDbCircle
 10
341.6462097978334
 20
169.5242558025304
 30
0.0
 40
6.999999999999992
100
AcDbArc
 50
51.78678929826198
 51
68.21321070173825
  0
ARC
  5
32F
330
70
100
AcDbEntity
  8
Sichtbar MD
100
AcDbCircle
 10
341.6462097978334
 20
169.5242558025304
 30
0.0
 40
6.999999999999984
100
AcDbArc
 50
351.7867892982619
 51
8.213210701738304
  0
ARC
  5
330
330
70
100
AcDbEntity
  8
Sichtbar MD
100
AcDbCircle
 10
341.6462097978334
 20
169.5242558025304
 30
0.0
 40
7.000000000000054
100
AcDbArc
 50
291.7867892982621
 51
308.2132107017383
  0
ARC
  5
331
330
70
100
AcDbEntity
  8
Sichtbar MD
100
AcDbCircle
 10
341.6462097978333
 20
169.5242558025303
 30
0.0
 40
6.99999999999995
100
AcDbArc
 50
231.7867892982615
 51
248.2132107017382
  0
ARC
  5
332
330
70
100
AcDbEntity
  8
Sichtbar MD
100
AcDbCircle
 10
341.6462097978334
 20
169.5242558025304
 30
0.0
 40
7.000000000000007
100
AcDbArc
 50
171.7867892982621
 51
188.2132107017381
  0
ARC
  5
333
330
70
100
AcDbEntity
  8
Sichtbar MD
100
AcDbCircle
 10
341.6462097978334
 20
169.5242558025304
 30
0.0
 40
7.000000000000063
100
AcDbArc
 50
111.7867892982622
 51
128.2132107017383
  0
SPLINE
  5
334
330
70
100
AcDbEntity
  8
Sichtbar MD
100
AcDbSpline
210
0.0
220
0.0
230
1.0
 70
     8
 71
     3
 72
    10
 73
     6
 74
     0
 42
0.000000001
 43
0.0000000001
 40
0.0
 40
0.0
 40
0.0
 40
0.0
 40
0.1115155618242914
 40
0.1115155618242914
 40
0.2565945490946158
 40
0.2565945490946158
 40
0.2565945490946158
 40
0.2565945490946158
 10
301.3262689811615
 20
165.3282273731222
 30
0.0
 10
301.0387562598253
 20
165.0943187184758
 30
0.0
 10
300.7681649066605
 20
164.8312728671377
 30
0.0
 10
300.1917980774603
 20
164.2054918643579
 30
0.0
 10
299.7142325377921
 20
163.6365646378548
 30
0.0
 10
299.487967264811
 20
163.2369897940797
 30
0.0
  0
LINE
  5
335
330
70
100
AcDbEntity
  8
Sichtbar MD
100
AcDbLine
 10
299.487967264811
 20
163.2369897940797
 30
0.0
 11
299.2801985204569
 21
163.2369897940797
 31
0.0
  0
SPLINE
  5
336
330
70
100
AcDbEntity
  8
Sichtbar MD
100
AcDbSpline
210
0.0
220
0.0
230
1.0
 70
     8
 71
     3
 72
    12
 73
     8
 74
     0
 42
0.000000001
 43
0.0000000001
 40
0.0
 40
0.0
 40
0.0
 40
0.0
 40
0.0714188717699735
 40
0.0714188717699735
 40
0.157561117706929
 40
0.157561117706929
 40
0.2857846714674218
 40
0.2857846714674218
 40
0.2857846714674218
 40
0.2857846714674218
 10
299.2801985204569
 20
163.2369897940797
 30
0.0
 10
299.1668394232765
 20
163.4429254872908
 30
0.0
 10
299.0310460543517
 20
163.644098584213
 30
0.0
 10
298.7180200245701
 20
164.0599588963819
 30
0.0
 10
298.520784936593
 20
164.2900384088929
 30
0.0
 10
298.062344226653
 20
164.7876339968931
 30
0.0
 10
297.7688995932008
 20
165.0705586663551
 30
0.0
 10
297.4554469396078
 20
165.3282273731222
 30
0.0
  0
LINE
  5
337
330
70
100
AcDbEntity
  8
Sichtbar MD
100
AcDbLine
 10
297.4554469396078
 20
165.6218136423174
 30
0.0
 11
297.4554469396078
 21
165.3282273731222
 31
0.0
  0
SPLINE
  5
338
330
70
100
AcDbEntity
  8
Sichtbar MD
100
AcDbSpline
210
0.0
220
0.0
230
1.0
 70
     8
 71
     3
 72
    12
 73
     8
 74
     0
 42
0.000000001
 43
0.0000000001
 40
0.0
 40
0.0
 40
0.0
 40
0.0
 40
0.0825763971649952
 40
0.0825763971649952
 40
0.1114015720931296
 40
0.1114015720931296
 40
0.2028510689286651
 40
0.2028510689286651
 40
0.2028510689286651
 40
0.2028510689286651
 10
297.4554469396078
 20
165.6218136423182
 30
0.0
 10
297.709153769067
 20
165.5157180590898
 30
0.0
 10
297.9694374121199
 20
165.3920304912763
 30
0.0
 10
298.2879353578408
 20
165.2017686494221
 30
0.0
 10
298.3603320920735
 20
165.1547718052105
 30
0.0
 10
298.6949725891009
 20
164.9200102816933
 30
0.0
 10
298.9785013456185
 20
164.6830868940438
 30
0.0
 10
299.2124478429502
 20
164.4790855483706
 30
0.0
  0
LINE
  5
339
330
70
100
AcDbEntity
  8
Sichtbar MD
100
AcDbLine
 10
301.3262689811615
 20
165.3282273731225
 30
0.0
 11
301.3262689811615
 21
165.6218136423182
 31
0.0
  0
SPLINE
  5
33A
330
70
100
AcDbEntity
  8
Sichtbar MD
100
AcDbSpline
210
0.0
220
0.0
230
1.0
 70
     8
 71
     3
 72
    10
 73
     6
 74
     0
 42
0.000000001
 43
0.0000000001
 40
0.0
 40
0.0
 40
0.0
 40
0.0
 40
0.0740095228060269
 40
0.0740095228060269
 40
0.1799790058720478
 40
0.1799790058720478
 40
0.1799790058720478
 40
0.1799790058720478
 10
299.5692680778192
 20
164.4790855483706
 30
0.0
 10
299.7549452194703
 20
164.6398209844268
 30
0.0
 10
299.9613081456831
 20
164.8132258102404
 30
0.0
 10
300.4330357927272
 20
165.1780518114011
 30
0.0
 10
300.7352444302169
 20
165.3832349245057
 30
0.0
 10
301.3262689811615
 20
165.6218136423182
 30
0.0
  0
LINE
  5
33B
330
70
100
AcDbEntity
  8
Sichtbar MD
100
AcDbLine
 10
299.5692680778192
 20
164.4790855483706
 30
0.0
 11
299.5692680778192
 21
170.1385254761032
 31
0.0
  0
LINE
  5
33C
330
70
100
AcDbEntity
  8
Sichtbar MD
100
AcDbLine
 10
299.2124478429502
 20
170.1385254761032
 30
0.0
 11
299.5692680778192
 21
170.1385254761032
 31
0.0
  0
LINE
  5
33D
330
70
100
AcDbEntity
  8
Sichtbar MD
100
AcDbLine
 10
299.2124478429502
 20
170.1385254761032
 30
0.0
 11
299.2124478429502
 21
164.4790855483706
 31
0.0
  0
LINE
  5
33E
330
70
100
AcDbEntity
  8
Sichtbar MD
100
AcDbLine
 10
309.9254750950414
 20
178.4673421194097
 30
0.0
 11
309.9254750950414
 21
178.8241623542784
 31
0.0
  0
LINE
  5
33F
330
70
100
AcDbEntity
  8
Sichtbar MD
100
AcDbLine
 10
309.9254750950414
 20
178.4673421194094
 30
0.0
 11
308.1639574798653
 21
178.4673421194094
 31
0.0
  0
LINE
  5
340
330
70
100
AcDbEntity
  8
Sichtbar MD
100
AcDbLine
 10
308.1639574798653
 20
176.710341216067
 30
0.0
 11
308.1639574798653
 21
178.4673421194094
 31
0.0
  0
LINE
  5
341
330
70
100
AcDbEntity
  8
Sichtbar MD
100
AcDbLine
 10
308.1639574798653
 20
176.710341216067
 30
0.0
 11
307.8071372449963
 21
176.710341216067
 31
0.0
  0
LINE
  5
342
330
70
100
AcDbEntity
  8
Sichtbar MD
100
AcDbLine
 10
307.8071372449963
 20
178.4673421194093
 30
0.0
 11
307.8071372449963
 21
176.710341216067
 31
0.0
  0
LINE
  5
343
330
70
100
AcDbEntity
  8
Sichtbar MD
100
AcDbLine
 10
307.8071372449963
 20
178.4673421194094
 30
0.0
 11
306.0501363416539
 21
178.4673421194094
 31
0.0
  0
LINE
  5
344
330
70
100
AcDbEntity
  8
Sichtbar MD
100
AcDbLine
 10
308.1639574798653
 20
178.8241623542784
 30
0.0
 11
309.9254750950414
 21
178.8241623542784
 31
0.0
  0
LINE
  5
345
330
70
100
AcDbEntity
  8
Sichtbar MD
100
AcDbLine
 10
308.1639574798653
 20
178.8241623542784
 30
0.0
 11
308.1639574798653
 21
180.5811632576207
 31
0.0
  0
LINE
  5
346
330
70
100
AcDbEntity
  8
Sichtbar MD
100
AcDbLine
 10
307.8071372449963
 20
180.5811632576207
 30
0.0
 11
308.1639574798653
 21
180.5811632576207
 31
0.0
  0
LINE
  5
347
330
70
100
AcDbEntity
  8
Sichtbar MD
100
AcDbLine
 10
307.8071372449962
 20
180.5811632576207
 30
0.0
 11
307.8071372449962
 21
178.8241623542784
 31
0.0
  0
LINE
  5
348
330
70
100
AcDbEntity
  8
Sichtbar MD
100
AcDbLine
 10
306.0501363416539
 20
178.8241623542784
 30
0.0
 11
307.8071372449963
 21
178.8241623542784
 31
0.0
  0
LINE
  5
349
330
70
100
AcDbEntity
  8
Sichtbar MD
100
AcDbLine
 10
306.0501363416539
 20
178.8241623542786
 30
0.0
 11
306.0501363416539
 21
178.4673421194094
 31
0.0
  0
LINE
  5
34A
330
70
100
AcDbEntity
  8
Sichtbar MD
100
AcDbLine
 10
310.4594351221417
 20
175.3355668335929
 30
0.0
 11
308.9121790245807
 21
175.3355668335929
 31
0.0
  0
LINE
  5
34B
330
70
100
AcDbEntity
  8
Sichtbar MD
100
AcDbLine
 10
308.9121790245807
 20
172.9880058579831
 30
0.0
 11
308.9121790245807
 21
175.3355668335929
 31
0.0
  0
LINE
  5
34C
330
70
100
AcDbEntity
  8
Sichtbar MD
100
AcDbLine
 10
310.4594351221417
 20
175.3355668335929
 30
0.0
 11
310.4594351221417
 21
172.6221521994466
 31
0.0
  0
LINE
  5
34D
330
70
100
AcDbEntity
  8
Sichtbar MD
100
AcDbLine
 10
308.9121790245807
 20
172.9880058579832
 30
0.0
 11
308.3214778050685
 21
172.9880058579832
 31
0.0
  0
LINE
  5
34E
330
70
100
AcDbEntity
  8
Sichtbar MD
100
AcDbLine
 10
311.0501363416539
 20
172.6221521994466
 30
0.0
 11
310.4594351221417
 21
172.6221521994466
 31
0.0
  0
LINE
  5
34F
330
70
100
AcDbEntity
  8
Sichtbar MD
100
AcDbLine
 10
308.3214778050685
 20
175.3355668335928
 30
0.0
 11
308.3214778050685
 21
172.9880058579832
 31
0.0
  0
LINE
  5
350
330
70
100
AcDbEntity
  8
Sichtbar MD
100
AcDbLine
 10
311.0501363416539
 20
172.6221521994466
 30
0.0
 11
311.0501363416539
 21
175.9986765896905
 31
0.0
  0
LINE
  5
351
330
70
100
AcDbEntity
  8
Sichtbar MD
100
AcDbLine
 10
308.3214778050685
 20
175.3355668335929
 30
0.0
 11
306.0501363416539
 21
175.3355668335929
 31
0.0
  0
LINE
  5
352
330
70
100
AcDbEntity
  8
Sichtbar MD
100
AcDbLine
 10
306.0501363416539
 20
175.9986765896905
 30
0.0
 11
311.0501363416539
 21
175.9986765896905
 31
0.0
  0
LINE
  5
353
330
70
100
AcDbEntity
  8
Sichtbar MD
100
AcDbLine
 10
306.0501363416539
 20
175.9986765896905
 30
0.0
 11
306.0501363416539
 21
175.3355668335929
 31
0.0
  0
LINE
  5
354
330
70
100
AcDbEntity
  8
Sichtbar MD
100
AcDbLine
 10
308.0600731076883
 20
163.2415065059135
 30
0.0
 11
308.0600731076883
 21
168.9054631454799
 31
0.0
  0
LINE
  5
355
330
70
100
AcDbEntity
  8
Sichtbar MD
100
AcDbLine
 10
308.0600731076883
 20
163.2415065059135
 30
0.0
 11
307.7032528728192
 21
163.2415065059135
 31
0.0
  0
LINE
  5
356
330
70
100
AcDbEntity
  8
Sichtbar MD
100
AcDbLine
 10
307.7032528728192
 20
168.9054631454799
 30
0.0
 11
307.7032528728192
 21
163.2415065059135
 31
0.0
  0
SPLINE
  5
357
330
70
100
AcDbEntity
  8
Sichtbar MD
100
AcDbSpline
210
0.0
220
0.0
230
1.0
 70
     8
 71
     3
 72
    10
 73
     6
 74
     0
 42
0.000000001
 43
0.0000000001
 40
0.0
 40
0.0
 40
0.0
 40
0.0
 40
0.0994175043307141
 40
0.0994175043307141
 40
0.1454874333746696
 40
0.1454874333746696
 40
0.1454874333746696
 40
0.1454874333746696
 10
307.7032528728192
 20
168.9054631454799
 30
0.0
 10
307.4536414349355
 20
168.6875188303128
 30
0.0
 10
307.1017170697184
 20
168.3897349009398
 30
0.0
 10
306.6973555360641
 20
168.1184541362345
 30
0.0
 10
306.4363234051882
 20
167.9560453412701
 30
0.0
 10
305.9462519694769
 20
167.7582183396985
 30
0.0
  0
LINE
  5
358
330
70
100
AcDbEntity
  8
Sichtbar MD
100
AcDbLine
 10
305.9462519694769
 20
168.0518046088945
 30
0.0
 11
305.9462519694769
 21
167.7582183396985
 31
0.0
  0
SPLINE
  5
359
330
70
100
AcDbEntity
  8
Sichtbar MD
100
AcDbSpline
210
0.0
220
0.0
230
1.0
 70
     8
 71
     3
 72
    12
 73
     8
 74
     0
 42
0.000000001
 43
0.0000000001
 40
0.0
 40
0.0
 40
0.0
 40
0.0
 40
0.0868839810754225
 40
0.0868839810754225
 40
0.0975668905455161
 40
0.0975668905455161
 40
0.1893543071198438
 40
0.1893543071198438
 40
0.1893543071198438
 40
0.1893543071198438
 10
309.8170740110306
 20
167.7582183396985
 30
0.0
 10
309.5499333789399
 20
167.8699316949364
 30
0.0
 10
309.2741334966109
 20
168.0017189077736
 30
0.0
 10
308.9965712900149
 20
168.1718927435482
 30
0.0
 10
308.9637397614214
 20
168.1925849388741
 30
0.0
 10
308.6478849438492
 20
168.4006675162605
 30
0.0
 10
308.3130904485837
 20
168.6828078854919
 30
0.0
 10
308.0600731076883
 20
168.9054631454799
 30
0.0
  0
LINE
  5
35A
330
70
100
AcDbEntity
  8
Sichtbar MD
100
AcDbLine
 10
309.8170740110306
 20
167.7582183396983
 30
0.0
 11
309.8170740110306
 21
168.0518046088945
 31
0.0
  0
SPLINE
  5
35B
330
70
100
AcDbEntity
  8
Sichtbar MD
100
AcDbSpline
210
0.0
220
0.0
230
1.0
 70
     8
 71
     3
 72
    10
 73
     6
 74
     0
 42
0.000000001
 43
0.0000000001
 40
0.0
 40
0.0
 40
0.0
 40
0.0
 40
0.1074517999700523
 40
0.1074517999700523
 40
0.1997931512840001
 40
0.1997931512840001
 40
0.1997931512840001
 40
0.1997931512840001
 10
307.9923224301814
 20
170.143042187937
 30
0.0
 10
308.1684478564905
 20
169.8312135643079
 30
0.0
 10
308.3968010734982
 20
169.524179613048
 30
0.0
 10
308.8220308957982
 20
169.012842337712
 30
0.0
 10
309.2445305673641
 20
168.5224547278408
 30
0.0
 10
309.8170740110306
 20
168.0518046088945
 30
0.0
  0
LINE
  5
35C
330
70
100
AcDbEntity
  8
Sichtbar MD
100
AcDbLine
 10
307.7845536858273
 20
170.143042187937
 30
0.0
 11
307.9923224301814
 21
170.143042187937
 31
0.0
  0
SPLINE
  5
35D
330
70
100
AcDbEntity
  8
Sichtbar MD
100
AcDbSpline
210
0.0
220
0.0
230
1.0
 70
     8
 71
     3
 72
    12
 73
     8
 74
     0
 42
0.000000001
 43
0.0000000001
 40
0.0
 40
0.0
 40
0.0
 40
0.0
 40
0.1168010472987373
 40
0.1168010472987373
 40
0.194844449535479
 40
0.194844449535479
 40
0.2826803257320158
 40
0.2826803257320158
 40
0.2826803257320158
 40
0.2826803257320158
 10
305.9462519694769
 20
168.0518046088945
 30
0.0
 10
306.2481585148991
 20
168.2974234933059
 30
0.0
 10
306.5320647048341
 20
168.5757286004207
 30
0.0
 10
306.9692919829514
 20
169.056058571707
 30
0.0
 10
307.1560888348404
 20
169.2783499315495
 30
0.0
 10
307.459293519587
 20
169.6569867875492
 30
0.0
 10
307.6569441344592
 20
169.9176891504146
 30
0.0
 10
307.7845536858273
 20
170.143042187937
 30
0.0
  0
LINE
  5
35E
330
70
100
AcDbEntity
  8
Sichtbar MD
100
AcDbLine
 10
299.3163322151271
 20
180.5811632576208
 30
0.0
 11
299.3163322151271
 21
176.7058245042332
 31
0.0
  0
LINE
  5
35F
330
70
100
AcDbEntity
  8
Sichtbar MD
100
AcDbLine
 10
299.3163322151272
 20
180.5811632576207
 30
0.0
 11
299.6821858736637
 21
180.5811632576207
 31
0.0
  0
LINE
  5
360
330
70
100
AcDbEntity
  8
Sichtbar MD
100
AcDbLine
 10
299.6821858736637
 20
176.7058245042332
 30
0.0
 11
299.3163322151272
 21
176.7058245042332
 31
0.0
  0
LINE
  5
361
330
70
100
AcDbEntity
  8
Sichtbar MD
100
AcDbLine
 10
299.6821858736637
 20
176.7058245042332
 30
0.0
 11
299.6821858736637
 21
180.5811632576207
 31
0.0
  0
LINE
  5
362
330
70
100
AcDbEntity
  8
Sichtbar MD
100
AcDbLine
 10
297.5593313117848
 20
175.9986765896903
 30
0.0
 11
297.5593313117848
 21
175.3355668335929
 31
0.0
  0
LINE
  5
363
330
70
100
AcDbEntity
  8
Sichtbar MD
100
AcDbLine
 10
297.5593313117848
 20
175.9986765896904
 30
0.0
 11
302.5593313117848
 21
175.9986765896904
 31
0.0
  0
LINE
  5
364
330
70
100
AcDbEntity
  8
Sichtbar MD
100
AcDbLine
 10
299.8306727751995
 20
175.3355668335929
 30
0.0
 11
297.5593313117848
 21
175.3355668335929
 31
0.0
  0
LINE
  5
365
330
70
100
AcDbEntity
  8
Sichtbar MD
100
AcDbLine
 10
302.5593313117848
 20
172.6221521994466
 30
0.0
 11
302.5593313117848
 21
175.9986765896904
 31
0.0
  0
LINE
  5
366
330
70
100
AcDbEntity
  8
Sichtbar MD
100
AcDbLine
 10
299.8306727751995
 20
175.3355668335929
 30
0.0
 11
299.8306727751995
 21
172.9880058579832
 31
0.0
  0
LINE
  5
367
330
70
100
AcDbEntity
  8
Sichtbar MD
100
AcDbLine
 10
302.5593313117848
 20
172.6221521994466
 30
0.0
 11
301.9686300922726
 21
172.6221521994466
 31
0.0
  0
LINE
  5
368
330
70
100
AcDbEntity
  8
Sichtbar MD
100
AcDbLine
 10
300.4213739947116
 20
172.9880058579831
 30
0.0
 11
299.8306727751995
 21
172.9880058579831
 31
0.0
  0
LINE
  5
369
330
70
100
AcDbEntity
  8
Sichtbar MD
100
AcDbLine
 10
301.9686300922726
 20
175.3355668335929
 30
0.0
 11
301.9686300922726
 21
172.6221521994466
 31
0.0
  0
LINE
  5
36A
330
70
100
AcDbEntity
  8
Sichtbar MD
100
AcDbLine
 10
300.4213739947116
 20
172.9880058579831
 30
0.0
 11
300.4213739947116
 21
175.3355668335929
 31
0.0
  0
LINE
  5
36B
330
70
100
AcDbEntity
  8
Sichtbar MD
100
AcDbLine
 10
301.9686300922726
 20
175.3355668335929
 30
0.0
 11
300.4213739947116
 21
175.3355668335929
 31
0.0
  0
LINE
  5
36C
330
70
100
AcDbEntity
  8
Sichtbar MD
100
AcDbLine
 10
330.2462097978333
 20
134.5242558025304
 30
0.0
 11
330.2462097978333
 21
204.5242558025304
 31
0.0
  0
LINE
  5
36D
330
70
100
AcDbEntity
  8
Sichtbar MD
100
AcDbLine
 10
331.7462097978333
 20
203.0242558025304
 30
0.0
 11
331.7462097978333
 21
136.0242558025304
 31
0.0
  0
LINE
  5
36E
330
70
100
AcDbEntity
  8
Sichtbar MD
100
AcDbLine
 10
295.5462097978333
 20
204.5242558025304
 30
0.0
 11
295.5462097978333
 21
134.5242558025304
 31
0.0
  0
LINE
  5
36F
330
70
100
AcDbEntity
  8
Sichtbar MD
100
AcDbLine
 10
294.0462097978334
 20
136.0242558025304
 30
0.0
 11
294.0462097978334
 21
203.0242558025304
 31
0.0
  0
LINE
  5
370
330
70
100
AcDbEntity
  8
Sichtbar MD
100
AcDbLine
 10
331.7462097978333
 20
136.0242558025304
 30
0.0
 11
330.2462097978333
 21
134.5242558025304
 31
0.0
  0
LINE
  5
371
330
70
100
AcDbEntity
  8
Sichtbar MD
100
AcDbLine
 10
331.7462097978333
 20
203.0242558025304
 30
0.0
 11
330.2462097978333
 21
204.5242558025304
 31
0.0
  0
LINE
  5
372
330
70
100
AcDbEntity
  8
Sichtbar MD
100
AcDbLine
 10
294.0462097978334
 20
203.0242558025304
 30
0.0
 11
295.5462097978333
 21
204.5242558025304
 31
0.0
  0
LINE
  5
373
330
70
100
AcDbEntity
  8
Sichtbar MD
100
AcDbLine
 10
294.0462097978334
 20
136.0242558025304
 30
0.0
 11
295.5462097978333
 21
134.5242558025304
 31
0.0
  0
LINE
  5
374
330
70
100
AcDbEntity
  8
Sichtbar MD
100
AcDbLine
 10
332.0462097978333
 20
163.6227324208663
 30
0.0
 11
332.0462097978333
 21
184.5242558025304
 31
0.0
  0
LINE
  5
375
330
70
100
AcDbEntity
  8
Sichtbar MD
100
AcDbLine
 10
332.0462097978333
 20
159.0996083229839
 30
0.0
 11
332.0462097978333
 21
160.1170760732486
 31
0.0
  0
LINE
  5
376
330
70
100
AcDbEntity
  8
Sichtbar MD
100
AcDbLine
 10
332.0462097978333
 20
154.5242558025304
 30
0.0
 11
332.0462097978333
 21
156.9059585385722
 31
0.0
  0
LINE
  5
377
330
70
100
AcDbEntity
  8
Sichtbar MD
100
AcDbLine
 10
312.7462097978333
 20
204.5242558025304
 30
0.0
 11
330.2462097978333
 21
204.5242558025304
 31
0.0
  0
LINE
  5
378
330
70
100
AcDbEntity
  8
Sichtbar MD
100
AcDbLine
 10
312.7462097978333
 20
134.5242558025304
 30
0.0
 11
330.2462097978333
 21
134.5242558025304
 31
0.0
  0
LINE
  5
379
330
70
100
AcDbEntity
  8
Sichtbar MD
100
AcDbLine
 10
295.5462097978333
 20
204.5242558025304
 30
0.0
 11
312.7462097978333
 21
204.5242558025304
 31
0.0
  0
LINE
  5
37A
330
70
100
AcDbEntity
  8
Sichtbar MD
100
AcDbLine
 10
295.5462097978333
 20
134.5242558025304
 30
0.0
 11
312.7462097978333
 21
134.5242558025304
 31
0.0
  0
LINE
  5
37B
330
70
100
AcDbEntity
  8
Sichtbar MD
100
AcDbLine
 10
331.7462097978333
 20
184.5242558025304
 30
0.0
 11
332.0462097978333
 21
184.5242558025304
 31
0.0
  0
LINE
  5
37C
330
70
100
AcDbEntity
  8
Sichtbar MD
100
AcDbLine
 10
331.7462097978333
 20
154.5242558025304
 30
0.0
 11
332.0462097978333
 21
154.5242558025304
 31
0.0
  0
SPLINE
  5
37D
330
70
100
AcDbEntity
  8
Sichtbar MD
100
AcDbSpline
210
0.0
220
0.0
230
1.0
 70
    28
 71
     2
 72
     6
 73
     3
 74
     0
 42
0.000000001
 43
0.0000000001
 40
0.0
 40
0.0
 40
0.0
 40
0.2349758515504449
 40
0.2349758515504449
 40
0.2349758515504449
 10
55.74031789536478
 20
158.5242558025304
 30
0.0
 41
1.0
 10
56.34276731038809
 20
158.5242558025304
 30
0.0
 41
1.001271971846118
 10
56.97220175770688
 20
158.5242558025304
 30
0.0
 41
1.000003505644522
  0
LINE
  5
37E
330
70
100
AcDbEntity
  8
Sichtbar MD
100
AcDbLine
 10
46.32974353301221
 20
158.5242558025304
 30
0.0
 11
55.74031789536478
 21
158.5242558025304
 31
0.0
  0
SPLINE
  5
37F
330
70
100
AcDbEntity
  8
Sichtbar MD
100
AcDbSpline
210
0.0
220
0.0
230
1.0
 70
    28
 71
     2
 72
     6
 73
     3
 74
     0
 42
0.000000001
 43
0.0000000001
 40
0.00032425187757
 40
0.00032425187757
 40
0.00032425187757
 40
0.2353001034280148
 40
0.2353001034280148
 40
0.2353001034280148
 10
45.09785967066892
 20
158.5242558025304
 30
0.0
 41
1.000003505644522
 10
45.72729411798836
 20
158.5242558025304
 30
0.0
 41
1.001271971846118
 10
46.32974353301221
 20
158.5242558025304
 30
0.0
 41
1.0
  0
ARC
  5
380
330
70
100
AcDbEntity
  8
Sichtbar MD
100
AcDbCircle
 10
51.03503071418448
 20
169.5242558025304
 30
0.0
 40
12.50000000000003
100
AcDbArc
 50
241.6423634236721
 51
298.357636576328
  0
ARC
  5
381
330
70
100
AcDbEntity
  8
Sichtbar MD
100
AcDbCircle
 10
51.03503071418448
 20
169.5242558025304
 30
0.0
 40
12.50000000000003
100
AcDbArc
 50
61.64236342367198
 51
118.3576365763279
  0
SPLINE
  5
382
330
70
100
AcDbEntity
  8
Sichtbar MD
100
AcDbSpline
210
0.0
220
0.0
230
1.0
 70
    28
 71
     2
 72
     6
 73
     3
 74
     0
 42
0.000000001
 43
0.0000000001
 40
0.0
 40
0.0
 40
0.0
 40
0.2349758515504449
 40
0.2349758515504449
 40
0.2349758515504449
 10
46.32974353301221
 20
180.5242558025304
 30
0.0
 41
1.0
 10
45.72729411798836
 20
180.5242558025304
 30
0.0
 41
1.001271971846118
 10
45.09785967066892
 20
180.5242558025304
 30
0.0
 41
1.000003505644522
  0
LINE
  5
383
330
70
100
AcDbEntity
  8
Sichtbar MD
100
AcDbLine
 10
55.74031789536478
 20
180.5242558025304
 30
0.0
 11
46.32974353301221
 21
180.5242558025304
 31
0.0
  0
SPLINE
  5
384
330
70
100
AcDbEntity
  8
Sichtbar MD
100
AcDbSpline
210
0.0
220
0.0
230
1.0
 70
    28
 71
     2
 72
     6
 73
     3
 74
     0
 42
0.000000001
 43
0.0000000001
 40
0.00032425187757
 40
0.00032425187757
 40
0.00032425187757
 40
0.2353001034280148
 40
0.2353001034280148
 40
0.2353001034280148
 10
56.97220175770688
 20
180.5242558025304
 30
0.0
 41
1.000003505644522
 10
56.34276731038809
 20
180.5242558025304
 30
0.0
 41
1.001271971846118
 10
55.74031789536478
 20
180.5242558025304
 30
0.0
 41
1.0
  0
ARC
  5
385
330
70
100
AcDbEntity
  8
Sichtbar MD
100
AcDbCircle
 10
51.03503071418849
 20
169.5242558025304
 30
0.0
 40
11.96410161513779
100
AcDbArc
 50
293.1589811070446
 51
66.84101889295544
  0
ARC
  5
386
330
70
100
AcDbEntity
  8
Sichtbar MD
100
AcDbCircle
 10
51.03503071418849
 20
169.5242558025304
 30
0.0
 40
11.96410161513779
100
AcDbArc
 50
113.1589811070445
 51
246.8410188929554
  0
ARC
  5
387
330
70
100
AcDbEntity
  8
Sichtbar MD
100
AcDbCircle
 10
51.03503071418789
 20
169.5242558025304
 30
0.0
 40
12.50000000000004
100
AcDbArc
 50
298.357636576328
 51
61.64236342367203
  0
ARC
  5
388
330
70
100
AcDbEntity
  8
Sichtbar MD
100
AcDbCircle
 10
51.03503071418789
 20
169.5242558025304
 30
0.0
 40
12.50000000000004
100
AcDbArc
 50
199.0005003800118
 51
241.6423634236719
  0
ARC
  5
389
330
70
100
AcDbEntity
  8
Sichtbar MD
100
AcDbCircle
 10
51.03503071418789
 20
169.5242558025304
 30
0.0
 40
12.50000000000003
100
AcDbArc
 50
118.3576365763278
 51
160.999499619988
  0
CIRCLE
  5
38A
330
70
100
AcDbEntity
  8
Sichtbar MD
100
AcDbCircle
 10
51.03503071420333
 20
169.5242558025304
 30
0.0
 40
7.750000000000024
  0
CIRCLE
  5
38B
330
70
100
AcDbEntity
  8
Sichtbar MD
100
AcDbCircle
 10
51.03503071420306
 20
169.5242558025304
 30
0.0
 40
7.250000000000023
  0
CIRCLE
  5
38C
330
70
100
AcDbEntity
  8
Sichtbar MD
100
AcDbCircle
 10
51.03503071420205
 20
169.5242558025304
 30
0.0
 40
5.267393842484626
  0
CIRCLE
  5
38D
330
70
100
AcDbEntity
  8
Sichtbar MD
100
AcDbCircle
 10
51.03503071420154
 20
169.5242558025304
 30
0.0
 40
4.283000000000013
  0
ARC
  5
38E
330
70
100
AcDbEntity
  8
Sichtbar MD
100
AcDbCircle
 10
51.03503071419524
 20
169.5242558025304
 30
0.0
 40
10.00000000000322
100
AcDbArc
 50
154.4306857792709
 51
205.5693142207291
  0
SPLINE
  5
38F
330
70
100
AcDbEntity
  8
Sichtbar MD
100
AcDbSpline
210
0.0
220
0.0
230
1.0
 70
    12
 71
     2
 72
     6
 73
     3
 74
     0
 42
0.000000001
 43
0.0000000001
 40
0.0
 40
0.0
 40
0.0
 40
0.883735125161391
 40
0.883735125161391
 40
0.883735125161391
 10
42.01439263114679
 20
173.8402827457409
 30
0.0
 41
1.0
 10
41.95132848122642
 20
169.5242558025304
 30
0.0
 41
1.100872721663712
 10
42.01439263114679
 20
165.2082288593199
 30
0.0
 41
1.0
  0
SPLINE
  5
390
330
70
100
AcDbEntity
  8
Sichtbar MD
100
AcDbSpline
210
0.0
220
0.0
230
1.0
 70
     8
 71
     3
 72
     8
 73
     4
 74
     0
 42
0.000000001
 43
0.0000000001
 40
0.8527040497974793
 40
0.8527040497974793
 40
0.8527040497974793
 40
0.8527040497974793
 40
1.12417684490116
 40
1.12417684490116
 40
1.12417684490116
 40
1.12417684490116
 10
38.83505336252186
 20
166.8021396653529
 30
0.0
 10
38.64194384898454
 20
167.6699447942764
 30
0.0
 10
38.53503071418393
 20
168.6193464855182
 30
0.0
 10
38.53503071418393
 20
169.5242558025304
 30
0.0
  0
SPLINE
  5
391
330
70
100
AcDbEntity
  8
Sichtbar MD
100
AcDbSpline
210
0.0
220
0.0
230
1.0
 70
     8
 71
     3
 72
     8
 73
     4
 74
     0
 42
0.000000001
 43
0.0000000001
 40
1.12417684490116
 40
1.12417684490116
 40
1.12417684490116
 40
1.12417684490116
 40
1.395649640004842
 40
1.395649640004842
 40
1.395649640004842
 40
1.395649640004842
 10
38.53503071418393
 20
169.5242558025304
 30
0.0
 10
38.53503071418393
 20
170.4291651195427
 30
0.0
 10
38.64194384898454
 20
171.3785668107843
 30
0.0
 10
38.83505336252187
 20
172.2463719397079
 30
0.0
  0
SPLINE
  5
392
330
70
100
AcDbEntity
  8
Sichtbar MD
100
AcDbSpline
210
0.0
220
0.0
230
1.0
 70
     8
 71
     3
 72
    14
 73
    10
 74
     0
 42
0.000000001
 43
0.0000000001
 40
3.135685909096615
 40
3.135685909096615
 40
3.135685909096615
 40
3.135685909096615
 40
3.296338349729492
 40
3.296338349729492
 40
3.548777889413634
 40
3.548777889413634
 40
3.801217429097775
 40
3.801217429097775
 40
3.961869869730652
 40
3.961869869730652
 40
3.961869869730652
 40
3.961869869730652
 10
39.21608406061505
 20
173.5939609515553
 30
0.0
 10
39.14638867894265
 20
173.135796769664
 30
0.0
 10
39.07442010215397
 20
172.6293839313208
 30
0.0
 10
38.92410558751674
 20
171.2640981041031
 30
0.0
 10
38.86996720472713
 20
170.3657209348109
 30
0.0
 10
38.86996720472713
 20
168.68279067025
 30
0.0
 10
38.92410558751674
 20
167.7844135009577
 30
0.0
 10
39.07442010215397
 20
166.41912767374
 30
0.0
 10
39.14638867894265
 20
165.9127148353969
 30
0.0
 10
39.21608406061505
 20
165.4545506535055
 30
0.0
  0
CIRCLE
  5
393
330
70
100
AcDbEntity
  8
Sichtbar MD
100
AcDbCircle
 10
51.03503071419924
 20
169.5242558025304
 30
0.0
 40
3.000000000000009
  0
ARC
  5
394
330
70
100
AcDbEntity
  8
Sichtbar schmal MD
100
AcDbCircle
 10
51.03503071420185
 20
169.5242558025304
 30
0.0
 40
4.863999999999995
100
AcDbArc
 50
170.0000000000019
 51
79.99999999995087
  0
ARC
  5
395
330
70
100
AcDbEntity
  8
Sichtbar MD
100
AcDbCircle
 10
51.03503071420288
 20
169.5242558025304
 30
0.0
 40
10.00000000000004
100
AcDbArc
 50
205.5693142207362
 51
154.4306857792638
  0
CIRCLE
  5
396
330
70
100
AcDbEntity
  8
Sichtbar MD
100
AcDbCircle
 10
51.03503071420333
 20
169.5242558025304
 30
0.0
 40
8.500000000000044
  0
CIRCLE
  5
397
330
70
100
AcDbEntity
  8
Sichtbar MD
100
AcDbCircle
 10
51.03503071415645
 20
169.5242558025305
 30
0.0
 40
0.8499999999999994
  0
CIRCLE
  5
398
330
70
100
AcDbEntity
  8
Sichtbar MD
100
AcDbCircle
 10
51.03503071415623
 20
169.5242558025305
 30
0.0
 40
0.3999999999999998
  0
CIRCLE
  5
399
330
70
100
AcDbEntity
  8
Sichtbar MD
100
AcDbCircle
 10
51.03503071417351
 20
169.5242558025304
 30
0.0
 40
2.000000000000001
  0
ARC
  5
39A
330
70
100
AcDbEntity
  8
Sichtbar MD
100
AcDbCircle
 10
52.53503071416396
 20
204.9475112288741
 30
0.0
 40
0.4999999999999975
100
AcDbArc
 50
101.1165088344335
 51
243.2486509989306
  0
LINE
  5
39B
330
70
100
AcDbEntity
  8
Sichtbar MD
100
AcDbLine
 10
54.24711588618395
 20
205.7934821239538
 30
0.0
 11
52.43862836324578
 21
205.438129804488
 31
0.0
  0
ARC
  5
39C
330
70
100
AcDbEntity
  8
Sichtbar MD
100
AcDbCircle
 10
54.03503071416396
 20
206.8728429903045
 30
0.0
 40
1.099999999999994
100
AcDbArc
 50
281.1165088344341
 51
90.0
  0
LINE
  5
39D
330
70
100
AcDbEntity
  8
Sichtbar MD
100
AcDbLine
 10
48.03503071416397
 20
207.9728429903045
 30
0.0
 11
54.03503071416396
 21
207.9728429903045
 31
0.0
  0
ARC
  5
39E
330
70
100
AcDbEntity
  8
Sichtbar MD
100
AcDbCircle
 10
48.03503071416397
 20
206.8728429903045
 30
0.0
 40
1.100000000000001
100
AcDbArc
 50
90.00000000000047
 51
258.8834911655658
  0
LINE
  5
39F
330
70
100
AcDbEntity
  8
Sichtbar MD
100
AcDbLine
 10
49.63143306508214
 20
205.438129804488
 30
0.0
 11
47.82294554214397
 21
205.7934821239538
 31
0.0
  0
ARC
  5
3A0
330
70
100
AcDbEntity
  8
Sichtbar MD
100
AcDbCircle
 10
49.53503071416395
 20
204.9475112288741
 30
0.0
 40
0.5000000000000031
100
AcDbArc
 50
296.7513490010749
 51
78.8834911655655
  0
ARC
  5
3A1
330
70
100
AcDbEntity
  8
Sichtbar MD
100
AcDbCircle
 10
49.53503071416396
 20
204.9475112288741
 30
0.0
 40
1.099999999999996
100
AcDbArc
 50
337.1794253896107
 51
78.88349116556669
  0
LINE
  5
3A2
330
70
100
AcDbEntity
  8
Sichtbar MD
100
AcDbLine
 10
47.93862836324578
 20
206.3822244146906
 30
0.0
 11
49.74711588618395
 21
206.0268720952247
 31
0.0
  0
ARC
  5
3A3
330
70
100
AcDbEntity
  8
Sichtbar MD
100
AcDbCircle
 10
48.03503071416397
 20
206.8728429903045
 30
0.0
 40
0.4999999999999984
100
AcDbArc
 50
90.0
 51
258.8834911655665
  0
LINE
  5
3A4
330
70
100
AcDbEntity
  8
Sichtbar MD
100
AcDbLine
 10
54.03503071416396
 20
207.3728429903045
 30
0.0
 11
48.03503071416397
 21
207.3728429903045
 31
0.0
  0
ARC
  5
3A5
330
70
100
AcDbEntity
  8
Sichtbar MD
100
AcDbCircle
 10
54.03503071416396
 20
206.8728429903045
 30
0.0
 40
0.5000000000000026
100
AcDbArc
 50
281.1165088344345
 51
90.0
  0
LINE
  5
3A6
330
70
100
AcDbEntity
  8
Sichtbar MD
100
AcDbLine
 10
52.32294554214398
 20
206.0268720952247
 30
0.0
 11
54.13143306508214
 21
206.3822244146906
 31
0.0
  0
ARC
  5
3A7
330
70
100
AcDbEntity
  8
Sichtbar MD
100
AcDbCircle
 10
52.53503071416396
 20
204.9475112288741
 30
0.0
 40
1.099999999999996
100
AcDbArc
 50
101.1165088344341
 51
202.8205746103894
  0
ARC
  5
3A8
330
70
100
AcDbEntity
  8
Sichtbar MD
100
AcDbCircle
 10
42.75283523974692
 20
159.9059585385722
 30
0.0
 40
3.000000000000002
100
AcDbArc
 50
230.202790755216
 51
310.2027907552159
  0
ARC
  5
3A9
330
70
100
AcDbEntity
  8
Sichtbar MD
100
AcDbCircle
 10
40.17085568041189
 20
162.9610168940175
 30
0.0
 40
3.0
100
AcDbArc
 50
130.2027907552155
 51
210.2027907552156
  0
LINE
  5
3AA
330
70
100
AcDbEntity
  8
Sichtbar MD
100
AcDbLine
 10
44.89143459745636
 20
157.7854818016088
 30
0.0
 11
44.68931990924818
 21
157.6146647719882
 31
0.0
  0
LINE
  5
3AB
330
70
100
AcDbEntity
  8
Sichtbar MD
100
AcDbLine
 10
38.23437101091064
 20
165.2523106606014
 30
0.0
 11
38.43648569911882
 21
165.4231276902221
 31
0.0
  0
LINE
  5
3AC
330
70
100
AcDbEntity
  8
Sichtbar MD
100
AcDbLine
 10
40.8326184079253
 20
157.6010144353911
 30
0.0
 11
39.64602737974991
 21
158.589546895526
 31
0.0
  0
LINE
  5
3AD
330
70
100
AcDbEntity
  8
Sichtbar MD
100
AcDbLine
 10
39.64602737974991
 20
158.589546895526
 30
0.0
 11
42.16406786478635
 21
160.7176663307419
 31
0.0
  0
LINE
  5
3AE
330
70
100
AcDbEntity
  8
Sichtbar MD
100
AcDbLine
 10
40.87307808511883
 20
162.2451955084646
 30
0.0
 11
38.3550376000824
 21
160.1170760732486
 31
0.0
  0
LINE
  5
3AF
330
70
100
AcDbEntity
  8
Sichtbar MD
100
AcDbLine
 10
38.3550376000824
 20
160.1170760732486
 30
0.0
 11
37.57810478071262
 21
161.4518307649703
 31
0.0
  0
ARC
  5
3B0
330
70
100
AcDbEntity
  8
Sichtbar MD
100
AcDbCircle
 10
51.56966592638646
 20
169.976102225414
 30
0.0
 40
13.9
100
AcDbArc
 50
156.3711185471946
 51
199.1202666026706
  0
ARC
  5
3B1
330
70
100
AcDbEntity
  8
Sichtbar MD
100
AcDbCircle
 10
51.56966592638646
 20
169.976102225414
 30
0.0
 40
13.90000000000001
100
AcDbArc
 50
241.2853149077607
 51
154.207136120062
  0
CIRCLE
  5
3B2
330
70
100
AcDbEntity
  8
Sichtbar MD
100
AcDbCircle
 10
42.36007850949494
 20
158.7884381994871
 30
0.0
 40
1.0
  0
ARC
  5
3B3
330
70
100
AcDbEntity
  8
Sichtbar MD
100
AcDbCircle
 10
39.00350508235943
 20
162.760014061566
 30
0.0
 40
1.000000000000001
100
AcDbArc
 50
99.69912743726196
 51
15.32190179961471
  0
LINE
  5
3B4
330
70
100
AcDbEntity
  8
Sichtbar MD
100
AcDbLine
 10
40.35795246215559
 20
176.0242558025304
 30
0.0
 11
38.83503071418685
 21
176.0242558025304
 31
0.0
  0
LINE
  5
3B5
330
70
100
AcDbEntity
  8
Sichtbar MD
100
AcDbLine
 10
38.83503071418685
 20
163.0242558025304
 30
0.0
 11
40.35795246215559
 21
163.0242558025304
 31
0.0
  0
LINE
  5
3B6
330
70
100
AcDbEntity
  8
Sichtbar MD
100
AcDbLine
 10
38.83503071418814
 20
168.5242558025304
 30
0.0
 11
38.89250722941205
 21
168.5242558025304
 31
0.0
  0
LINE
  5
3B7
330
70
100
AcDbEntity
  8
Sichtbar MD
100
AcDbLine
 10
38.83503071418736
 20
164.0242558025304
 30
0.0
 11
38.83503071418814
 21
168.5242558025304
 31
0.0
  0
LINE
  5
3B8
330
70
100
AcDbEntity
  8
Sichtbar MD
100
AcDbLine
 10
39.81005855386559
 20
164.0242558025304
 30
0.0
 11
38.83503071418736
 21
164.0242558025304
 31
0.0
  0
LINE
  5
3B9
330
70
100
AcDbEntity
  8
Sichtbar MD
100
AcDbLine
 10
38.83503071418736
 20
175.0242558025304
 30
0.0
 11
39.81005855386559
 21
175.0242558025304
 31
0.0
  0
LINE
  5
3BA
330
70
100
AcDbEntity
  8
Sichtbar MD
100
AcDbLine
 10
38.83503071418814
 20
170.5242558025304
 30
0.0
 11
38.83503071418736
 21
175.0242558025304
 31
0.0
  0
LINE
  5
3BB
330
70
100
AcDbEntity
  8
Sichtbar MD
100
AcDbLine
 10
38.89250722941205
 20
170.5242558025304
 30
0.0
 11
38.83503071418814
 21
170.5242558025304
 31
0.0
  0
LINE
  5
3BC
330
70
100
AcDbEntity
  8
Sichtbar MD
100
AcDbLine
 10
38.83503071418736
 20
175.0242558025304
 30
0.0
 11
38.83503071418685
 21
176.0242558025304
 31
0.0
  0
LINE
  5
3BD
330
70
100
AcDbEntity
  8
Sichtbar MD
100
AcDbLine
 10
38.83503071418814
 20
168.5242558025304
 30
0.0
 11
38.83503071418814
 21
170.5242558025304
 31
0.0
  0
LINE
  5
3BE
330
70
100
AcDbEntity
  8
Sichtbar MD
100
AcDbLine
 10
38.83503071418684
 20
163.0242558025304
 30
0.0
 11
38.83503071418736
 21
164.0242558025304
 31
0.0
  0
CIRCLE
  5
3BF
330
70
100
AcDbEntity
  8
Sichtbar MD
100
AcDbCircle
 10
51.03503071418273
 20
169.5242558025304
 30
0.0
 40
35.00000000000001
  0
CIRCLE
  5
3C0
330
70
100
AcDbEntity
  8
Sichtbar MD
100
AcDbCircle
 10
51.03503071418318
 20
169.5242558025304
 30
0.0
 40
33.50000000000001
  0
ARC
  5
3C1
330
70
100
AcDbEntity
  8
Sichtbar MD
100
AcDbCircle
 10
51.03503071418948
 20
169.5242558025342
 30
0.0
 40
13.00000000000727
100
AcDbArc
 50
210.0000000000008
 51
211.8966505471079
  0
ARC
  5
3C2
330
70
100
AcDbEntity
  8
Sichtbar MD
100
AcDbCircle
 10
51.03503071418338
 20
169.5242558025305
 30
0.0
 40
13.00000000000014
100
AcDbArc
 50
215.7910649694454
 51
224.6145165409858
  0
ARC
  5
3C3
330
70
100
AcDbEntity
  8
Sichtbar MD
100
AcDbCircle
 10
51.03503071418239
 20
169.5242558025293
 30
0.0
 40
12.9999999999986
100
AcDbArc
 50
228.5089309633226
 51
233.6119887791409
  0
ARC
  5
3C4
330
70
100
AcDbEntity
  8
Sichtbar MD
100
AcDbCircle
 10
51.03503071418337
 20
169.5242558025305
 30
0.0
 40
15.00000000000013
100
AcDbArc
 50
216.3802370259413
 51
224.0253444844899
  0
ARC
  5
3C5
330
70
100
AcDbEntity
  8
Sichtbar MD
100
AcDbCircle
 10
51.03503071418327
 20
169.5242558025304
 30
0.0
 40
15.0
100
AcDbArc
 50
237.2371835266926
 51
203.1683979837388
  0
LINE
  5
3C6
330
70
100
AcDbEntity
  8
Mittelpunktmarkierung MD
  6
Continuous
100
AcDbLine
 10
89.45891488974627
 20
169.5242558025304
 30
0.0
 11
13.13816843578257
 21
169.5242558025304
 31
0.0
  0
LINE
  5
3C7
330
70
100
AcDbEntity
  8
Mittelpunktmarkierung MD
  6
Continuous
100
AcDbLine
 10
51.03503071418318
 20
210.5199815966361
 30
0.0
 11
51.03503071418318
 21
131.3681772404297
 31
0.0
  0
LINE
  5
3C8
330
70
100
AcDbEntity
  8
Mittelpunktmarkierung MD
  6
Continuous
100
AcDbLine
 10
45.86007850949494
 20
158.7884381994871
 30
0.0
 11
38.86007850949495
 21
158.7884381994871
 31
0.0
  0
LINE
  5
3C9
330
70
100
AcDbEntity
  8
Mittelpunktmarkierung MD
  6
Continuous
100
AcDbLine
 10
42.36007850949494
 20
162.2884381994871
 30
0.0
 11
42.36007850949494
 21
155.2884381994871
 31
0.0
  0
LINE
  5
3CA
330
70
100
AcDbEntity
  8
Mittelpunktmarkierung MD
  6
Continuous
100
AcDbLine
 10
42.50350508235943
 20
162.760014061566
 30
0.0
 11
35.50350508235943
 21
162.760014061566
 31
0.0
  0
LINE
  5
3CB
330
70
100
AcDbEntity
  8
Mittelpunktmarkierung MD
  6
Continuous
100
AcDbLine
 10
39.00350508235943
 20
166.260014061566
 30
0.0
 11
39.00350508235943
 21
159.260014061566
 31
0.0
  0
LINE
  5
3CC
330
70
100
AcDbEntity
  8
Skizziergeometrie MD
100
AcDbLine
 10
364.6383869975451
 20
175.7185555562186
 30
0.0
 11
398.1462097978334
 21
165.2082288593199
 31
0.0
  0
LINE
  5
3CD
330
70
100
AcDbEntity
  8
Skizziergeometrie MD
100
AcDbLine
 10
364.638386997545
 20
163.3299560488423
 30
0.0
 11
398.1462097978334
 21
173.8402827457409
 31
0.0
  0
LINE
  5
3CE
330
70
100
AcDbEntity
  8
Skizziergeometrie MD
100
AcDbLine
 10
151.646209797833
 20
173.3972391487382
 30
0.0
 11
160.646209797833
 21
165.6512724563234
 31
0.0
  0
LINE
  5
3CF
330
70
100
AcDbEntity
  8
Skizziergeometrie MD
100
AcDbLine
 10
151.646209797833
 20
165.6512724563234
 30
0.0
 11
160.6462097978331
 21
173.3972391487382
 31
0.0
  0
LINE
  5
3D0
330
70
100
AcDbEntity
  8
Skizziergeometrie MD
100
AcDbLine
 10
131.6755089385328
 20
173.3972391487384
 30
0.0
 11
135.6755089385328
 21
165.6512724563234
 31
0.0
  0
LINE
  5
3D1
330
70
100
AcDbEntity
  8
Skizziergeometrie MD
100
AcDbLine
 10
131.6755089385327
 20
165.6512724563234
 30
0.0
 11
135.6755089385329
 21
173.3972391487384
 31
0.0
  0
LINE
  5
3D2
330
70
100
AcDbEntity
  8
Mittellinie MD
  6
Continuous
100
AcDbLine
 10
128.8360299944149
 20
169.5242558025308
 30
0.0
 11
403.1142390733847
 21
169.52425580253
 31
0.0
  0
LINE
  5
3D3
330
70
100
AcDbEntity
  8
Mittelpunktmarkierung MD
  6
Continuous
100
AcDbLine
 10
347.1462097978334
 20
169.5242558025304
 30
0.0
 11
336.1462097978333
 21
169.5242558025304
 31
0.0
  0
LINE
  5
3D4
330
70
100
AcDbEntity
  8
Mittelpunktmarkierung MD
  6
Continuous
100
AcDbLine
 10
341.6462097978334
 20
175.0242558025304
 30
0.0
 11
341.6462097978334
 21
164.0242558025304
 31
0.0
  0
ENDSEC
  0
SECTION
  2
OBJECTS
  0
DICTIONARY
  5
C
330
0
100
AcDbDictionary
281
     1
  3
ACAD_CIP_PREVIOUS_PRODUCT_INFO
350
3D5
  3
ACAD_COLOR
350
63
  3
ACAD_DETAILVIEWSTYLE
350
6A
  3
ACAD_GROUP
350
D
  3
ACAD_LAYOUT
350
62
  3
ACAD_MATERIAL
350
10
  3
ACAD_MLEADERSTYLE
350
66
  3
ACAD_MLINESTYLE
350
5F
  3
ACAD_PLOTSETTINGS
350
61
  3
ACAD_PLOTSTYLENAME
350
E
  3
ACAD_SCALELIST
350
42
  3
ACAD_SECTIONVIEWSTYLE
350
68
  3
ACAD_TABLESTYLE
350
64
  3
ACAD_VISUALSTYLE
350
29
  3
ACDB_RECOMPOSE_DATA
350
3DE
  3
AcDbVariableDictionary
350
3D6
  0
XRECORD
  5
3D5
102
{ACAD_REACTORS
330
C
102
}
330
C
100
AcDbXrecord
280
     1
300
INVPROSA
300
2018
300

  0
DICTIONARY
  5
63
102
{ACAD_REACTORS
330
C
102
}
330
C
100
AcDbDictionary
281
     1
  0
DICTIONARY
  5
6A
102
{ACAD_REACTORS
330
C
102
}
330
C
100
AcDbDictionary
281
     1
  3
Imperial24
350
6B
  0
DICTIONARY
  5
D
102
{ACAD_REACTORS
330
C
102
}
330
C
100
AcDbDictionary
281
     1
  0
DICTIONARY
  5
62
102
{ACAD_REACTORS
330
C
102
}
330
C
100
AcDbDictionary
281
     1
  3
Layout1
350
6F
  3
Layout2
350
77
  3
Model
350
73
  0
DICTIONARY
  5
10
102
{ACAD_REACTORS
330
C
102
}
330
C
100
AcDbDictionary
281
     1
  3
ByBlock
350
19
  3
ByLayer
350
11
  3
Global
350
21
  0
DICTIONARY
  5
66
102
{ACAD_REACTORS
330
C
102
}
330
C
100
AcDbDictionary
281
     1
  3
Standard
350
67
  0
DICTIONARY
  5
5F
102
{ACAD_REACTORS
330
C
102
}
330
C
100
AcDbDictionary
281
     1
  3
Standard
350
60
  0
DICTIONARY
  5
61
102
{ACAD_REACTORS
330
C
102
}
330
C
100
AcDbDictionary
281
     1
  0
ACDBDICTIONARYWDFLT
  5
E
102
{ACAD_REACTORS
330
C
102
}
330
C
100
AcDbDictionary
281
     1
  3
Normal
350
F
100
AcDbDictionaryWithDefault
340
F
  0
DICTIONARY
  5
42
102
{ACAD_REACTORS
330
C
102
}
330
C
100
AcDbDictionary
281
     1
  3
A0
350
43
  3
A1
350
44
  3
A2
350
45
  3
A3
350
46
  3
A4
350
47
  3
A5
350
48
  3
A6
350
49
  3
A7
350
4A
  3
A8
350
4B
  3
A9
350
4C
  3
B0
350
4D
  3
B1
350
4E
  3
B2
350
4F
  3
B3
350
50
  3
B4
350
51
  3
B5
350
52
  3
B6
350
53
  0
DICTIONARY
  5
68
102
{ACAD_REACTORS
330
C
102
}
330
C
100
AcDbDictionary
281
     1
  3
Imperial24
350
69
  0
DICTIONARY
  5
64
102
{ACAD_REACTORS
330
C
102
}
330
C
100
AcDbDictionary
281
     1
  3
Standard
350
65
  0
DICTIONARY
  5
29
102
{ACAD_REACTORS
330
C
102
}
330
C
100
AcDbDictionary
281
     1
  3
2dWireframe
350
2F
  3
Basic
350
2E
  3
Brighten
350
35
  3
ColorChange
350
39
  3
Conceptual
350
32
  3
Dim
350
34
  3
EdgeColorOff
350
41
  3
Facepattern
350
38
  3
Flat
350
2A
  3
FlatWithEdges
350
2B
  3
Gouraud
350
2C
  3
GouraudWithEdges
350
2D
  3
Hidden
350
31
  3
JitterOff
350
3F
  3
Linepattern
350
37
  3
OverhangOff
350
40
  3
Realistic
350
33
  3
Shaded
350
3E
  3
Shaded with edges
350
3D
  3
Shades of Gray
350
3A
  3
Sketchy
350
3B
  3
Thicken
350
36
  3
Wireframe
350
30
  3
X-Ray
350
3C
  0
XRECORD
  5
3DE
102
{ACAD_REACTORS
330
C
102
}
330
C
100
AcDbXrecord
280
     1
 90
        1
330
65
  0
DICTIONARY
  5
3D6
102
{ACAD_REACTORS
330
C
102
}
330
C
100
AcDbDictionary
281
     1
  3
CANNOSCALE
350
3DB
  3
CMLEADERSTYLE
350
3D8
  3
CTABLESTYLE
350
3D7
  3
CVIEWDETAILSTYLE
350
3D9
  3
CVIEWSECTIONSTYLE
350
3DA
  0
ACDBDETAILVIEWSTYLE
  5
6B
102
{ACAD_REACTORS
330
6A
102
}
330
6A
100
AcDbModelDocViewStyle
 70
     0
  3
Imperial24
290
     1
300
Imperial24
 90
        0
100
AcDbDetailViewStyle
 70
     0
 71
     0
 90
        3
 71
     1
340
55
 62
   256
 40
0.24
340
0
 62
   256
 40
0.24
300

 40
0.36
280
     3
 71
     2
340
5D
 90
       25
 62
   256
 71
     3
340
55
 62
   256
 40
0.24
 90
        1
 40
0.75
 90
        1
300
%<\AcVar ViewType \f "%tc1">% %<\AcVar ViewDetailId>%\PVARIA %<\AcVar ViewScale \f "%sn">%
 71
     4
340
5D
 90
       25
 62
   256
340
5D
 90
       25
 62
   256
280
     0
  0
LAYOUT
  5
6F
102
{ACAD_REACTORS
330
62
102
}
330
62
100
AcDbPlotSettings
  1

  2

  4

  6

 40
0.0
 41
0.0
 42
0.0
 43
0.0
 44
0.0
 45
0.0
 46
0.0
 47
0.0
 48
0.0
 49
0.0
140
0.0
141
0.0
142
1.0
143
1.0
 70
   688
 72
     0
 73
     0
 74
     5
  7

 75
    16
147
1.0
 76
     0
 77
     2
 78
   300
148
0.0
149
0.0
100
AcDbLayout
  1
Layout1
 70
     1
 71
     1
 10
0.0
 20
0.0
 11
12.0
 21
9.0
 12
0.0
 22
0.0
 32
0.0
 14
0.0
 24
0.0
 34
0.0
 15
0.0
 25
0.0
 35
0.0
146
0.0
 13
0.0
 23
0.0
 33
0.0
 16
1.0
 26
0.0
 36
0.0
 17
0.0
 27
1.0
 37
0.0
 76
     0
330
6C
  0
LAYOUT
  5
77
102
{ACAD_REACTORS
330
62
102
}
330
62
100
AcDbPlotSettings
  1

  2

  4

  6

 40
0.0
 41
0.0
 42
0.0
 43
0.0
 44
0.0
 45
0.0
 46
0.0
 47
0.0
 48
0.0
 49
0.0
140
0.0
141
0.0
142
1.0
143
1.0
 70
   688
 72
     0
 73
     0
 74
     5
  7

 75
    16
147
1.0
 76
     0
 77
     2
 78
   300
148
0.0
149
0.0
100
AcDbLayout
  1
Layout2
 70
     1
 71
     2
 10
0.0
 20
0.0
 11
12.0
 21
9.0
 12
0.0
 22
0.0
 32
0.0
 14
0.0
 24
0.0
 34
0.0
 15
0.0
 25
0.0
 35
0.0
146
0.0
 13
0.0
 23
0.0
 33
0.0
 16
1.0
 26
0.0
 36
0.0
 17
0.0
 27
1.0
 37
0.0
 76
     0
330
74
  0
LAYOUT
  5
73
102
{ACAD_REACTORS
330
62
102
}
330
62
100
AcDbPlotSettings
  1

  2

  4

  6

 40
0.0
 41
0.0
 42
0.0
 43
0.0
 44
0.0
 45
0.0
 46
0.0
 47
0.0
 48
0.0
 49
0.0
140
0.0
141
0.0
142
1.0
143
1.0
 70
  1712
 72
     0
 73
     0
 74
     0
  7

 75
     0
147
1.0
 76
     0
 77
     2
 78
   300
148
0.0
149
0.0
100
AcDbLayout
  1
Model
 70
     1
 71
     0
 10
0.0
 20
0.0
 11
12.0
 21
9.0
 12
0.0
 22
0.0
 32
0.0
 14
0.0
 24
0.0
 34
0.0
 15
0.0
 25
0.0
 35
0.0
146
0.0
 13
0.0
 23
0.0
 33
0.0
 16
1.0
 26
0.0
 36
0.0
 17
0.0
 27
1.0
 37
0.0
 76
     0
330
70
  0
MATERIAL
  5
19
102
{ACAD_XDICTIONARY
360
1A
102
}
102
{ACAD_REACTORS
330
10
102
}
330
10
100
AcDbMaterial
  1
ByBlock
 72
     0
 43
0.0208333333333333
 43
0.0
 43
0.0
 43
0.0
 43
0.0
 43
0.0208333333333333
 43
0.0
 43
0.0
 43
0.0
 43
0.0
 43
1.0
 43
0.0
 43
0.0
 43
0.0
 43
0.0
 43
1.0
 77
     0
 47
0.0208333333333333
 47
0.0
 47
0.0
 47
0.0
 47
0.0
 47
0.0208333333333333
 47
0.0
 47
0.0
 47
0.0
 47
0.0
 47
1.0
 47
0.0
 47
0.0
 47
0.0
 47
0.0
 47
1.0
171
     0
 49
0.0208333333333333
 49
0.0
 49
0.0
 49
0.0
 49
0.0
 49
0.0208333333333333
 49
0.0
 49
0.0
 49
0.0
 49
0.0
 49
1.0
 49
0.0
 49
0.0
 49
0.0
 49
0.0
 49
1.0
175
     0
142
0.0208333333333333
142
0.0
142
0.0
142
0.0
142
0.0
142
0.0208333333333333
142
0.0
142
0.0
142
0.0
142
0.0
142
1.0
142
0.0
142
0.0
142
0.0
142
0.0
142
1.0
179
     0
144
0.0208333333333333
144
0.0
144
0.0
144
0.0
144
0.0
144
0.0208333333333333
144
0.0
144
0.0
144
0.0
144
0.0
144
1.0
144
0.0
144
0.0
144
0.0
144
0.0
144
1.0
147
0.0208333333333333
147
0.0
147
0.0
147
0.0
147
0.0
147
0.0208333333333333
147
0.0
147
0.0
147
0.0
147
0.0
147
1.0
147
0.0
147
0.0
147
0.0
147
0.0
147
1.0
  0
MATERIAL
  5
11
102
{ACAD_XDICTIONARY
360
12
102
}
102
{ACAD_REACTORS
330
10
102
}
330
10
100
AcDbMaterial
  1
ByLayer
 72
     0
 43
0.0208333333333333
 43
0.0
 43
0.0
 43
0.0
 43
0.0
 43
0.0208333333333333
 43
0.0
 43
0.0
 43
0.0
 43
0.0
 43
1.0
 43
0.0
 43
0.0
 43
0.0
 43
0.0
 43
1.0
 77
     0
 47
0.0208333333333333
 47
0.0
 47
0.0
 47
0.0
 47
0.0
 47
0.0208333333333333
 47
0.0
 47
0.0
 47
0.0
 47
0.0
 47
1.0
 47
0.0
 47
0.0
 47
0.0
 47
0.0
 47
1.0
171
     0
 49
0.0208333333333333
 49
0.0
 49
0.0
 49
0.0
 49
0.0
 49
0.0208333333333333
 49
0.0
 49
0.0
 49
0.0
 49
0.0
 49
1.0
 49
0.0
 49
0.0
 49
0.0
 49
0.0
 49
1.0
175
     0
142
0.0208333333333333
142
0.0
142
0.0
142
0.0
142
0.0
142
0.0208333333333333
142
0.0
142
0.0
142
0.0
142
0.0
142
1.0
142
0.0
142
0.0
142
0.0
142
0.0
142
1.0
179
     0
144
0.0208333333333333
144
0.0
144
0.0
144
0.0
144
0.0
144
0.0208333333333333
144
0.0
144
0.0
144
0.0
144
0.0
144
1.0
144
0.0
144
0.0
144
0.0
144
0.0
144
1.0
147
0.0208333333333333
147
0.0
147
0.0
147
0.0
147
0.0
147
0.0208333333333333
147
0.0
147
0.0
147
0.0
147
0.0
147
1.0
147
0.0
147
0.0
147
0.0
147
0.0
147
1.0
  0
MATERIAL
  5
21
102
{ACAD_XDICTIONARY
360
22
102
}
102
{ACAD_REACTORS
330
10
102
}
330
10
100
AcDbMaterial
  1
Global
 72
     0
 43
0.0208333333333333
 43
0.0
 43
0.0
 43
0.0
 43
0.0
 43
0.0208333333333333
 43
0.0
 43
0.0
 43
0.0
 43
0.0
 43
1.0
 43
0.0
 43
0.0
 43
0.0
 43
0.0
 43
1.0
 77
     0
 47
0.0208333333333333
 47
0.0
 47
0.0
 47
0.0
 47
0.0
 47
0.0208333333333333
 47
0.0
 47
0.0
 47
0.0
 47
0.0
 47
1.0
 47
0.0
 47
0.0
 47
0.0
 47
0.0
 47
1.0
171
     0
 49
0.0208333333333333
 49
0.0
 49
0.0
 49
0.0
 49
0.0
 49
0.0208333333333333
 49
0.0
 49
0.0
 49
0.0
 49
0.0
 49
1.0
 49
0.0
 49
0.0
 49
0.0
 49
0.0
 49
1.0
175
     0
142
0.0208333333333333
142
0.0
142
0.0
142
0.0
142
0.0
142
0.0208333333333333
142
0.0
142
0.0
142
0.0
142
0.0
142
1.0
142
0.0
142
0.0
142
0.0
142
0.0
142
1.0
179
     0
144
0.0208333333333333
144
0.0
144
0.0
144
0.0
144
0.0
144
0.0208333333333333
144
0.0
144
0.0
144
0.0
144
0.0
144
1.0
144
0.0
144
0.0
144
0.0
144
0.0
144
1.0
147
0.0208333333333333
147
0.0
147
0.0
147
0.0
147
0.0
147
0.0208333333333333
147
0.0
147
0.0
147
0.0
147
0.0
147
1.0
147
0.0
147
0.0
147
0.0
147
0.0
147
1.0
  0
MLEADERSTYLE
  5
67
102
{ACAD_REACTORS
330
66
102
}
330
66
100
AcDbMLeaderStyle
179
     2
170
     2
171
     1
172
     0
 90
        2
 40
0.0
 41
0.0
173
     1
 91
-1056964608
340
5B
 92
       -2
290
     1
 42
0.09
291
     1
 43
0.36
  3
Standard
 44
0.18
300

342
55
174
     1
178
     6
175
     1
176
     0
 93
-1056964608
 45
0.18
292
     0
297
     0
 46
0.18
 94
-1056964608
 47
1.0
 49
1.0
140
1.0
293
     1
141
0.0
294
     1
177
     0
142
1.0
295
     1
296
     0
143
0.125
271
     0
272
     9
273
     9
298
     1
  0
MLINESTYLE
  5
60
102
{ACAD_REACTORS
330
5F
102
}
330
5F
100
AcDbMlineStyle
  2
STANDARD
 70
     0
  3

 62
   256
 51
90.0
 52
90.0
 71
     2
 49
0.5
 62
   256
  6
BYLAYER
 49
-0.5
 62
   256
  6
BYLAYER
  0
ACDBPLACEHOLDER
  5
F
102
{ACAD_REACTORS
330
E
102
}
330
E
  0
SCALE
  5
43
102
{ACAD_REACTORS
330
42
102
}
330
42
100
AcDbScale
 70
     0
300
1:1
140
1.0
141
1.0
290
     1
  0
SCALE
  5
44
102
{ACAD_REACTORS
330
42
102
}
330
42
100
AcDbScale
 70
     0
300
1/128" = 1'-0"
140
0.0078125
141
12.0
290
     0
  0
SCALE
  5
45
102
{ACAD_REACTORS
330
42
102
}
330
42
100
AcDbScale
 70
     0
300
1/64" = 1'-0"
140
0.015625
141
12.0
290
     0
  0
SCALE
  5
46
102
{ACAD_REACTORS
330
42
102
}
330
42
100
AcDbScale
 70
     0
300
1/32" = 1'-0"
140
0.03125
141
12.0
290
     0
  0
SCALE
  5
47
102
{ACAD_REACTORS
330
42
102
}
330
42
100
AcDbScale
 70
     0
300
1/16" = 1'-0"
140
0.0625
141
12.0
290
     0
  0
SCALE
  5
48
102
{ACAD_REACTORS
330
42
102
}
330
42
100
AcDbScale
 70
     0
300
3/32" = 1'-0"
140
0.09375
141
12.0
290
     0
  0
SCALE
  5
49
102
{ACAD_REACTORS
330
42
102
}
330
42
100
AcDbScale
 70
     0
300
1/8" = 1'-0"
140
0.125
141
12.0
290
     0
  0
SCALE
  5
4A
102
{ACAD_REACTORS
330
42
102
}
330
42
100
AcDbScale
 70
     0
300
3/16" = 1'-0"
140
0.1875
141
12.0
290
     0
  0
SCALE
  5
4B
102
{ACAD_REACTORS
330
42
102
}
330
42
100
AcDbScale
 70
     0
300
1/4" = 1'-0"
140
0.25
141
12.0
290
     0
  0
SCALE
  5
4C
102
{ACAD_REACTORS
330
42
102
}
330
42
100
AcDbScale
 70
     0
300
3/8" = 1'-0"
140
0.375
141
12.0
290
     0
  0
SCALE
  5
4D
102
{ACAD_REACTORS
330
42
102
}
330
42
100
AcDbScale
 70
     0
300
1/2" = 1'-0"
140
0.5
141
12.0
290
     0
  0
SCALE
  5
4E
102
{ACAD_REACTORS
330
42
102
}
330
42
100
AcDbScale
 70
     0
300
3/4" = 1'-0"
140
0.75
141
12.0
290
     0
  0
SCALE
  5
4F
102
{ACAD_REACTORS
330
42
102
}
330
42
100
AcDbScale
 70
     0
300
1" = 1'-0"
140
1.0
141
12.0
290
     0
  0
SCALE
  5
50
102
{ACAD_REACTORS
330
42
102
}
330
42
100
AcDbScale
 70
     0
300
1-1/2" = 1'-0"
140
1.5
141
12.0
290
     0
  0
SCALE
  5
51
102
{ACAD_REACTORS
330
42
102
}
330
42
100
AcDbScale
 70
     0
300
3" = 1'-0"
140
3.0
141
12.0
290
     0
  0
SCALE
  5
52
102
{ACAD_REACTORS
330
42
102
}
330
42
100
AcDbScale
 70
     0
300
6" = 1'-0"
140
6.0
141
12.0
290
     0
  0
SCALE
  5
53
102
{ACAD_REACTORS
330
42
102
}
330
42
100
AcDbScale
 70
     0
300
1'-0" = 1'-0"
140
12.0
141
12.0
290
     0
  0
ACDBSECTIONVIEWSTYLE
  5
69
102
{ACAD_REACTORS
330
68
102
}
330
68
100
AcDbModelDocViewStyle
 70
     0
  3
Imperial24
290
     1
300
Imperial24
 90
        0
100
AcDbSectionViewStyle
 70
     0
 71
     0
 90
       78
 71
     1
340
55
 62
   256
 40
0.24
340
0
340
0
 62
   256
 40
0.24
300
I, O, Q, S, X, Z
 40
0.48
 90
        3
 40
0.18
 90
        1
 71
     2
340
5D
 90
       25
 62
   256
340
5D
 90
       50
 62
   256
 40
0.24
 40
0.0
 40
0.24
 71
     3
340
55
 62
   256
 40
0.24
 90
        1
 40
0.75
 90
        1
300
%<\AcVar ViewType \f "%tc1">% %<\AcVar ViewSectionStartId>%-%<\AcVar ViewSectionEndId>%\PVARIA %<\AcVar ViewScale \f "%sn">%
 71
     4
 62
   256
 62
   257
300
ANSI31
 40
1.0
 90
        0
290
     0
290
     0
 90
        6
 40
0.0
 40
1.570796326794896
 40
0.2617993877991494
 40
1.308996938995747
 40
-0.2617993877991494
 40
1.832595714594046
  0
TABLESTYLE
  5
65
102
{ACAD_XDICTIONARY
360
3DC
102
}
102
{ACAD_REACTORS
330
64
102
}
330
64
100
AcDbTableStyle
280
     0
  3
Standard
 70
     0
 71
     0
 40
0.06
 41
0.06
280
     0
281
     0
  7
Standard
140
0.18
170
     2
 62
     0
 63
     7
283
     0
 90
      512
 91
        0
  1

274
    -2
284
     1
 64
     0
275
    -2
285
     1
 65
     0
276
    -2
286
     1
 66
     0
277
    -2
287
     1
 67
     0
278
    -2
288
     1
 68
     0
279
    -2
289
     1
 69
     0
  7
Standard
140
0.25
170
     5
 62
     0
 63
     7
283
     0
 90
      512
 91
        0
  1

274
    -2
284
     1
 64
     0
275
    -2
285
     1
 65
     0
276
    -2
286
     1
 66
     0
277
    -2
287
     1
 67
     0
278
    -2
288
     1
 68
     0
279
    -2
289
     1
 69
     0
  7
Standard
140
0.18
170
     5
 62
     0
 63
     7
283
     0
 90
      512
 91
        0
  1

274
    -2
284
     1
 64
     0
275
    -2
285
     1
 65
     0
276
    -2
286
     1
 66
     0
277
    -2
287
     1
 67
     0
278
    -2
288
     1
 68
     0
279
    -2
289
     1
 69
     0
  0
VISUALSTYLE
  5
2F
102
{ACAD_REACTORS
330
29
102
}
330
29
100
AcDbVisualStyle
  2
2dWireframe
 70
     4
177
     3
291
     0
 70
    58
 90
        0
176
     1
 90
        2
176
     1
 90
        0
176
     1
 90
        0
176
     1
 40
0.6
176
     1
 40
30.0
176
     1
 62
     7
420
 16777215
176
     1
 90
        1
176
     1
 90
        4
176
     1
 62
     7
176
     1
 62
   257
176
     1
 90
        1
176
     1
 90
        1
176
     1
 40
1.0
176
     1
 90
        0
176
     1
 62
   257
176
     1
 40
1.0
176
     1
 90
        1
176
     1
 90
        6
176
     1
 90
        2
176
     1
 62
     7
176
     1
 90
        5
176
     1
 90
        0
176
     1
 90
        0
176
     1
290
     0
176
     1
 90
        1
176
     1
 40
0.0
176
     1
 90
        0
176
     1
290
     1
176
     1
290
     1
176
     1
290
     0
176
     1
290
     0
176
     1
290
     0
176
     1
290
     0
176
     1
290
     0
176
     1
290
     0
176
     1
290
     0
176
     1
 90
       50
176
     1
 40
0.0
176
     1
 40
1.0
176
     1
 90
        0
176
     1
 62
    18
420
        0
176
     1
 90
       50
176
     1
 90
        3
176
     1
 62
     5
420
      255
176
     1
290
     0
176
     1
 90
       50
176
     1
 90
       50
176
     1
 90
       50
176
     1
290
     0
176
     1
 90
       50
176
     1
 62
   256
176
     0
 40
1.0
176
     0
 90
        2
176
     1
  1
strokes_ogs.tif
176
     1
290
     0
176
     1
 40
1.0
176
     1
 40
1.0
176
     1
  0
VISUALSTYLE
  5
2E
102
{ACAD_REACTORS
330
29
102
}
330
29
100
AcDbVisualStyle
  2
Basic
 70
     7
177
     3
291
     1
 70
    58
 90
        1
176
     1
 90
        0
176
     1
 90
        1
176
     1
 90
        0
176
     1
 40
0.6
176
     1
 40
30.0
176
     1
 62
     7
420
 16777215
176
     1
 90
        0
176
     1
 90
        4
176
     1
 62
     7
176
     1
 62
   257
176
     1
 90
        1
176
     1
 90
        1
176
     1
 40
1.0
176
     1
 90
        8
176
     1
 62
     7
176
     1
 40
1.0
176
     1
 90
        1
176
     1
 90
        6
176
     1
 90
        2
176
     1
 62
     7
176
     1
 90
        5
176
     1
 90
        0
176
     1
 90
        0
176
     1
290
     0
176
     1
 90
        1
176
     1
 40
0.0
176
     1
 90
        0
176
     1
290
     0
176
     1
290
     1
176
     1
290
     1
176
     1
290
     0
176
     1
290
     0
176
     1
290
     0
176
     1
290
     0
176
     1
290
     0
176
     1
290
     0
176
     1
 90
       50
176
     1
 40
0.0
176
     1
 40
1.0
176
     1
 90
        0
176
     1
 62
    18
420
        0
176
     1
 90
       50
176
     1
 90
        3
176
     1
 62
     5
420
      255
176
     1
290
     0
176
     1
 90
       50
176
     1
 90
       50
176
     1
 90
       50
176
     1
290
     0
176
     1
 90
       50
176
     1
 62
   256
176
     0
 40
1.0
176
     0
 90
        2
176
     1
  1
strokes_ogs.tif
176
     1
290
     0
176
     1
 40
1.0
176
     1
 40
1.0
176
     1
  0
VISUALSTYLE
  5
35
102
{ACAD_REACTORS
330
29
102
}
330
29
100
AcDbVisualStyle
  2
Brighten
 70
    12
177
     3
291
     1
 70
    58
 90
        2
176
     1
 90
        2
176
     1
 90
        0
176
     1
 90
        0
176
     1
 40
0.6
176
     1
 40
30.0
176
     1
 62
     7
420
 16777215
176
     1
 90
        1
176
     1
 90
        4
176
     1
 62
     7
176
     1
 62
   257
176
     1
 90
        1
176
     1
 90
        1
176
     1
 40
1.0
176
     1
 90
        8
176
     1
 62
     7
176
     1
 40
1.0
176
     1
 90
        1
176
     1
 90
        6
176
     1
 90
        2
176
     1
 62
     7
176
     1
 90
        5
176
     1
 90
        0
176
     1
 90
        0
176
     1
290
     0
176
     1
 90
        1
176
     1
 40
50.0
176
     1
 90
        0
176
     1
290
     0
176
     1
290
     1
176
     1
290
     1
176
     1
290
     0
176
     1
290
     0
176
     1
290
     0
176
     1
290
     0
176
     1
290
     0
176
     1
290
     0
176
     1
 90
       50
176
     1
 40
0.0
176
     1
 40
1.0
176
     1
 90
        0
176
     1
 62
    18
420
        0
176
     1
 90
       50
176
     1
 90
        3
176
     1
 62
     5
420
      255
176
     1
290
     0
176
     1
 90
       50
176
     1
 90
       50
176
     1
 90
       50
176
     1
290
     0
176
     1
 90
       50
176
     1
 62
   256
176
     0
 40
1.0
176
     0
 90
        2
176
     1
  1
strokes_ogs.tif
176
     1
290
     0
176
     1
 40
1.0
176
     1
 40
1.0
176
     1
  0
VISUALSTYLE
  5
39
102
{ACAD_REACTORS
330
29
102
}
330
29
100
AcDbVisualStyle
  2
ColorChange
 70
    16
177
     3
291
     1
 70
    58
 90
        2
176
     1
 90
        2
176
     1
 90
        3
176
     1
 90
        0
176
     1
 40
0.6
176
     1
 40
30.0
176
     1
 62
     8
420
  8421504
176
     1
 90
        1
176
     1
 90
        4
176
     1
 62
     7
176
     1
 62
   257
176
     1
 90
        1
176
     1
 90
        1
176
     1
 40
1.0
176
     1
 90
        8
176
     1
 62
     8
420
  8421504
176
     1
 40
1.0
176
     1
 90
        1
176
     1
 90
        6
176
     1
 90
        2
176
     1
 62
     7
176
     1
 90
        5
176
     1
 90
        0
176
     1
 90
        0
176
     1
290
     0
176
     1
 90
        1
176
     1
 40
0.0
176
     1
 90
        0
176
     1
290
     0
176
     1
290
     1
176
     1
290
     1
176
     1
290
     0
176
     1
290
     0
176
     1
290
     0
176
     1
290
     0
176
     1
290
     0
176
     1
290
     0
176
     1
 90
       50
176
     1
 40
0.0
176
     1
 40
1.0
176
     1
 90
        0
176
     1
 62
    18
420
        0
176
     1
 90
       50
176
     1
 90
        3
176
     1
 62
     5
420
      255
176
     1
290
     0
176
     1
 90
       50
176
     1
 90
       50
176
     1
 90
       50
176
     1
290
     0
176
     1
 90
       50
176
     1
 62
   256
176
     0
 40
1.0
176
     0
 90
        2
176
     1
  1
strokes_ogs.tif
176
     1
290
     0
176
     1
 40
1.0
176
     1
 40
1.0
176
     1
  0
VISUALSTYLE
  5
32
102
{ACAD_REACTORS
330
29
102
}
330
29
100
AcDbVisualStyle
  2
Conceptual
 70
     9
177
     3
291
     0
 70
    58
 90
        3
176
     1
 90
        2
176
     1
 90
        0
176
     1
 90
        0
176
     1
 40
0.6
176
     1
 40
30.0
176
     1
 62
     7
420
 16777215
176
     1
 90
        2
176
     1
 90
        2
176
     1
 62
     7
176
     1
 62
   257
176
     1
 90
        1
176
     1
 90
        1
176
     1
 40
179.0
176
     1
 90
        8
176
     1
 62
     7
176
     1
 40
1.0
176
     1
 90
        1
176
     1
 90
        6
176
     1
 90
        2
176
     1
 62
     7
176
     1
 90
        3
176
     1
 90
        0
176
     1
 90
        0
176
     1
290
     0
176
     1
 90
        1
176
     1
 40
0.0
176
     1
 90
        0
176
     1
290
     0
176
     1
290
     1
176
     1
290
     1
176
     1
290
     0
176
     1
290
     0
176
     1
290
     0
176
     1
290
     0
176
     1
290
     0
176
     1
290
     0
176
     1
 90
       50
176
     1
 40
0.0
176
     1
 40
1.0
176
     1
 90
        0
176
     1
 62
    18
420
        0
176
     1
 90
       50
176
     1
 90
        3
176
     1
 62
     5
420
      255
176
     1
290
     0
176
     1
 90
       50
176
     1
 90
       50
176
     1
 90
       50
176
     1
290
     0
176
     1
 90
       50
176
     1
 62
   256
176
     0
 40
1.0
176
     0
 90
        2
176
     1
  1
strokes_ogs.tif
176
     1
290
     0
176
     1
 40
1.0
176
     1
 40
1.0
176
     1
  0
VISUALSTYLE
  5
34
102
{ACAD_REACTORS
330
29
102
}
330
29
100
AcDbVisualStyle
  2
Dim
 70
    11
177
     3
291
     1
 70
    58
 90
        2
176
     1
 90
        2
176
     1
 90
        0
176
     1
 90
        0
176
     1
 40
0.6
176
     1
 40
30.0
176
     1
 62
     7
420
 16777215
176
     1
 90
        1
176
     1
 90
        4
176
     1
 62
     7
176
     1
 62
   257
176
     1
 90
        1
176
     1
 90
        1
176
     1
 40
1.0
176
     1
 90
        8
176
     1
 62
     7
176
     1
 40
1.0
176
     1
 90
        1
176
     1
 90
        6
176
     1
 90
        2
176
     1
 62
     7
176
     1
 90
        5
176
     1
 90
        0
176
     1
 90
        0
176
     1
290
     0
176
     1
 90
        1
176
     1
 40
-50.0
176
     1
 90
        0
176
     1
290
     0
176
     1
290
     1
176
     1
290
     1
176
     1
290
     0
176
     1
290
     0
176
     1
290
     0
176
     1
290
     0
176
     1
290
     0
176
     1
290
     0
176
     1
 90
       50
176
     1
 40
0.0
176
     1
 40
1.0
176
     1
 90
        0
176
     1
 62
    18
420
        0
176
     1
 90
       50
176
     1
 90
        3
176
     1
 62
     5
420
      255
176
     1
290
     0
176
     1
 90
       50
176
     1
 90
       50
176
     1
 90
       50
176
     1
290
     0
176
     1
 90
       50
176
     1
 62
   256
176
     0
 40
1.0
176
     0
 90
        2
176
     1
  1
strokes_ogs.tif
176
     1
290
     0
176
     1
 40
1.0
176
     1
 40
1.0
176
     1
  0
VISUALSTYLE
  5
41
102
{ACAD_REACTORS
330
29
102
}
330
29
100
AcDbVisualStyle
  2
EdgeColorOff
 70
    22
177
     3
291
     1
 70
    58
 90
        2
176
     0
 90
        2
176
     0
 90
        0
176
     0
 90
        0
176
     0
 40
0.6
176
     0
 40
30.0
176
     0
 62
     7
420
 16777215
176
     0
 90
        1
176
     0
 90
        4
176
     0
 62
     7
176
     0
 62
   257
176
     0
 90
        1
176
     0
 90
        1
176
     0
 40
1.0
176
     0
 90
        8
176
     2
 62
     7
176
     0
 40
1.0
176
     0
 90
        1
176
     0
 90
        6
176
     0
 90
        2
176
     0
 62
     7
176
     0
 90
        5
176
     0
 90
        0
176
     0
 90
        0
176
     0
290
     0
176
     0
 90
        1
176
     0
 40
0.0
176
     0
 90
        0
176
     0
290
     0
176
     0
290
     1
176
     0
290
     1
176
     0
290
     0
176
     0
290
     0
176
     0
290
     0
176
     0
290
     0
176
     0
290
     0
176
     0
290
     0
176
     0
 90
       50
176
     0
 40
0.0
176
     0
 40
1.0
176
     0
 90
        0
176
     0
 62
    18
420
        0
176
     0
 90
       50
176
     0
 90
        3
176
     0
 62
     5
420
      255
176
     0
290
     0
176
     0
 90
       50
176
     0
 90
       50
176
     0
 90
       50
176
     0
290
     0
176
     0
 90
       50
176
     0
 62
   256
176
     0
 40
1.0
176
     0
 90
        2
176
     0
  1
strokes_ogs.tif
176
     0
290
     0
176
     0
 40
1.0
176
     0
 40
1.0
176
     0
  0
VISUALSTYLE
  5
38
102
{ACAD_REACTORS
330
29
102
}
330
29
100
AcDbVisualStyle
  2
Facepattern
 70
    15
177
     3
291
     1
 70
    58
 90
        2
176
     1
 90
        2
176
     1
 90
        0
176
     1
 90
        0
176
     1
 40
0.6
176
     1
 40
30.0
176
     1
 62
     7
420
 16777215
176
     1
 90
        1
176
     1
 90
        4
176
     1
 62
     7
176
     1
 62
   257
176
     1
 90
        1
176
     1
 90
        1
176
     1
 40
1.0
176
     1
 90
        8
176
     1
 62
     7
176
     1
 40
1.0
176
     1
 90
        1
176
     1
 90
        6
176
     1
 90
        2
176
     1
 62
     7
176
     1
 90
        5
176
     1
 90
        0
176
     1
 90
        0
176
     1
290
     0
176
     1
 90
        1
176
     1
 40
0.0
176
     1
 90
        0
176
     1
290
     0
176
     1
290
     1
176
     1
290
     1
176
     1
290
     0
176
     1
290
     0
176
     1
290
     0
176
     1
290
     0
176
     1
290
     0
176
     1
290
     0
176
     1
 90
       50
176
     1
 40
0.0
176
     1
 40
1.0
176
     1
 90
        0
176
     1
 62
    18
420
        0
176
     1
 90
       50
176
     1
 90
        3
176
     1
 62
     5
420
      255
176
     1
290
     0
176
     1
 90
       50
176
     1
 90
       50
176
     1
 90
       50
176
     1
290
     0
176
     1
 90
       50
176
     1
 62
   256
176
     0
 40
1.0
176
     0
 90
        2
176
     1
  1
strokes_ogs.tif
176
     1
290
     0
176
     1
 40
1.0
176
     1
 40
1.0
176
     1
  0
VISUALSTYLE
  5
2A
102
{ACAD_REACTORS
330
29
102
}
330
29
100
AcDbVisualStyle
  2
Flat
 70
     0
177
     3
291
     1
 70
    58
 90
        2
176
     1
 90
        1
176
     1
 90
        1
176
     1
 90
        2
176
     1
 40
0.6
176
     1
 40
30.0
176
     1
 62
     7
420
 16777215
176
     1
 90
        0
176
     1
 90
        0
176
     1
 62
     7
176
     1
 62
   257
176
     1
 90
        1
176
     1
 90
        1
176
     1
 40
1.0
176
     1
 90
        8
176
     1
 62
     7
176
     1
 40
1.0
176
     1
 90
        1
176
     1
 90
        6
176
     1
 90
        2
176
     1
 62
     7
176
     1
 90
        5
176
     1
 90
        0
176
     1
 90
        0
176
     1
290
     0
176
     1
 90
       13
176
     1
 40
0.0
176
     1
 90
        0
176
     1
290
     0
176
     1
290
     1
176
     1
290
     1
176
     1
290
     0
176
     1
290
     0
176
     1
290
     0
176
     1
290
     0
176
     1
290
     0
176
     1
290
     0
176
     1
 90
       50
176
     1
 40
0.0
176
     1
 40
1.0
176
     1
 90
        0
176
     1
 62
    18
420
        0
176
     1
 90
       50
176
     1
 90
        3
176
     1
 62
     5
420
      255
176
     1
290
     0
176
     1
 90
       50
176
     1
 90
       50
176
     1
 90
       50
176
     1
290
     0
176
     1
 90
       50
176
     1
 62
   256
176
     0
 40
1.0
176
     0
 90
        2
176
     1
  1
strokes_ogs.tif
176
     1
290
     0
176
     1
 40
1.0
176
     1
 40
1.0
176
     1
  0
VISUALSTYLE
  5
2B
102
{ACAD_REACTORS
330
29
102
}
330
29
100
AcDbVisualStyle
  2
FlatWithEdges
 70
     1
177
     3
291
     1
 70
    58
 90
        2
176
     1
 90
        1
176
     1
 90
        1
176
     1
 90
        2
176
     1
 40
0.6
176
     1
 40
30.0
176
     1
 62
     7
420
 16777215
176
     1
 90
        1
176
     1
 90
        0
176
     1
 62
     7
176
     1
 62
   257
176
     1
 90
        1
176
     1
 90
        1
176
     1
 40
1.0
176
     1
 90
        0
176
     1
 62
   257
176
     1
 40
1.0
176
     1
 90
        1
176
     1
 90
        6
176
     1
 90
        2
176
     1
 62
     7
176
     1
 90
        5
176
     1
 90
        0
176
     1
 90
        0
176
     1
290
     0
176
     1
 90
       13
176
     1
 40
0.0
176
     1
 90
        0
176
     1
290
     0
176
     1
290
     1
176
     1
290
     1
176
     1
290
     0
176
     1
290
     0
176
     1
290
     0
176
     1
290
     0
176
     1
290
     0
176
     1
290
     0
176
     1
 90
       50
176
     1
 40
0.0
176
     1
 40
1.0
176
     1
 90
        0
176
     1
 62
    18
420
        0
176
     1
 90
       50
176
     1
 90
        3
176
     1
 62
     5
420
      255
176
     1
290
     0
176
     1
 90
       50
176
     1
 90
       50
176
     1
 90
       50
176
     1
290
     0
176
     1
 90
       50
176
     1
 62
   256
176
     0
 40
1.0
176
     0
 90
        2
176
     1
  1
strokes_ogs.tif
176
     1
290
     0
176
     1
 40
1.0
176
     1
 40
1.0
176
     1
  0
VISUALSTYLE
  5
2C
102
{ACAD_REACTORS
330
29
102
}
330
29
100
AcDbVisualStyle
  2
Gouraud
 70
     2
177
     3
291
     1
 70
    58
 90
        2
176
     1
 90
        2
176
     1
 90
        1
176
     1
 90
        2
176
     1
 40
0.6
176
     1
 40
30.0
176
     1
 62
     7
420
 16777215
176
     1
 90
        0
176
     1
 90
        0
176
     1
 62
     7
176
     1
 62
   257
176
     1
 90
        1
176
     1
 90
        1
176
     1
 40
1.0
176
     1
 90
        0
176
     1
 62
     7
176
     1
 40
1.0
176
     1
 90
        1
176
     1
 90
        6
176
     1
 90
        2
176
     1
 62
     7
176
     1
 90
        5
176
     1
 90
        0
176
     1
 90
        0
176
     1
290
     0
176
     1
 90
       13
176
     1
 40
0.0
176
     1
 90
        0
176
     1
290
     0
176
     1
290
     1
176
     1
290
     1
176
     1
290
     0
176
     1
290
     0
176
     1
290
     0
176
     1
290
     0
176
     1
290
     0
176
     1
290
     0
176
     1
 90
       50
176
     1
 40
0.0
176
     1
 40
1.0
176
     1
 90
        0
176
     1
 62
    18
420
        0
176
     1
 90
       50
176
     1
 90
        3
176
     1
 62
     5
420
      255
176
     1
290
     0
176
     1
 90
       50
176
     1
 90
       50
176
     1
 90
       50
176
     1
290
     0
176
     1
 90
       50
176
     1
 62
   256
176
     0
 40
1.0
176
     0
 90
        2
176
     1
  1
strokes_ogs.tif
176
     1
290
     0
176
     1
 40
1.0
176
     1
 40
1.0
176
     1
  0
VISUALSTYLE
  5
2D
102
{ACAD_REACTORS
330
29
102
}
330
29
100
AcDbVisualStyle
  2
GouraudWithEdges
 70
     3
177
     3
291
     1
 70
    58
 90
        2
176
     1
 90
        2
176
     1
 90
        1
176
     1
 90
        2
176
     1
 40
0.6
176
     1
 40
30.0
176
     1
 62
     7
420
 16777215
176
     1
 90
        1
176
     1
 90
        0
176
     1
 62
     7
176
     1
 62
   257
176
     1
 90
        1
176
     1
 90
        1
176
     1
 40
1.0
176
     1
 90
        0
176
     1
 62
   257
176
     1
 40
1.0
176
     1
 90
        1
176
     1
 90
        6
176
     1
 90
        2
176
     1
 62
     7
176
     1
 90
        5
176
     1
 90
        0
176
     1
 90
        0
176
     1
290
     0
176
     1
 90
       13
176
     1
 40
0.0
176
     1
 90
        0
176
     1
290
     0
176
     1
290
     1
176
     1
290
     1
176
     1
290
     0
176
     1
290
     0
176
     1
290
     0
176
     1
290
     0
176
     1
290
     0
176
     1
290
     0
176
     1
 90
       50
176
     1
 40
0.0
176
     1
 40
1.0
176
     1
 90
        0
176
     1
 62
    18
420
        0
176
     1
 90
       50
176
     1
 90
        3
176
     1
 62
     5
420
      255
176
     1
290
     0
176
     1
 90
       50
176
     1
 90
       50
176
     1
 90
       50
176
     1
290
     0
176
     1
 90
       50
176
     1
 62
   256
176
     0
 40
1.0
176
     0
 90
        2
176
     1
  1
strokes_ogs.tif
176
     1
290
     0
176
     1
 40
1.0
176
     1
 40
1.0
176
     1
  0
VISUALSTYLE
  5
31
102
{ACAD_REACTORS
330
29
102
}
330
29
100
AcDbVisualStyle
  2
Hidden
 70
     6
177
     3
291
     0
 70
    58
 90
        1
176
     1
 90
        2
176
     1
 90
        2
176
     1
 90
        0
176
     1
 40
0.6
176
     1
 40
30.0
176
     1
 62
     7
420
 16777215
176
     1
 90
        2
176
     1
 90
        2
176
     1
 62
     7
176
     1
 62
   257
176
     1
 90
        2
176
     1
 90
        1
176
     1
 40
40.0
176
     1
 90
        0
176
     1
 62
   257
176
     1
 40
1.0
176
     1
 90
        1
176
     1
 90
        6
176
     1
 90
        2
176
     1
 62
     7
176
     1
 90
        3
176
     1
 90
        0
176
     1
 90
        0
176
     1
290
     0
176
     1
 90
        1
176
     1
 40
0.0
176
     1
 90
        0
176
     1
290
     0
176
     1
290
     1
176
     1
290
     1
176
     1
290
     0
176
     1
290
     0
176
     1
290
     0
176
     1
290
     0
176
     1
290
     0
176
     1
290
     0
176
     1
 90
       50
176
     1
 40
0.0
176
     1
 40
1.0
176
     1
 90
        0
176
     1
 62
    18
420
        0
176
     1
 90
       50
176
     1
 90
        3
176
     1
 62
     5
420
      255
176
     1
290
     0
176
     1
 90
       50
176
     1
 90
       50
176
     1
 90
       50
176
     1
290
     0
176
     1
 90
       50
176
     1
 62
   256
176
     0
 40
1.0
176
     0
 90
        2
176
     1
  1
strokes_ogs.tif
176
     1
290
     0
176
     1
 40
1.0
176
     1
 40
1.0
176
     1
  0
VISUALSTYLE
  5
3F
102
{ACAD_REACTORS
330
29
102
}
330
29
100
AcDbVisualStyle
  2
JitterOff
 70
    20
177
     3
291
     1
 70
    58
 90
        2
176
     0
 90
        2
176
     0
 90
        0
176
     0
 90
        0
176
     0
 40
0.6
176
     0
 40
30.0
176
     0
 62
     7
420
 16777215
176
     0
 90
        1
176
     0
 90
        4
176
     0
 62
     7
176
     0
 62
   257
176
     0
 90
        1
176
     0
 90
        1
176
     0
 40
1.0
176
     0
 90
       10
176
     2
 62
     7
176
     0
 40
1.0
176
     0
 90
        1
176
     0
 90
        6
176
     0
 90
        2
176
     0
 62
     7
176
     0
 90
        5
176
     0
 90
        0
176
     0
 90
        0
176
     0
290
     0
176
     0
 90
        1
176
     0
 40
0.0
176
     0
 90
        0
176
     0
290
     0
176
     0
290
     1
176
     0
290
     1
176
     0
290
     0
176
     0
290
     0
176
     0
290
     0
176
     0
290
     0
176
     0
290
     0
176
     0
290
     0
176
     0
 90
       50
176
     0
 40
0.0
176
     0
 40
1.0
176
     0
 90
        0
176
     0
 62
    18
420
        0
176
     0
 90
       50
176
     0
 90
        3
176
     0
 62
     5
420
      255
176
     0
290
     0
176
     0
 90
       50
176
     0
 90
       50
176
     0
 90
       50
176
     0
290
     0
176
     0
 90
       50
176
     0
 62
   256
176
     0
 40
1.0
176
     0
 90
        2
176
     0
  1
strokes_ogs.tif
176
     0
290
     0
176
     0
 40
1.0
176
     0
 40
1.0
176
     0
  0
VISUALSTYLE
  5
37
102
{ACAD_REACTORS
330
29
102
}
330
29
100
AcDbVisualStyle
  2
Linepattern
 70
    14
177
     3
291
     1
 70
    58
 90
        2
176
     1
 90
        2
176
     1
 90
        0
176
     1
 90
        0
176
     1
 40
0.6
176
     1
 40
30.0
176
     1
 62
     7
420
 16777215
176
     1
 90
        1
176
     1
 90
        4
176
     1
 62
     7
176
     1
 62
   257
176
     1
 90
        7
176
     1
 90
        7
176
     1
 40
1.0
176
     1
 90
        8
176
     1
 62
     7
176
     1
 40
1.0
176
     1
 90
        1
176
     1
 90
        6
176
     1
 90
        2
176
     1
 62
     7
176
     1
 90
        5
176
     1
 90
        0
176
     1
 90
        0
176
     1
290
     0
176
     1
 90
        1
176
     1
 40
0.0
176
     1
 90
        0
176
     1
290
     0
176
     1
290
     1
176
     1
290
     1
176
     1
290
     0
176
     1
290
     0
176
     1
290
     0
176
     1
290
     0
176
     1
290
     0
176
     1
290
     0
176
     1
 90
       50
176
     1
 40
0.0
176
     1
 40
1.0
176
     1
 90
        0
176
     1
 62
    18
420
        0
176
     1
 90
       50
176
     1
 90
        3
176
     1
 62
     5
420
      255
176
     1
290
     0
176
     1
 90
       50
176
     1
 90
       50
176
     1
 90
       50
176
     1
290
     0
176
     1
 90
       50
176
     1
 62
   256
176
     0
 40
1.0
176
     0
 90
        2
176
     1
  1
strokes_ogs.tif
176
     1
290
     0
176
     1
 40
1.0
176
     1
 40
1.0
176
     1
  0
VISUALSTYLE
  5
40
102
{ACAD_REACTORS
330
29
102
}
330
29
100
AcDbVisualStyle
  2
OverhangOff
 70
    21
177
     3
291
     1
 70
    58
 90
        2
176
     0
 90
        2
176
     0
 90
        0
176
     0
 90
        0
176
     0
 40
0.6
176
     0
 40
30.0
176
     0
 62
     7
420
 16777215
176
     0
 90
        1
176
     0
 90
        4
176
     0
 62
     7
176
     0
 62
   257
176
     0
 90
        1
176
     0
 90
        1
176
     0
 40
1.0
176
     0
 90
        9
176
     2
 62
     7
176
     0
 40
1.0
176
     0
 90
        1
176
     0
 90
        6
176
     0
 90
        2
176
     0
 62
     7
176
     0
 90
        5
176
     0
 90
        0
176
     0
 90
        0
176
     0
290
     0
176
     0
 90
        1
176
     0
 40
0.0
176
     0
 90
        0
176
     0
290
     0
176
     0
290
     1
176
     0
290
     1
176
     0
290
     0
176
     0
290
     0
176
     0
290
     0
176
     0
290
     0
176
     0
290
     0
176
     0
290
     0
176
     0
 90
       50
176
     0
 40
0.0
176
     0
 40
1.0
176
     0
 90
        0
176
     0
 62
    18
420
        0
176
     0
 90
       50
176
     0
 90
        3
176
     0
 62
     5
420
      255
176
     0
290
     0
176
     0
 90
       50
176
     0
 90
       50
176
     0
 90
       50
176
     0
290
     0
176
     0
 90
       50
176
     0
 62
   256
176
     0
 40
1.0
176
     0
 90
        2
176
     0
  1
strokes_ogs.tif
176
     0
290
     0
176
     0
 40
1.0
176
     0
 40
1.0
176
     0
  0
VISUALSTYLE
  5
33
102
{ACAD_REACTORS
330
29
102
}
330
29
100
AcDbVisualStyle
  2
Realistic
 70
     8
177
     3
291
     0
 70
    58
 90
        2
176
     1
 90
        3
176
     1
 90
        0
176
     1
 90
        2
176
     1
 40
0.6
176
     1
 40
30.0
176
     1
 62
     7
420
 16777215
176
     1
 90
        0
176
     1
 90
        0
176
     1
 62
     7
176
     1
 62
   257
176
     1
 90
        1
176
     1
 90
        1
176
     1
 40
1.0
176
     1
 90
        8
176
     1
 62
   257
176
     1
 40
1.0
176
     1
 90
        1
176
     1
 90
        6
176
     1
 90
        2
176
     1
 62
     7
176
     1
 90
        3
176
     1
 90
        0
176
     1
 90
        0
176
     1
290
     0
176
     1
 90
       13
176
     1
 40
0.0
176
     1
 90
        0
176
     1
290
     0
176
     1
290
     1
176
     1
290
     1
176
     1
290
     0
176
     1
290
     0
176
     1
290
     0
176
     1
290
     0
176
     1
290
     0
176
     1
290
     0
176
     1
 90
       50
176
     1
 40
0.0
176
     1
 40
1.0
176
     1
 90
        0
176
     1
 62
    18
420
        0
176
     1
 90
       50
176
     1
 90
        3
176
     1
 62
     5
420
      255
176
     1
290
     0
176
     1
 90
       50
176
     1
 90
       50
176
     1
 90
       50
176
     1
290
     0
176
     1
 90
       50
176
     1
 62
   256
176
     0
 40
1.0
176
     0
 90
        2
176
     1
  1
strokes_ogs.tif
176
     1
290
     0
176
     1
 40
1.0
176
     1
 40
1.0
176
     1
  0
VISUALSTYLE
  5
3E
102
{ACAD_REACTORS
330
29
102
}
330
29
100
AcDbVisualStyle
  2
Shaded
 70
    27
177
     3
291
     0
 70
    58
 90
        2
176
     1
 90
        2
176
     1
 90
        1
176
     1
 90
        2
176
     1
 40
0.6
176
     1
 40
30.0
176
     1
 62
     7
420
 16777215
176
     1
 90
        0
176
     1
 90
        4
176
     1
 62
     7
176
     1
 62
   257
176
     1
 90
        1
176
     1
 90
        1
176
     1
 40
1.0
176
     1
 90
        8
176
     1
 62
   257
176
     1
 40
1.0
176
     1
 90
        1
176
     1
 90
        6
176
     1
 90
        2
176
     1
 62
     8
420
  7895160
176
     1
 90
        3
176
     1
 90
        0
176
     1
 90
        0
176
     1
290
     0
176
     1
 90
        5
176
     1
 40
0.0
176
     1
 90
        0
176
     1
290
     0
176
     1
290
     1
176
     1
290
     1
176
     1
290
     0
176
     1
290
     0
176
     1
290
     0
176
     1
290
     0
176
     1
290
     0
176
     1
290
     0
176
     1
 90
       50
176
     1
 40
0.0
176
     1
 40
1.0
176
     1
 90
        0
176
     1
 62
    18
420
        0
176
     1
 90
       50
176
     1
 90
        3
176
     1
 62
     5
420
      255
176
     1
290
     0
176
     1
 90
       50
176
     1
 90
       50
176
     1
 90
       50
176
     1
290
     0
176
     1
 90
       50
176
     1
 62
   256
176
     0
 40
1.0
176
     0
 90
        2
176
     1
  1
strokes_ogs.tif
176
     1
290
     0
176
     1
 40
1.0
176
     1
 40
1.0
176
     1
  0
VISUALSTYLE
  5
3D
102
{ACAD_REACTORS
330
29
102
}
330
29
100
AcDbVisualStyle
  2
Shaded with edges
 70
    26
177
     3
291
     0
 70
    58
 90
        2
176
     1
 90
        2
176
     1
 90
        1
176
     1
 90
        2
176
     1
 40
0.6
176
     1
 40
30.0
176
     1
 62
     7
420
 16777215
176
     1
 90
        1
176
     1
 90
        2
176
     1
 62
     7
176
     1
 62
   257
176
     1
 90
        2
176
     1
 90
        1
176
     1
 40
1.0
176
     1
 90
        8
176
     1
 62
   257
176
     1
 40
1.0
176
     1
 90
        1
176
     1
 90
        6
176
     1
 90
        2
176
     1
 62
     7
176
     1
 90
        3
176
     1
 90
        0
176
     1
 90
        0
176
     1
290
     0
176
     1
 90
        5
176
     1
 40
0.0
176
     1
 90
        0
176
     1
290
     0
176
     1
290
     1
176
     1
290
     1
176
     1
290
     0
176
     1
290
     0
176
     1
290
     0
176
     1
290
     0
176
     1
290
     0
176
     1
290
     0
176
     1
 90
       50
176
     1
 40
0.0
176
     1
 40
1.0
176
     1
 90
        0
176
     1
 62
    18
420
        0
176
     1
 90
       50
176
     1
 90
        3
176
     1
 62
     5
420
      255
176
     1
290
     0
176
     1
 90
       50
176
     1
 90
       50
176
     1
 90
       50
176
     1
290
     0
176
     1
 90
       50
176
     1
 62
   256
176
     0
 40
1.0
176
     0
 90
        2
176
     1
  1
strokes_ogs.tif
176
     1
290
     0
176
     1
 40
1.0
176
     1
 40
1.0
176
     1
  0
VISUALSTYLE
  5
3A
102
{ACAD_REACTORS
330
29
102
}
330
29
100
AcDbVisualStyle
  2
Shades of Gray
 70
    23
177
     3
291
     0
 70
    58
 90
        2
176
     1
 90
        2
176
     1
 90
        3
176
     1
 90
        0
176
     1
 40
0.6
176
     1
 40
30.0
176
     1
 62
     7
420
 16777215
176
     1
 90
        2
176
     1
 90
        2
176
     1
 62
     7
176
     1
 62
     7
176
     1
 90
        1
176
     1
 90
        1
176
     1
 40
40.0
176
     1
 90
        8
176
     1
 62
     7
176
     1
 40
1.0
176
     1
 90
        1
176
     1
 90
        6
176
     1
 90
        2
176
     1
 62
     7
176
     1
 90
        3
176
     1
 90
        0
176
     1
 90
        0
176
     1
290
     0
176
     1
 90
        1
176
     1
 40
0.0
176
     1
 90
        0
176
     1
290
     0
176
     1
290
     1
176
     1
290
     1
176
     1
290
     0
176
     1
290
     0
176
     1
290
     0
176
     1
290
     0
176
     1
290
     0
176
     1
290
     0
176
     1
 90
       50
176
     1
 40
0.0
176
     1
 40
1.0
176
     1
 90
        0
176
     1
 62
    18
420
        0
176
     1
 90
       50
176
     1
 90
        3
176
     1
 62
     5
420
      255
176
     1
290
     0
176
     1
 90
       50
176
     1
 90
       50
176
     1
 90
       50
176
     1
290
     0
176
     1
 90
       50
176
     1
 62
   256
176
     0
 40
1.0
176
     0
 90
        2
176
     1
  1
strokes_ogs.tif
176
     1
290
     0
176
     1
 40
1.0
176
     1
 40
1.0
176
     1
  0
VISUALSTYLE
  5
3B
102
{ACAD_REACTORS
330
29
102
}
330
29
100
AcDbVisualStyle
  2
Sketchy
 70
    24
177
     3
291
     0
 70
    58
 90
        1
176
     1
 90
        2
176
     1
 90
        2
176
     1
 90
        0
176
     1
 40
0.6
176
     1
 40
30.0
176
     1
 62
     7
420
 16777215
176
     1
 90
        2
176
     1
 90
        2
176
     1
 62
     7
176
     1
 62
     7
176
     1
 90
        1
176
     1
 90
        1
176
     1
 40
40.0
176
     1
 90
       11
176
     1
 62
     7
176
     1
 40
1.0
176
     1
 90
        1
176
     1
 90
        6
176
     1
 90
        2
176
     1
 62
     7
176
     1
 90
        6
176
     1
 90
        0
176
     1
 90
        0
176
     1
290
     0
176
     1
 90
        1
176
     1
 40
0.0
176
     1
 90
        0
176
     1
290
     0
176
     1
290
     1
176
     1
290
     1
176
     1
290
     0
176
     1
290
     0
176
     1
290
     0
176
     1
290
     0
176
     1
290
     0
176
     1
290
     0
176
     1
 90
       50
176
     1
 40
0.0
176
     1
 40
1.0
176
     1
 90
        0
176
     1
 62
    18
420
        0
176
     1
 90
       50
176
     1
 90
        3
176
     1
 62
     5
420
      255
176
     1
290
     0
176
     1
 90
       50
176
     1
 90
       50
176
     1
 90
       50
176
     1
290
     0
176
     1
 90
       50
176
     1
 62
   256
176
     0
 40
1.0
176
     0
 90
        2
176
     1
  1
strokes_ogs.tif
176
     1
290
     0
176
     1
 40
1.0
176
     1
 40
1.0
176
     1
  0
VISUALSTYLE
  5
36
102
{ACAD_REACTORS
330
29
102
}
330
29
100
AcDbVisualStyle
  2
Thicken
 70
    13
177
     3
291
     1
 70
    58
 90
        2
176
     1
 90
        2
176
     1
 90
        0
176
     1
 90
        0
176
     1
 40
0.6
176
     1
 40
30.0
176
     1
 62
     7
420
 16777215
176
     1
 90
        1
176
     1
 90
        4
176
     1
 62
     7
176
     1
 62
   257
176
     1
 90
        1
176
     1
 90
        1
176
     1
 40
1.0
176
     1
 90
       12
176
     1
 62
     7
176
     1
 40
1.0
176
     1
 90
        1
176
     1
 90
        6
176
     1
 90
        2
176
     1
 62
     7
176
     1
 90
        5
176
     1
 90
        0
176
     1
 90
        0
176
     1
290
     0
176
     1
 90
        1
176
     1
 40
0.0
176
     1
 90
        0
176
     1
290
     0
176
     1
290
     1
176
     1
290
     1
176
     1
290
     0
176
     1
290
     0
176
     1
290
     0
176
     1
290
     0
176
     1
290
     0
176
     1
290
     0
176
     1
 90
       50
176
     1
 40
0.0
176
     1
 40
1.0
176
     1
 90
        0
176
     1
 62
    18
420
        0
176
     1
 90
       50
176
     1
 90
        3
176
     1
 62
     5
420
      255
176
     1
290
     0
176
     1
 90
       50
176
     1
 90
       50
176
     1
 90
       50
176
     1
290
     0
176
     1
 90
       50
176
     1
 62
   256
176
     0
 40
1.0
176
     0
 90
        2
176
     1
  1
strokes_ogs.tif
176
     1
290
     0
176
     1
 40
1.0
176
     1
 40
1.0
176
     1
  0
VISUALSTYLE
  5
30
102
{ACAD_REACTORS
330
29
102
}
330
29
100
AcDbVisualStyle
  2
Wireframe
 70
     5
177
     3
291
     0
 70
    58
 90
        0
176
     1
 90
        2
176
     1
 90
        0
176
     1
 90
        0
176
     1
 40
0.6
176
     1
 40
30.0
176
     1
 62
     7
420
 16777215
176
     1
 90
        1
176
     1
 90
        4
176
     1
 62
     7
176
     1
 62
   257
176
     1
 90
        1
176
     1
 90
        1
176
     1
 40
1.0
176
     1
 90
        0
176
     1
 62
   257
176
     1
 40
1.0
176
     1
 90
        1
176
     1
 90
        6
176
     1
 90
        2
176
     1
 62
     7
176
     1
 90
        3
176
     1
 90
        0
176
     1
 90
        0
176
     1
290
     0
176
     1
 90
        1
176
     1
 40
0.0
176
     1
 90
        0
176
     1
290
     0
176
     1
290
     1
176
     1
290
     1
176
     1
290
     0
176
     1
290
     0
176
     1
290
     0
176
     1
290
     0
176
     1
290
     0
176
     1
290
     0
176
     1
 90
       50
176
     1
 40
0.0
176
     1
 40
1.0
176
     1
 90
        0
176
     1
 62
    18
420
        0
176
     1
 90
       50
176
     1
 90
        3
176
     1
 62
     5
420
      255
176
     1
290
     0
176
     1
 90
       50
176
     1
 90
       50
176
     1
 90
       50
176
     1
290
     0
176
     1
 90
       50
176
     1
 62
   256
176
     0
 40
1.0
176
     0
 90
        2
176
     1
  1
strokes_ogs.tif
176
     1
290
     0
176
     1
 40
1.0
176
     1
 40
1.0
176
     1
  0
VISUALSTYLE
  5
3C
102
{ACAD_REACTORS
330
29
102
}
330
29
100
AcDbVisualStyle
  2
X-Ray
 70
    25
177
     3
291
     0
 70
    58
 90
        2
176
     1
 90
        2
176
     1
 90
        1
176
     1
 90
        1
176
     1
 40
0.5
176
     1
 40
30.0
176
     1
 62
     7
420
 16777215
176
     1
 90
        1
176
     1
 90
        0
176
     1
 62
     7
176
     1
 62
   257
176
     1
 90
        1
176
     1
 90
        1
176
     1
 40
1.0
176
     1
 90
        8
176
     1
 62
     7
176
     1
 40
1.0
176
     1
 90
        1
176
     1
 90
        6
176
     1
 90
        2
176
     1
 62
     7
176
     1
 90
        3
176
     1
 90
        0
176
     1
 90
        0
176
     1
290
     0
176
     1
 90
       13
176
     1
 40
0.0
176
     1
 90
        0
176
     1
290
     0
176
     1
290
     1
176
     1
290
     1
176
     1
290
     0
176
     1
290
     0
176
     1
290
     0
176
     1
290
     0
176
     1
290
     0
176
     1
290
     0
176
     1
 90
       50
176
     1
 40
0.0
176
     1
 40
1.0
176
     1
 90
        0
176
     1
 62
    18
420
        0
176
     1
 90
       50
176
     1
 90
        3
176
     1
 62
     5
420
      255
176
     1
290
     0
176
     1
 90
       50
176
     1
 90
       50
176
     1
 90
       50
176
     1
290
     0
176
     1
 90
       50
176
     1
 62
   256
176
     0
 40
1.0
176
     0
 90
        2
176
     1
  1
strokes_ogs.tif
176
     1
290
     0
176
     1
 40
1.0
176
     1
 40
1.0
176
     1
  0
DICTIONARYVAR
  5
3DB
102
{ACAD_REACTORS
330
3D6
102
}
330
3D6
100
DictionaryVariables
280
     0
  1
1:1
  0
DICTIONARYVAR
  5
3D8
102
{ACAD_REACTORS
330
3D6
102
}
330
3D6
100
DictionaryVariables
280
     0
  1
STANDARD
  0
DICTIONARYVAR
  5
3D7
102
{ACAD_REACTORS
330
3D6
102
}
330
3D6
100
DictionaryVariables
280
     0
  1
STANDARD
  0
DICTIONARYVAR
  5
3D9
102
{ACAD_REACTORS
330
3D6
102
}
330
3D6
100
DictionaryVariables
280
     0
  1
Imperial24
  0
DICTIONARYVAR
  5
3DA
102
{ACAD_REACTORS
330
3D6
102
}
330
3D6
100
DictionaryVariables
280
     0
  1
Imperial24
  0
DICTIONARY
  5
1A
330
19
100
AcDbDictionary
280
     1
281
     1
  3
BUMPTILE
360
1C
  3
DIFFUSETILE
360
1B
  3
OPACITYTILE
360
1F
  3
REFLECTIONTILE
360
1E
  3
REFRACTIONTILE
360
20
  3
SPECULARTILE
360
1D
  0
DICTIONARY
  5
12
330
11
100
AcDbDictionary
280
     1
281
     1
  3
BUMPTILE
360
14
  3
DIFFUSETILE
360
13
  3
FBXASSET
360
E3
  3
OPACITYTILE
360
17
  3
REFLECTIONTILE
360
16
  3
REFRACTIONTILE
360
18
  3
SPECULARTILE
360
15
  0
DICTIONARY
  5
22
330
21
100
AcDbDictionary
280
     1
281
     1
  3
BUMPTILE
360
24
  3
DIFFUSETILE
360
23
  3
OPACITYTILE
360
27
  3
REFLECTIONTILE
360
26
  3
REFRACTIONTILE
360
28
  3
SPECULARTILE
360
25
  0
DICTIONARY
  5
3DC
330
65
100
AcDbDictionary
280
     1
281
     1
  3
ACAD_ROUNDTRIP_2008_TABLESTYLE_CELLSTYLEMAP
360
3DD
  0
XRECORD
  5
1C
102
{ACAD_REACTORS
330
1A
102
}
330
1A
100
AcDbXrecord
280
     1
270
     1
271
     1
  0
XRECORD
  5
1B
102
{ACAD_REACTORS
330
1A
102
}
330
1A
100
AcDbXrecord
280
     1
270
     1
271
     1
  0
XRECORD
  5
1F
102
{ACAD_REACTORS
330
1A
102
}
330
1A
100
AcDbXrecord
280
     1
270
     1
271
     1
  0
XRECORD
  5
1E
102
{ACAD_REACTORS
330
1A
102
}
330
1A
100
AcDbXrecord
280
     1
270
     1
271
     1
  0
XRECORD
  5
20
102
{ACAD_REACTORS
330
1A
102
}
330
1A
100
AcDbXrecord
280
     1
270
     1
271
     1
  0
XRECORD
  5
1D
102
{ACAD_REACTORS
330
1A
102
}
330
1A
100
AcDbXrecord
280
     1
270
     1
271
     1
  0
XRECORD
  5
14
102
{ACAD_REACTORS
330
12
102
}
330
12
100
AcDbXrecord
280
     1
270
     1
271
     1
  0
XRECORD
  5
13
102
{ACAD_REACTORS
330
12
102
}
330
12
100
AcDbXrecord
280
     1
270
     1
271
     1
  0
XRECORD
  5
E3
102
{ACAD_REACTORS
330
12
102
}
330
12
100
AcDbXrecord
280
     1
 70
     1
 90
1959938040
 71
     1
  1
40FC4ADA-0284-47B1-903D-A47072E91D75
311
504B03041400060808005173474E6A2A9A1DF9000000A80100004F00000035374543454543462D343637332D343736342D393731352D4633334537313038334533362F4173736574446174612F446566696E6974696F6E4974657261746F7250726F706572746965732E62696EBD50BB4EC430103434888282E27A0A5AE3D7
311
3A4E9010CAC3A181E6F8006482B98B94E44E712274DD95FC35AC75E11758697657E3DD9D91BF09213F4B604BCE1047CC57589FFCE0C7B6796DB6BE77E40299E2F0EC0E7EBCC5D6809639E4404D9A1514642D69560B4D05A4906AA97422CC39CEC5B5CA7FBAB99BE2CD973634BEEBDCE07773B8466211B9E9DD8462AEBB8B4B
311
9724E6238290BF87102F6D4E96A2CB2F84FBD8DF3FBA10FCF4C0B4B1A5B5654D21318A82498066060DD54A592378AAAC4AD8DA87DD3C363E30E075097995532E53C0F142D08CAB8AE660B891361395D16CDAC6AF59A1D2DCBF0FAEED18678B85B7FDB041FEBFE217504B03041400060808005173474E40A3BF54EC00000030
311
0200004500000035374543454543462D343637332D343736342D393731352D4633334537313038334533362F4173736574446174612F496E7374616E636550726F706572746965732E62696EEB606060F80F0540260323103700495E20ED9E9A975A94991C9C9C919A9BA802143031707336717471D43530B230D135317732
311
D4B5343076D175343137303772B534743137654768046931363471713532B5D435353131D635313332D475727372D13534373670367376B67474B5042A03DBCBA019D37FE8ABC6157B20CD04146B0062181F4C03F940F0C11EA29A8141C08141002C0426541C106CAC2CA046088033B02A030AC2157C6006F21A8018AAF501
311
94E6010A610250382264E08660284CD9E98021862280A91564B406929A0FF62C401E28B6F88038B83CB1243943D7A928312F25350524432B0000504B03041400060808005173474E88E57597CD3F0000904100006B00000035374543454543462D343637332D343736342D393731352D4633334537313038334533362F5265
311
736F75726365732F34304643344144412D303238342D343742312D393033442D4134373037324539314437352F7468756D626E61696C2F302F67656E657269635F706E67355B773CD4FF1FBF73E71C0E67EF7576C9DEF3EC995D46C6A1EC5046649CBDF79E192942562825CE965D8A868C2842C8DE9FDFD1F7E7F138F7078F
311
CF6B3F5FCFD7EBFDFEC41B196891913091804020321D6D7513FC77D8C5070EC3FFEE51B21F068154CC75D455CC028A3EA68992803810109FDDE5D5CEC5521B28A1B422BF80741695D5B529DA1C2D058AD2388BDA9F476F7C2CADC939304173DBF48A452BF8A700C0C70C3D121C1AA15A5270C22E2B9E28763651F7DA0D12CE
311
11077B2ECD0D560B5E3DE2368B1E65C5E1C87384A4CC5F2D9FB8BE39E9B77C753783A37998F5CEF1B4FEE553463245C9712270880DF339E0B882A6BA713D865F6F384C842D440934EF264F4A304F8DE4EEFA1E2BF5E2D91F5ADD9613D6E31DDB33ED31DB1D7916CAF091286EA3D31B9CFECB78BB0060245B943C4C040119FF
311
780A74DD308BA9D028678674EB5504ECF284EE814DAED07440BAF649BE4B55DA2890F4D73E2D489A59EE54FDB0A85B59F2F52C4858A02705C4815A792B0C4A996A2023ECB195073E115E3E3647F64243A8338F2000BCB58DA5692C7E7C3D413F963FEDF3CF00FBB0F831A9D51360FECA43819F527B89FA260EB63C5DA67683
311
0AA3626A3693B23F1A17A0DFFCE3EE164E31B5365EDF0C89EF64D8E38AB0BA9A1117D7C3A0EC44F44F4023095E80BA610DE336D0F99593A88BFC5306E72DF98F7FD132ED95878DF2964EA7E43071359FD83B2BDF9C6B5BDF768F0F3C0FC351199526F53D9460A34511F75D1B63E488178569472C91A94497807A3FD4A390C6
311
558F26D416365C3656DE6E769DA9D8FC73774E1709812842DD8EF96AED1960F79D21B395CDDFE6F92CB4EB962A4668C76990E2EF29798C8941D67DA50F4A5F947872460F1F6FDB794E8A29FD7AC0C0D6E0714339CE258FB17AE8535221E3464A10F29A0BE5EEECEFC5675926A89F49EB14E5711894F6586DB5754EB4D5DA9C
311
6437EBA57DB97A24F8B8A8DB295FFD73266CF57E82694DF5166DDF93573AFE9C9C5EB05F8FEF8E89E0A8917B0B3724DB7BEBB53252581EFC3E38166BA131A3A5B42FE2AD00A769BBFA4458D2DE7822F8C4F63D0B8E21B285AE13325F3410A435C648C9D91FDEB109E73CEDA7BC796961AF79175E1A3CE4C5E8B0D009B0C9E2
311
9EFD98BC8E97554E3D8D838424E270F7685226E5AC268E021EDE3522D583E8F20C0BDE2959EF5BBFEEDAB32FE9A3ED0E39F211A86AA9DEBFC68182EDED132AB8BB794442D2D7EA9F4D8BFF52BC4D55BB165124EE90A42D101E67BBBB292FFB4F66DE5BF2300E44546757DA7CEF8932BFC9F92A0707953491A55C5A5ACEDABD
311
9FA1AEA01BAC3DC5A24E22E7C47213493996EFBC369D086ED9397C9BA6C7F9855C7BD5E15BFC8C53DB3D2A4C5901A57ACD2FBDF4D1676E95338B2C2BCE65FDA4C64F5FEFDC7D9CA5AA1FCF11E193F2FDABF0F4916BF13FB916A224380E6462A9815F2300DC49CC4DF8D055CEF76462F4B7A7ACA7365C2707891370BC1D0AA6
311
203C44CCAB47084FEC057F27FFCD57F89B8B9852459798A675C66BD7CE572CAF71FF7E6D7ECF7BF62CAB7B3F1107DCD04DC55A3F9961700286141C94A4F771FEB2BCDA2DDEE0CB0BAE402FF1DB0100F8E475DFFFC074DDB4498AB7D186A7654DDB1CB680D703D47CEB4E72F8CB13D86A4AA68116E26387B93FD6738779B34F
311
EDB8E517EDF2BAF28D9BE93A1D3A164320E07D42E514725C29515FF361754213EDE06B079A2E99EB1CA82A02019EADEEB87B9AF005BD04BBCECB14AACD6B24EFBE482194A97DD32400685FF1FEF1544D1B14EFB1E7F08E6D2CD2AF52DE757F35F5E62332EE88EA26417AD5C3E0E319D68F25414E6D672BD4522B278C57D18F
311
0113921C71D96527E091F00CEB15AE23D24667369BD3CEFA10C7549D930890BA4366F4EBC55F01F746109F98ABCDD5A3EE06619C6AD78AB33E48E4C9BD21BF7478B385EC05C4F8987E2C1BFA0A60EBEDAA0AE0B015C2720ECE180FB6F2DEFBEB822D96338C9B63822183BBF52FB664A7AE57003AABCE512BF77E7E31BDA2E7
311
39AC4C131657DDFE5225E900FB56CC01CDE808FA4A9C9DA16AC679656BB64796283D89812B8F91136AE18EE5EBBAF47A73BE3C153EB5D4CD491B4BFB4FE690A4CF9ABA08C0D8AA64220C438C96EA6CA80B58FE5761E697B3A292EB9FBDA502FA863E49FE694ADDFFF9D62C520BDD1A22014147A0903A05B9B729F54272EF83
311
931FEEC057BFF8C8055C279EAC5C0011804828734024F6CFA319C9CC6867C727184465CD9BB7ED386AFFD96B294A85E3802FAE47244602D8273615952B98C4F23F7EAE4463D9D638EEE374A20959E0FE519C4CFB0FBFE5DD80C2AA3F9DB961D1BDE57E67C9BB47B77FDD74EE3094F5DBBE3EBC1FBDB7393F5116263009E2EF
311
E1AF9A221B2AE234C902BF70E9F280ED23E73908361565964333A3F01D0B006AF32FB21AA1316744B489D5A198E85299241735BE559675130955C902A8ED761FC0DBE337A9F91919AF5CE32AF902ADF9AB2615E00E8A94586BA1A90839B61832FF1BFB76D2EFADE6DB1BA04CCAD3DA649E7E2A0219F592E22F2AD54847EEA8
311
E42271011E9074F8F3DD9FBA6CDF88FFC9FC7E811AD1CA8F4557CE4AFC7BBEDCF0114A48689F20A584520C74DA8127124B767E2FB91A6B186246727BE63C9445BAE02088D58B8EFDC0F1072407CD9B89A13F6303B4A928F593AD489B58E6869325790ADC406036C591729FE14021F94B7796BB11848D463536A092A26F077F
311
94639F7CEEE2A724C66EC885F4A24F8B8A0AC321F8FD149BA529460FAA34E4663C02D41FDF80BCA222D42F0ABFF8490F4FA74C673807C2051D8E467B47B616072860069A9A303ABA9B319D58404461401B0A0F9BE5E1E151C14BC33B32ABE03DDE91708DFAEB15E7C0D593C86BB7D7EC17BE56E57975F077BFD5525F3A1A36
311
1D584A75E08CF29FC7B44B2B3085014F3A5A14517377C3F6B8F37E59514C3B12F8AACDEDDA4DFC49BE5710101534CD6FB6DE15B50F11A09472AABA727F0C49D9CB906B158030065F48EB3625E010CEC1D511D0053474B11E6A4F01C0D6EF1BED3A944FDEC70E0DDCDC756C86545910E0DAE3BE3AA9A404574C2995CD5CAF95
311
49226BC94B4F4F0F5F9086F418F6B32346464610D8BC7391D3C3A3CCF04CFC1FB2A3A3170E369511868F14EEA4E5E438CC73DB1F3248AA94B6B2FF33B222FF3D1E7BF146CAD229770158063BCE4F5391964DF62F7E52A7BE0EEA829C9E13C4C147D6F93FE59E111DAB5E4594D6F3CD1AD375EE039930EFE5AF2BB2D41C83C7
311
DABD8C659BAFBE8FAB392CA634F3D15C1D945DB4588D2B0824A4EC928AAC565557CA2F0DAA588CA5BE30B3A8004F7BF005E96CBF891D7F18112A3619FDF530DC8AA64954258E1811789B5189B49B4EB53F5F89F7D37523894F3EB57B373763C91E502F52CC99EB7BDDF933FC324C4FFC2561DFFA7339FAFDD0A4BFBE6D3A8F
311
F9ED1FC49898139864602458968913181918F719CCF5A68B2EE9C1FF050E34E63107003B8120FA982C21B30A874E4F5E4B38D5A8290C4B8D9BE48A0BE31EA995BDC37AC6DE90BA17D259DEF53605D55922FEB1855D915B659FBEB350EE0DFB2F9F766E1C84CC8964B75D08667445EAB966015F63A18A9E0A325C1B3DC628C0
311
D3CB60F767FA93CC65F25458BD23C3B312716E5F40E5858AC06EBA9AB14F95DB99147B832069201541D09A0D856E12C629CF32683760EE855537D1901988D5EBC156676C7DD51D7207CF3267AF1D76C2AD867315E44618015313A98B19941C696FED3461CAA9B5415F918556D7802EDACEFD6B2E45853A9735DFC9DBF7E440
311
F9319F8B6805A973BCCDC76C069A9144E51F187EDCC12FC31B5DEAAF0A76137199B106EC84ADA6B6EE697D4E6A96E007417F4E880E8B1E89B4BCE9D81EF611E2ED8F0C1A6C25F620FAFAAB656A7C42D464880E8AFAB0E0FC8EA38CA9A8AEEAEE3E4648BA4680270A89743CDD3E6C6CBF34B7B640EFA285ABC7EA0A1E28F3CC
311
963D114A80123EE66D0AF7D5380EB41909B605AB4765B709B808590458157E69BA1378FEC4B48CAF6A730E3BE3C5EF2DD1A5EAF94B1DDE50CEB55DDFD7EE9A16747FA4B223359FB1FCC69E1194892BABB93A1D5C4E807AC0EA2E30180811E77A2291F6E7F7FAA5E0F60215BC6024E48DE436C511F0628B8CA189982D4D83CC
311
A17D305A7E923C37941CFDFDCD93ACAF735EF5F0E61BBD3E6C41A59B242790D3A3BAC7064DCD89AA2E37214EC839820949D5CAA31E240D2948E48F690298974A96BA9A8432BC90F5071D6537C9666EA4564796B7AFFFA548077BEEA75F63083435074BA182F3699557397F71548383FDA8CA34D99B981E72835ECDA5DDDC15
311
1315173D05A21F651AAF8524E88209E2E7A737ED1045800CE3390050BCFB8BE588DF111617874C62575039CA588EEFDEFEFE319B739DE2EDC147092A262611E159650E787917885EF08F1F51B8F2D8A71D60B58B190FEF9541A1BE94BC19FEA50784DA1419FE4B0FB51B8D36B5FF8E1286FD8AF42B91E59A5F1CC4D60174E7
311
64045FD8C57B18209B217F89A62252BD20BE0E63E12B8E8F029FE19E0E8D0870F58721A557082250D5424F7909369376E41666C0EE77CD87CB283F661D5FB6D0DA023CB67320A20DC7BE661E9E1BFE5463085C557DA1FF9BE835733766C3D139F2CF9E2208873AD0EB4814DE9E6BF2CAF81614D4D43906ED1C05A3265CABBF
311
E192770FC2F64F940CB6B17B5F166F133C9AEEAD2641807C3E69515171DD74C4A85311513D6EC9530B3B601B6BA3EBFF3B5C3D2F7D69765141E345F75433953D013ADDF8F6AA7DC3F4A7563FE5C7D367937E2900D7EAD0F9FC9A4A1A9B5BDF1FEF08532660C01C5D6DE22199AA774383E306DAB87E301ABB7D213887F9869D
311
4942D0D71E94B27EDF216A318BD488D45DF84529EF575AF3C3938C0AAA0215B01994153E2054A0B894DA5C784980633AAD48576957CF4AEAEAFADC7C587368551C73DBE1E57C58AC713303A8BFC258BD04B51724459FF9E24C03A81E0E0679CEB9B348C0DC998FEB9C6D6EFA77D247CC8F92D3848599ED89A23218D0636465
311
AD1CEEB7DC140D7426F83491C4E8E8281C2FB35240918FFECE880CA2A42D70E8B20B34DF5221C7DB0CF90ECCB9C745B37A47E9B716FF7A97B7A252C1F3814DC7B1E1A7F72B8751D524EF7CAE45B0C73B3BE7D08ED39781B380DDFC9AA4A4749C9493DB5BAD07A6EA6C092FBD0E85DB004DF06B8C9D3089C5320187E4CE1846
311
158C7EA7DDAE8AD9AFFF21AA3A1026BB06A259845E8232DEE62811A4DA9CEAB3A4887320B76E2AE5615EAB7BDF738CBDD01F1E64064BC13D9EC53576751CA8CACD58B3CEB0E6CA585BD089B2A59B9FC101403387AADBDBE70586B93D64BF3AD4453EF9C3B6A93817E8346991798601344F79A83C51F3D50F7BF2683A3605F5
311
1A72449489E0EE6169C749C60B1035651103AEE24D24E51A759C840DD3FC6504DA6FE107510E447B43461C79D22970B75DE5E1BD3007D1AFC619A4A4A69B5626AF5E9B8374E20677F77E2F8E73DF868E8BEC7EBA7B6A75EEF7205E1AB9486CB642741D6E03FF13FCCEDB1C4AC129886268B01CDF4B124AF797CF784F3C6DEC
311
97A17D4B558070A0F1C04DA4FF9BDBF34159AEFE958479824B3F58EBD1E19088A2AFDE501B6F2052368A3FD0E650A179EFAB1561E1D27527077136E652676C3670F42DCB3352F48F6BC86D2C3B0051727E41A0A4DC6CE2BE9D47F5CAA2935A3C0539AF080665997194ABECD723B08129CC5B6B21D2E7D54CD4D12610E7E9FB
311
8306771A89576C7A982002775ED44F3F744CF21EEBB27A631671D921938AAEE3EB0D19CD1E083727F607823E817BF599DCED5394E37EEBC2E88782E638920CA641EF74D4CDFCDEF06F4278ECB18E31E7E9876F2D783C8BF429C75395F57E98C2B495A3DA077EB3AC3C158608B6B57FE3EA48484D9A480096FCEE0DE880950E
311
7E5A5714131C5C41AAA29FD19AE81AC145FA1B9E85C7169A5AB837B213493DF7E9AA4B5FBF9CDEB36EBD21EF1181B7CF7366AB2A951D01E37AF4EB835D1BE8C117CFBE7625D2EBCDB0B20C5A4B45CED0BCDE3EE8DA9DA78C2E21DEAAFFD1197E463C33CC6A80FB785669B856EFF7A8CCCA2841B5A5369173320B1170C368B2
311
748D81062EA0296E5E2D95D7667A4A46D98A6FF475C76AAB0A8C8D45E226FAFC9FE0133EA9F60111F99CA81ACE03A1D14C89E8B0D69079C91464FA1D99E651D0EAF606F345C42A8A1AA9BA391031582B96D5B4176A77AADB01F12FD298A75DEEBB2C82F0B8650E880722F8DDD90C56A7A058E5FDEF1AC93545BA27367C76F5
311
D8F9690CB6F8DAE141EDD7971F0FB548A2AE435F224D6E5954CA155512F7332029D5A1230854B79F258EC5FFDB09F5F6343A8EB193229B7F7E79B3E48F8E183860B38C8269D1B53738FF1E0BACF6AADA6D4869E9DE708E79B5DADCC09B1BC76F649731CFAF59A83FD8BAE4C749D66FA87A3810D4D62FFE826FA400C0F325D2
311
BC0F3CA35F5847B82A2ACC7961745C823E4D863D54460AF792CE6F79B5C7A33B25C3AEA6CDE15A919B6367D781E9D44F61BF828672594A3E1D9EDD6DF179A81F27EAC05B936575D73E05C209DDD2115CFB705DF9BBF3C911589B3640735E9E618FC9C36A7326C82B2205E244C55D56FDB9D5DC93CE958D4BF8174D2B3DA54C
311
B3C09F2C2A6DFF73D23B2197355761AD421EC581284A7EF8DE2CE3497C0C804D49B41DFD6A7360844E5BEFFB495CFCDB97A4595911CDBA623274CE852B5E278AF0BEB1770E9D37CD977B2766A7DED0E94B840E1E95E8C77DE5CB6354AF7871427C28ADBEEF7BA0A28E19DE9ACD75F379FE373EAE6DDDAE3834692F9C2B03B4
311
FCA8FCA9ABE8EEEBEBB725B88A7C90941E850682CA04061A7DF0CE82ED49BFAFFD42C309818FAE14755CAAE78B0F73243ECCCAD7DF58FCB9CDFAE7A4D3E6671A613639130D056C8383C8F4FCF4808C331E544DD26E4755D09EA05253B3049A1E32587CC25D72E073E2CD96D04A71BBCB0038FEC3F53D254199C3CDC67CD666
311
40269431860225392B2CB3ECD0B4498AAE78BA1994246AE1EE78F2EDFB79F6C6CB6B5E279C4D373FBC21CB2698C9ACBBEB6A4BB6B39E16AB0E421CCBFC7654D81ED86022F9BB522146F9F4772E2D0E4FA70120C95A85A417BF5078B232F4754363EB1750B2AC2148EB46B1EA72AD9B4D23ADCBC589D70106C3EC2ABEEED84D
311
FE28E718C6C83502C28E9FDD3B09DA0A6F6F7B72B706A31C9E2A331EE70DA56A083D2177BFD63C55B11D8D949FAFCF90B23A1E24B9B5018B9A17E99F2890EC302F330FE7936E2C23F0D237EC8916F5166AB84B62A21BB0B950146962D754F92CC2C8877BED8FC7B7B25726DD19545392570B3A2C66B58F027BEF412E552D12
311
A588C4A3CC5C3193FCB3485EFFF700D0B9EEC077754A33DC1FB9E25AF814628F91DDFECB667D3F7690803F38D13F8AE39353523BB08FC6760144AFA2CE28236F65EDBB3D5F59A57D612B99E3D7E5F8A851666BF9B5A6658EFC96EEB37A378ABB0EB3FDDF1303AF32C41BD1C8560745D7BD81066B0D6313359CF488563D3BA3
311
F8E2185D1FAA3EBA1397C9D0E3DD232180A4DCADB6AF25DB3AC3CC26589C8239E66E81547BC7E2F328F9884764CA37EB5DBE390DFC03A5246B456A7C3684C4377D0EEF9A350680FA9A077E8B2957B489E09AB1AD41316944C2254B5984830F691C93CAA767EECF976FA5647538830B5E63236A6F0365C1E0F3E327F24FE35E
311
DDBD7360B0F7374837409F7A6311BECC12B7026D4FA1AE204FA3F5FE904B1F420C7A9044AE58E403E7C4848E7DA25DC9EDAC79DD756FAA26B9EA83ACE8A214A2612A22AFA19DAE7DBAC5F8CDE1292A485F98DAC731A29FE01A3966E96BCB9FB5A4C8830E1B9AF0C54B87FBE221A097036E5D28D1F869F810C06A9BB0AC0612
311
F69AEBAF893C6E7AD59460208BAB3A6B09CA4F6BDDAB8CF0D1F84B72487498395A70DCD754796E271099A567A55CF242BBED64696378BB6CF25EF0FCDB589F3A82F1116D010A9AB9FA4358809EE0C973A2B4229BAA876A70B03AB49CBA7FBE71DB1832FFD32F9BF2C8E98075CACAFB36921235D0F552B6A67E94E094097A5D
311
7DF681B40623DA535ADA7A9AD8E9A62407D7C9A5AE51D62A17A83A23728DE86BB56115804D3F2675F2C6B87541A0FC497BF0CA86420F558C9859EBE9FAD62747E323E3AADC03FDCDDFE7407B09DA90B44E3185723C5381EAEF589765E2F7A099BA46695BAD60CEF3491B8A171F5F56444F7CE9455312C3498C74173AEA0214
311
EC029833B34B650CBB5A5508D5091665309642791708ECF27CF11DB3D797D6CFE474453BD4BFADB768094B2147814D81C7CBAF8228DCAF5564B5891F5EF6A860EB2E323CB82AB868D8EA048880D63B0DE5341F1B3D53297B928A11E15F25E5148990F710747C3509ED14909C552EBE3973246FCE55D00564D8310BC3EBC508
311
5D08D806799B77D6C57FDF5E55837F9E934F09C03C729271B64F12D0A9F9E938107CAF7BF1EC8CF1BB9B42363D33070F4CACB425E605DDB0A34A12BB936DE286B9887A4E2E558F0886498BFF49C311D96C277CF6A9FC0D75AD0ECC5226D7E0E3572012E56D7FDE4410CEC7A6D0F997F225A2055B8B92E3956E875AE4993CB3
311
D4C9063AF98FD45E1BAB165640A43439A2C9181A7C355B297C0A0CCFFAE19B6FA3C2BA238A885FBC98B8F6DAF4B94B97304878DF4D8BFF6A4AEDF79E90ED4E68F00CD7299F4E0D83E35601AF0CBEF18C1E870E74758FA91F5131075004DB3CFCF09AE1DABC11957FD9808C92E8A678CE9DBE40DDA0E0D1D505AAFBCBA20823
311
2BFB6FB3704E8985E61ADE53DE74152F5C7DE74B1DEDCD37DC3E8FB30D7EBA8B9EFFC3606BF90B8D438279CB7709FC7C00D327F41817EEA71CD9E49FE9C8C9A81C70915D9F0F15958EC5AA4C3BBFAF46986B90F188BDB24B89DE3C6F29EC3E6F66D84856EE96A35E657CA41B41EFD8DBFA16AD6E91439EA92B40B21C053249
311
F51AE50EB0B24C770FFAF40DF12C8436366819C48E36547D4E7B72FE2BBF10828583057814A668BDF183F6B2E58DFB151103E56303E63D00F39C27C4661605DB644D19175D02E3F0241E8FC3458D17AAAADB117CE9EEA690D0DB01E634878C04C2C9310B69FCAB831151E3AD293BEF6E46B0ABCECB50F5939B39C613D41E81
311
FAE8D34CAE3C4566B761D37185FE864AC32FCB71AEF39DAA5BAB88609BB980CD2F07A8F941653B529567726E2B2A58D079DD57E1E5E31426CF184A04D7B03B985F276D47406AF276FE32E3328BA866EB1FD39BEF57863A317634AA5FE467409B3873F5069EF0D71AF00AD189D17BA1974ECDB2D623E9E14086386A6AAB5807
311
825C37B015BFE892AFD154920EC437EB945D958E18622E1E0FE2FA06557CE4BB9BBD05A2D40E774DA2B65473791E314B7D6C886820B2FCFE4AA272B3B8B15E7344A145E8AF919B5454D89D36D413E87211186BF6F645E5EC94DCCE8E1C799022E4EC9BC86D7A0F2AFB1FC4B2CE48F84B3F49ECE65BAD24CADCC07EFF39AB06
311
BE9E6B27A059938EA7208838455383DDBCFCD967DDE4650EF92A14FF933C975DB20BD7FEEBC4487576485963D757D16340D9599FEB362F775F38CA4185A86F74B629C81B133644A3B18FD056E997E0734F9BE26D11C0AAFC669E2AC9FC41D281F8B2E1C35AE27BCE05F3DA295488096688719D974DF1B5D182DB7792288697
311
F8763CFB43562C1CDEE11C4AABD5C22B6E33F6F389CFC3477C5919DC0D533F8A7A1846B7ADB60ABDC26C43D0CFC8910B7C15EE22675BD02702ED39DB77A87A192CA7A543E6205B979B9F5A6B512A3CA799E198B2D5797C0AF8D1D872CA455D4D431A7879D4DD76110B5FF7F4176B54477A9EB5E4A5D11214FDA585F0382751
311
D8E2582BA5D2075053298FEB8F1537304E32CB22C2E2B693DC0A760B1DFCA751BDC445AFDCBB12820ED85F6D5298933C7EF1211E9E057684056CDA3FEF3BB6052355E162DF27C59E965A8DDB7F9437EB72CDDA3A090DE65A5B2F50326247B7EC67B73ACC7047FC9B353D6EE990F772207C6EC52B39DC2F3C0754821DAB559F
311
7C1809C7D0DD5B0499D0442E0A6E391B3D5DB46D11E731E6794EC77523FBDAA242ED67F9FA1FB684255671F63C9BCFE6E7E896D51001A6113EF2298BA494E0B0980D1FA5B9D60796554C02256B1E0345FB7C6186B6A19D2DCA270416262845FA4F42DB5D9B0A0B6F07FCA2E56C242522E001E0CEB734AF310FC8BFB57E38E0
311
3AACE93B3326A2197891E68452B26A6307FDABFEE0223D3C03C3C73D2D5BC054C8311F12004CAE488E5C29287F8156A2CAA4AD0D7BE6B97264E4139F437CE73ADF52E5134C52B819777C18B323A5924E4F67AFD13B1CDC3A61793A79FAF5C0CEB718E441071E797C6DCCB9EFCF7E4A1E9F3DF3C2F9C9E8294E9586868788C9
311
72857FB0556D7A26941A7EEB9B580AD78EC40B85DC906B4120A563CA3B87797ED612D3B035962BB75F6515A393F4CB057F564CDF54F2E5A024514E6A1F901DB80C7E70B1FC05E356A7E72FABF4775B3E3FB8F70A2A8E7B6A94542BB304157978CCC999E707A29CC795E67A59CC546A5D47B368954CA7B6E75EC9E1F6FC73CE
311
3B4F71F8CB1A6B15923D61EAAEB14626AAA9D04A26EB9C66CD1BE86CA31A5D8703DE04CD1EBCE4F5CCB62F93909AD11E55799A781A956ED27D3E738F4538CB04ADABC7DAEF20BC35BA6A90BCC1DC61BA05F20D8832FFB9BC9B15E2DB838A0AFBB7E0C82A562127E0446894F427794C3037186F622BF24DE1B00AA10A23BFA4
311
7B2A180D6DA5AD6F7326FEB8C100C2D7142EB2A0B2A9D1008A09BA343D70E054AB69E2A7EDB783CBD92537FAF4A44D1296AC2792729104B3276C276C951D0CF3CF3F1E6B017720A7B8505A5FF9589365979678C36F1BAF759EAF57C60F1FF5FE9DCF5F8E764FF25A2D06CF25117A8FED51884C13B2B750DB0E4F5E3D64124F
311
CF11F0AD8F1CC3B3DA4B38ED22BF1CB2585EE6BFEBBA63FBFD44F9537B9B37BDD6B358720F98A8125AED4349CCFEB0E135F19E208A04CA7E2B10711185D72E381F448036EF57C9F874E54A971CA37A639E986AC0226DC5AA00D5B14FEA9192234B3DE617814FC221C92F33F1D392F297731B567FD98FD91D989379AF567A65
311
B8ADF177591DB90FBEA99BF4ED11B16E50A0AB1DBF1156D034BBE04D69D08F939D8E92BF525A1DDAFF80ECBC95D8F45D3FDD289FD23F7D8B452F8EBB34EC082DEEE68E18EDDF072060FAD2AB1504DD4879BF67099FC58F6E9DEFBF645D16334A3E9A127C6F1AF6132CF287E433B43A0EE93812B4AA0B194E03EE3FF91EF9C6
311
ED0074A2F6EB18A96A7C9890B1FCDA1F2095E944DB911ED54C60DF16FB74C8CE9BDC7C54C4F14078CF73C2FFF1F1BBCCD7CF64F71407EA1683DBC410D226627F66E509060D5C0AFD611DE681D509DB8DD12FB1265B03C6F5C55FF4C30BD94187FF692B4F152982502F193098A789526A038AB529A52BC0DC4FB6285CBAC10A
311
8B8DB75DCD9BDABBB221E27D1F8DA9F5EE5926A1C8AA9BA9BC09239C6A7F12914EA3B59EFF7AAEC3FFCCE56F1C5C2980AD072793527565E774F4631DB178CEEC691B1F367BEA0CF2907E1D6B854D527065979DDEF002D8B2ACEA7CE21AE297737EDE1D45B31233B73FEA35BCFDD0B09721FDBAF6432681F2FD10C3E9EFB246
311
FD6E854B344ACC9D8A0EEF876A7314B49B6A499FC650B099D650DBFEC7638ADFD245E2B7839DA5AC5F7D5623FC0ECEEC8653FC9B2BDD1AD4D00A566FBA7186DD3C9CD26512551637498CADB950FEC71ADB9A5524285DE328B8EC7EC75D2345AEC6A27C42AF6D9B92155315C80DBFCABBB7DA0FAE425C4FB896B15C9BFAC4FE
311
67DF5A23D30C93DA4D8F36FB15D100050DA6062E22AEC5F4DAC4F6FEEF97AE05DE63C6D38F9E068A20BC5E3B6BCD75320C5090924E7F93640A7735B1A43451C2D91EE62C6238B797349E59890AF3A520DF4A87095F3ABEC2E61F0593416CE46CDCBE0E00E2523FCCD04408588B5B6C9DB6459C786CE378770B54F51DA3A5E1
311
DF2A3349BEAAC234A6CF8993B598B3B25B4B113E353A4D750FA7534749430F3EBF2512E7EA3FD43C6AB9A1F765A58463B306721A15D224FAFE8C6F5E3432D57EE697DA0DD5A9D4866A8BCCAAA9DFF1F06047851408FEC060471D0E3EB86BFAF46E4B5E60311DC3E3CEA147C75CF971BE74689507154FF2D2E92F15CDB2B918
311
2B11459FD8ACAC5A85F174BC94A7F4EE4C4F5CAFA7C02E37BF0BC77B7DCD0C047BC316F562A01A441AFA7931CC84A28CB9F4AA367EB515778F29BFE61195FA671F4352E5E46E3A64773F1F76EE5EB36D7BCE9BCEAD837A4D77F8DB8C92AEEF6711920D7C7D0F76B0FD0EB7AB83724CD35BCA7D36DDDF5FBB7FF6F04A91F3E2
311
BB3B8F1A43CD659639507FF6331C5F697BCC782AE57D757A27D97F1AB9E0AEDB43F92F1B2AACDF5FEC8ADBAF9F814E2027003BA2F9E144B1938A7A04050AE5D953B82C45619165C813A10E76DD6906B3C16438064D14CDA713AEC420034613E1AC7241904A49FBF87409AFB1FCB9B72FE7933A87D8FBEDACECE4EDCF6A4FE9
311
FB94D5DEB74FAB7CFEAE17EE965DF980DCCA2D04134994F9A2E94D2265DA4FE6AA7B7AC15FACAC2B5ABBCD7DFF542C5314FDAB2E1B9D8B65220B8E2B638BE008E8DCA22678C820C5053664D15E89F2D735B51A84955E81A443545E9FF787BE0FA700A76D136C27DA179A7C6E8939E01BE756E19CB292798063D8B97F44E8A2
311
7BCF3A614FEB8BE974A718E86F7EC99B53CA35FA24F61F2B07266684623A3D4CF073E511F3A10A8FDAFAF0078C577F4DF9D339FE7862E5FA47CF4344209E5BF76D783B1B48E152AD281B15FCB934DCDA49CEC5706B1EE8B460F435324A5CAD154725E21AB8044B75A557A79F6C807B9340AA3D92503E866F4274412926C8C5
311
04E4D5EF8C0E68DD0B028781A6B4054F11CF18941F101C57CCC796773ABC8DED9CD91FE5788806C05E548895354AEAC96546D55B0E94A59F148D061F42AA398D822CDECA4CDE79E13469BDCC44FDC990F366BA5978C15F97ED80CBFD73B0CD9B8B83A4F6845BDFBFAF034019473FB9A63BD55D3A4A7284757071574029A4D0
311
16DCCBE95DD679EF3C4880BF169422F8C89B68A988D2B13793CAED4F74DE7486C72DC94DF46B8E93D8E02EFCB1FF9B3BA10C8AE7F653DF94F4AF466CDDCEF5776687F7C4C14B63E4EED1719DC2EC482D7DBCC7AE518CDE3D5FF86D39000EC3673C0044E1D308BF05F74D1B5F033A7D1BE7F74BC55BBE3E4A20F920946CA027
311
1EB17BD2B80E5660ACB8A29A79F5E4BBA49D4D945B6EEF4A7EFEAA65E5555BBB57A7E15D2F83C69F30BBB978D2B39F1F26FC097424D39BB33CA3D87ABF64E307938B685BAD44F71556A30B7E712CA4FE600613C3E554B69ADE949A7CFE214DF1FFF05CB82151EC6FC31950239F94CF7AD39DC473F6EA356E5EC2C4EFA04383
311
CEFE985A127484366FBEE3C0EC4FEA363E4F6632AE781392FD45D67B63FB8DF70E82734F431FD3443172A0E30A83D60982D55FA6A2CF86DBA8382502ACC6CDEF3B907982EED1160E14863FA242F9757347E1544275CCDCF71ECD5F8621CBEA326B8BA884AD7F825781923E66971F04010D574C541D8427A438A37EEF8AF882
311
40EED7362C953F5A81DE2D56109CDE2524EA0F5D2F87308C0C47BD97AD605878AB8589E17CA83930CB5E0DCCD75853D68B1AB136594926DE426C367428E9334AFAFF90ECE221BB5DC9E5BB53D2CDEF954EAA9CD814F0E5725F1965DD458E5F8487683AD86B9D0076BE3EE91EB1CECC5331A67A3F79D8B27587C12EC2A6A704
311
74749F27B4C0BBAFB94B34189E88DC18964BE4121B9137FD516C7755356E50D6714E31ACD222621EBBCD1CFF81D87479056A9DA0E0B8EA19D24CF937DA89F78E8650CCBDC110AAB6C4E46DCBFD0446BA9E2060E81F314AC2031E88135E5476AC0160EF5C0DD2EEF1B8B5CB2D198BE9A554A9093B5F7D7E4B5407DDFCA1D9C1
311
52FD97F55BFFFDFE802954DFEC8995B983E28AC92F1971E28F531DC407A1280EB125F64A72E617EFB27DFBCEDCDA2D6F2BDADA36873EE46B9BE1782998C63DA7182BC383FB6FD15DA472B175D7E8B4FC88F38D6E07FEAA3FA3CBB8F6B449ECF14D2175E5C5CCA3A42ABF24CA6C9395AF74535F4DDB38CB84F56614B0FD32D7
311
E19CA5CF988DB4449C40E23DF2B16772594554579094450F56F253CD25EA7F77366FB1CFE79696C428BB64D5A41E986189427E5E4D7E2DAE3D5BB4972B3DC44EAABDDDD63A2264ECFA5C786EB0EE1FDC5BE34FA0F08376869FD1E61EA06CAE15191135445EE8F0394161C3266A596AA035572BB0C8876180D8B9C77D307DF9
311
DCDF7365ABDA6F3A2366436457A4DFC1F259666569A9E4A79C817BDD5610E5200FCE894A358EC72858D50EF67545DA81C6FACE3D457BAF70367E1E6BDD9A952FB4F56247F58F523B97E640246051A72F79BE42FFA0B3187F63097F91C48B868586F714B0EBD5A00A8412C1236E1298F60C72BE6C96B82B404CADAA304AE9F3
311
03176B14BA53FBC2D5E86377E35542019E24D97B96A49B2C0E5006E7795954DEAF5DA58958839043C6C70BD3B1B33B6DC5C31316D8A6923F142E26F6711A2258AF977DDF1F970ECC4F1F2B434B96D81BEB6E89BF3BBB3C7C8CC80505070723D6D7D7D3C8CA27CA164A26024FED94B12A86031867241DA53D929636DA600F05
311
0BC40CE48B8BA03D69224720DEE2ED2127390BDF5E6EA64527BBD4C4C63FA76BB801FEEC0E61218EC98A8A86CD8313781617877E66692839B9468CF4DB8E50A73986E558E309C0D6F676F921BE02F1185454DC75B111572FF9D27D85EA14C05AD7271225B391C4275659CA4A43759D0BA44639BE4C30A84DB7F67A41399FB9
311
5CBF923B1B1672ABC807C1590557FB18D811983FA97F5E609516D62281D38B1281F68FC75528C35E4CD7DF0F7DBB5E5DD69C414EBEA2F4A5B241B996BA77AE6C772E367408C633EA3E438B68563EA8BE7667F3A4C4FDEEA52ABD78A2820F443B7914A15F180018D231E64519C56A12F6CA7C8DAE18F06F6B769DBF92329EF6
311
A5D18FBCE600F36BD8E8198DE5CDAA96181F3A756EBA5501CEE58F497EA4F418A2B82565B9BCC611713C0B708CCA1F398B78C5F7D03B3437CC18F13061F55C7BEDADD5ACB1DB0E36D3CE47FF6EA1A563A57E9649EA5D14D1A50EAA457463381C073777EF1600607BAF6428A7DDC079D47A204EF1E1F1F0589FB054D45E02CE
311
623B3823C317C601E589E22B1E88B448524B86A82828E32345EC18AE17214B42F8C41C6D428016D9BA31DDCB47572561E5A402E5BA4FCE55F78AF7268524AA04130F3A20BA5D1E9F9948EA48FC8F5314FDB35E21898198060034ACE5E3E2BBCA34092518F275190AF65F45867FF0900AA4B81F25427414C372BF51DC29AA85
311
5C5428EE1EEDD6B849AD60F6E73475C2D2523F8A2772C840A478DED18A8C5C91B085F255DC4F54EA7AA8947354FD17ECF8FB3B4A0DE7B483CAF3A1165EE05BBA413E5C1FEF3DE1D6B8F2F3F3251C17D9FCAB48A9AAF63AC773A0E413BBC46A9ADF84A566FC920E4D8C52C9769EE3301CADEEEDD92B312E02E2A7E35B7F1E7D
311
203FE5A7D75578B06E99D0E46FFADB8FDA17ED8880390DA29094202D6F645F76F6F96409CDA05495A96E84B04A00D1A6C6C81D7F3DE9376E828CCF144EE50E364ACCE7237EA0BFB5607ED1AC3CFE73794E5B61739D14DF1743441B1AC98F00ECEDE9E7301FA29755FBEFA68C91EF2B314CF510537EF1ABFC9A762496280B54
311
6F5EDAAF8A5B387D469FC9A878A92828C88608453ACEC6094DCA54111E7AD5B2663DFE2DD151B7F123B9F4FEF8EE36AB125FD7AD52A59B1B765B3E3F73E3F73DEA93875004D2AFFE3CDE9493B87A9904DD052028949041A91DC0E1BA47BA714343FD5B25E0A6A09503AFC17C790058A836A324FE31D7893512E28230332F15
311
3181C1E018E1124EBE1BA262AA428A518237D1EA7275E48C5C561BD19ED6912EDD8367DA0F31E40EEAE9683DA9257525AEA7B632B97119E17145A90231768A4F3B9120FF32E8319B015E3CBE26F1A754177D8185345817C096B0CE443A955D13AC15E1FB5DEEA0239EC32A3C92241A237B0B02FFCB4F93CF2B02570C8D192E
311
2F2A68CEEB42F12E6F8CEEFF46C251E22B4341C56FB08CCE550E7A9D6F4D6564B9EA52A83D5BF2C6E03FA19D2775E15A8A7ACF30A13C259EE7F5EF2AC3BA354F1500E1A07FC63FB4686E2F12EC69719F9ECF5FE3F35598DF2CE944008CE78F0911BA5BE5D0A34E0098FF038669C26030BA9B300303039852A8F6F496341737
311
CA7E0D2E3AAA36DE0A70AA7D9CA0D54D9AD84B18A44C9E625475E1C97B93BEBB38DCE7D227E67A2D00F531436136355F243D1FC0D712C5765754FA22FCFFAE97919161F46D6E61ACB37D83777B385889770B50765B127768443A5C4D3A4E35A3151111F146B7CA116F918A049F1C272F2CD7976C69A0068773451659A97E0F
311
4A08FE604C3FF6CE7385DB19F4D3ABC8A0D80DA8A42096AC377DB49382B36E270B6FA7570188B4B7D1DDDDA82ACA487CCA5D38BD3BD039ADBAFA4ACFF27809239B722081E2EB9F145320553D183F28471C388BC8814E5045676767AB58A8E72D1CED2CA731379515D2E533E4CF0B39DFC625F97AC4836831A4DE330E87A812
311
6FA17EBE583D614E71E22A8DBF2825599743E0640037303E8E1B1E8EA4E1ABFA4F62907B5E4E0E5DCFDAB417C36C6848A2B8D15F1E505434C0707E16B1CFC2A1C36A42BBF55734F8F4301DDC2A5110CEE8C0747F69519265012A2174BF4E955ECD4FDE095A3ABC70536B7AD0B9D7892F81287D667C108703C9B66A221E9A09
311
29D030008F77FF6F5D2108EF5706FC87A3069B976F7C9FC3239D13D283CDEA83597461079FEEE049B0F392889898B7D87D31F8D60ED7B56B91823A8E4EDDB36C6172ECEE42BD42B12CD67994FA0F0DFAE9389356F4CD4425A4B8AA55CBF7ECD585C6A2C2316791E43D5C06841ADBB226A87FD61515FFBB0167B74E56BD7F3E
311
90A57A97FEDCBDF483A0D6699A8C0849CAEB4947FAA90D8E332D9DEBD9F4738C37DA0CAF9CF3DAA68BCB67C420459C7A64498D6E848E5CADE92BB6901F607AA331104A67F7CD650EE169B1DAE94D2C31C2F993632259B6957E246EFE4C5481107B07118607700040E5812A2A2A38DA0076875258C753F60E0F2662C748EDD5
311
F3F3686B8FC3BD6FE631ECCAA1E8B1C1E565AD117E54893E79F4672E32F9E46B2A183DFDCF3EECB4D4D077DBEA0DA254D256045109670050129E9B9B1A9E4A11344D61497A992778095151510C4BB7EF2009B63AA4360635312E4CF668B7E0D3D85A8688E2BD83B569439892ADB63461930D428E0DE42E4AC57CE48DA5CC14
311
49530D8BD3D6A0F08DF20C8E8F570F2CFFFCEA286E30969B4654D498A58D9DA782E19FE3F002181838925592C4A1EF0B332D88B61A92C644547BED490D3A42CFFAB70E36D961F694F6307F72FF15A1C79D5B1B5CEFD353D9E2B52566DEC8F8F09CB3E8359C0F68EBBB7898243E34E12A015B2685AB303C04D3A9E00671FF3D
311
FF0A184E4A2ABEB2B666AF5B3A209C73D8EF29DCDB069C9F391EEE9DD0F74C7BCDE16F8F02E3B8816122BBEB50665775B600549D8BB33A54A6BF940C028118BC6878C79958D6784F9DEAA6E26748386FFAF8D0D0101E2847B6563F5D8DC1D78F787BE00E2C941AE12148D4A81599FE8F68D4DA5CDED75530ADE138240300EE
311
13B0FC13A1687FED6774662C05A2B7DFB186732F0D7A93545D8B0A6390AE5054D9CB582DA846D7A061B3358B45E2B52DDE63E114397EDB7E09233A579155D795BE76102CF277F4DF8B188C4F2879BEAE3C08347124BF9ED23B128259FE107D31E34A652F090B30B39E0D9AF917B76A2806135621A8A60681F16AF216514BBD
311
02711585B5B1AE823F4B2D0369EA5B6BCB863072727FFC871CA6C9AB79A814D989057E9470A3D238BC87CBB4A0EA49AFE2B86F22E499793CAA9047080450166BDC357524561E258C77CB697F1ABB32562CF87C3B7AA12F911EF19FB3E5C02222E887D08202A60A17151F5E053A86B437771088B4FEE14D652C43E8D939995D
311
34545E12E2FF93D4E366EAD25F10CB7DED141563C3D0C447AF06078A91135FD4B9611583CB4BF3BD167F2399CEAB0E0100F8FFC305F00F1711717173138B4B48C83022295DE657EFEDD97F238ECA80F528AFB4F8D67AD4E2594B9A3AA86D7487EFC313BA95745C186F0CDD84CC12DC9CB0424B42203D351FD9C0A3AF10CC7F
311
388E0329279087386421F194F4A29464C1DEF7EF8BE515E4A199DCD5B909342598D8FE6A231F71336248D5CEC5454455C7BE383B3BC7B260FED27F703FDC39A170F3827239102F59D4DEE7FEF82EAA1A5E4BA94DCC4CC44E7E2EDE20F24244E4454369D2E87C3F823F193FD4FD27E1C23984B01898D15ABC20711A8A558054
311
951A6AE280096BA36CBA439603B7B0B4C45F248C14B2383B4B5CD8ECECE4FF859AD4A6CA2326D020EF090F4041D28DB66E5256B56232CC52829DE8060BAE6BBF37D4B7469B822454FE93210A3E8D15E69FFCF01123222611C51C4FD0A041A0CFA2471CF6BE38D2B20FA4C3525B5B8B586759475CF80ADFE67A284AC24651E5
311
2B8E683D24C2622642F27E7C3C22783BCF63648BC398BD6CD0D9C97E7E7E3EACB6126DB7A6C1FD9F1031302EE67ED96F22B77C7CA0239BB324207559B105E4693EB26EC46182A92C9C0DBD24F29B31C5C5AC1F84300E0E17CEEAC15F5736FA4A98971E2F1423BFCD68D4BBD5F86E74B40A369F39507C88FCDB35D2DD8DEBEA
311
4AF999E23CF2816D204200DF6E611781B9884C1AC8888B4DE397320472959434323A5A36B22A8E1F721A270DF3BD65E4A31C11FF048AFB0D8B7B6881423793963A23CFCE935FC189ED36FAE35C46DA3574C979E4394BE52084F3081837BE033396D2EBD80F1F691B273F660D2B32FA27A33B1DE4ADA5F0FA4651511102DFA4
311
10DDA86E065272CA314D5249DF91B06BB92807B28EFD54F08F7B525252782CD276DD02E6B0319B13DF87B1F6361AD6B28FC0D711CF445429B9E5A433CD493051C49A9E03DDB1B147D880253514A5DED88009018620EE229101C041950E2D8AA8E1F5F5438E0C0C0C60EEDEE9E3E0C051948C69F84BB7B2A48A1F3C8EB9E686
311
4687F4F4F6F6E2FA87608ADAF9C5E117B7C1A737E710769DA1D15ECE6A84502AA855398712D5FB51BE92E4EF824969CE18278798AC303C2C7980DD2500ADF8FB1E6D6C2FAAFF9987178923334A244758BAA01A9A1B70FA5097D01E1CC2A58DAD0EC94CE6430AA9B0C10D75E3C6BAC670EFBADEE1607739CE0FC18A2587E3EC
311
3058562014C64219C69BC269082D5C2F4A659278D585755912176D78A1B641719C2A394CED495A1AC5D583FD2F5EDD93308EA7EAE8A6DD396598BDBD3D4CFED62D18A5BDFDE0DD5C80D1A89BA62697B131AE7CE9A6594138582F1B37D68F1749AC7CB67A70695D48A4A056AC1FBD4E82358CEAE38F54B95A9016F9000F9879
311
C0D9D131768635CA798895F27D6F1614F11F2838A83611AA51C9A3DDB539D42979C29F10465655C17BEC3E2760B80DCBF609198C7B171A531905F3EC218D696025975E986C6B4C666666787271F202805577DD5A3EF0CAFAF91B62DC4B2DB4217A7606282F31D8DDBC290593BAA93EA6353AFA9939B877978481E15CFC9F27
311
55CDC00C538F63A4BA3E80AE009B73CA0185687D339A507D165B74290D6EE46D5C58148F020C3668ABE9EF2F7549170DC80DB41FFC1D678FF19AEB10C7133832B104B80F691B3138F97A92D26E551F1F110400D45AC71A9B9AC41A1A1B1DAEED0B0810638EFFB511D46B121C6FEA0F38CD00E03CFFEB9713FE1F9C263E4DDE
311
C160D0497FA9A132BA608584057FB15380825DE6C7FC3C667EE947D488A09898D8E939C4953BF4EC9836344D2CC6B2971B2A21A572B06096F4982D2CC7232D46E8EA69DC83722E267754D777F97F96D5DA74E1E75178084D0E70F12AD33E5F71EF2AFA599B2BEBF60A5BE475F444F240CBFE8143C334E7ED9150FEEFEF7EB0
311
20C4DBED388DD1D6A167A76F3CBF119B578AE8CFA7736ACAFA4440A1C47185638A0D2F3EB5BDDEFDA958FB13CE4AA4923D5BF840392D45544329525749734866684BF7F8D9D54D892E19BCA9F829A0F8BFCBEEA6CFDFC61D74EA1A645ED7A1FF241739F15694BD835B66FEC5677E40FE69BD3F91AE402F036537218A401CB0
311
828604AD189E575015C6F3F6BBC8AC79CF6C70653847254B31551EFCBEB5978B9DB85D58D0FA41A9DFE9C624834AA04949D24B5AE6D299E072D152D12097920F14AA92C31C3B97E28B6C2E6E9C23D63043ECBBC0A60FDF5BD0C33C127EA8A3308B8B6AFFEB28B4455BF6E7AF4FC6222728357EB8E46E85053E6A8843AB2329
311
5BF838ABDA94658FEF3F832F147046B4ACD6F7D48E8FCC9618582961C898D1C7A253C91BFECBDA6BA18A1FCF70755DCCEE2222F41B76D23CA98D0CB3D95F0CF66D57FFF65E2A90F5DF40FC3187621E981BD0BC1D992787212688976B94A8F0C6EF646624B570B78E068826F87CE27041A95C9A4871FF65CC17FCB1639629AD
311
6A9517000D63AC231F3D741CB8430777E7ECF80CE7A3F73C0F162F7E56AA71F4DA80A33CD6ACEE78E2C11FAC03DAFCE929B106F8F6B3ED2DC71FF994BD9CEF4E9A94896EF1B6E2B7B4978168BCF0847A3D2A4F1B0500B926E634B174548E9FBAD27153FB5FC36799B1E6C7C38A94E1F9E996796D7B485E635D5287A2AE76FB
311
D11A341DB3F8F810385BB7296391973DC6C37C452A9305AEBBE0CDB6C566DB59FE60C8E94B1FD090354BF51439FFD1B48D725228FFA88C84F686F547107A7A235665A4593B7C34D748C1AC8D56DD5DA861EEFBADDECBBD65117E65851F90351AEB65F0EFCFF4BCFEF24CB7A5879699FAC437A7AF9099186CF006BB923A59E3
311
7D7A36A29FD8D2CBB914A5E9D0A8FD212FBF796AE9A67958FF1D5D8B85F78F96219D4714EB919929241B6C018AAE0C02069F8D919961EC5DDFBFB7573E3AC8E08BFB7C8534BE6DE045B3CD63DBD71F7638BA2309CAE398EA3A7D8F98BBBC7AEB367EFA5CFA27A9F8F2F52FE878058E6209C026453F8E7E8A237DFC389E9590
311
F6059B397CFD65183BBF936E86896612A5B5FEE49DAC8455D026218AFEBEC12B3523A45B57B82C9C97E02ACFA1184DB18E48CF615DBF39C3CC6F0B4AE6BBEEA2E39D944E290302FA3DE33FA7E40296E2EF7BF1CD855BBECFAD0FD622BEE9746FC4FDFDE545AE6E3BC234CADF83A0FB76DFB145BF3828AE3436368AC2498945
311
4F8FF70A177672C711CAA1A76107218CF948CA01F873520E7A2B118EBB161ABAD432932029628B6761590C98AB590C8C8C79798CE9F715BA696E839E9131A4BB68BE923F1747FBFF165331FFDD4D05997ACD168F12CA75348DAC04C7F509FE83898A8B421181AF492861CE81E4A2DD0A30850CFA95E05F097FF70F9E777310
311
D584A75BA7018922E271DAB1D785671157685B7D383D3E074DDB4F1E44EF04B07BAAC75A062077C54B9752C738C9D804D402E02851F3F89605AF189738C18C021D2139EAF72513824E10DDD3047BACC8521ED7E98B257D1166903B1B08FA6F918FD7E162913FEC7D0EF4787E29C35FBA8C6E2C9C20E9AB30AE42CA2A01A090
311
E7D010C1B5BF9CEE2A304BF3A987FB40D836979B79E18D70F257DA61E808472DD85B82761825779D6B90CAEB0F23360C6F80A7D7D77545E95B3DFF0CF96A827F9B5BCECD2C9698718417EF80FEEDEE938AFF55859D0D540B7FE09435583A6F04874A0C7E8CF234DF4879722000167F5872CEC6BF3EF7E5A8CC8121E6A35922
311
7C8A29C95212F9F735BC72A887D56B8F309FC525BFB4FD767AAEC4AEFF249CFBBD2DE1AB9969A6155C7D8DABC307E47324C1F916C7BCFF40ABA5644E9FFB9238D19ADADA49D9610F01ABBA57E4DFCBDCCBB2B93C8953206C91DE01B0E2651A6D6C31721915B31F7B7CBCE55466F6D70402788FA91D73BE4ADCBA99A35F17D6
311
B83383704917D6833F0FA3CD45C926ADB8BC17999A4A0AFBCE2541F7B8CF4C2F5FBA611B3E626D64407CB32C122DFF4EF8674D6EDBB86C8F7C6A16D50FA685E2CCA34F8F7D1D8265BB0042E9D7F1F666F7BE5FAA5184DF58E12122A42EF02F461B3F369AC746F96528AD208512AB56844CF75B97F352DF7995024FB0285538
311
5854F3798670D01CAC771AC3E1889EC25F61A20C1F8CAB46898817F9C47E2CDA1F286BF2F358298709FE567C91133E2638C8B53975E753EA8BFD3578B5F7186B7BF084EBA3F77BAC3132A5779902EC22AF2D2E79F42D324E083386DAEE9810D1B44A5DAA54513C7A71E52A4AB9257D975B621308FE4D2141CC3DCFE946C154
311
A3C1DFCCA7629EC69ACFA831634ADDA93C0388D2A9A2DDAFCF957C6995BCE7FBB6DC4EBAE79E63EB08E9A25F52F67076F7093CA545CA3053B5BF576DEAD4E0017143C5F759F32B2D6F145B52B67B48909B7C7FCA6586EE385A2189C16932CB6DDFD9152AE317C430492A578ED27B72D85D40C7C93C097939E1B50F4D67F053
311
34FE9DC362C30B7FF561B95259138ECFD9274C8D695C31B14D4EAA9F3D7FA8DDF652F8C5DEFA23284C799B7D94416DEE81E05A866302DC70192A5368EA65E1CED8BF107A1E2D3119A71E85DC1A7B0C1E93274CE04DD0F2ABC8AC7C987FDB002B6F81757B43502EF7A0D92E416494FAEEA4C9C090CD9557AA4D532F4996A272
311
B94355C5A0E4974EEA9627476F30809B94D8D8D860062E02204643BEC7D0438AF800FC7E2B26955D595421E83C69E1A07E0E3122285835F014AD538188CF9737CE76D464A353FA55A001AB2526B84E985083693BC76FE211CA1D000679C889E3C009832C87E1AC2EDD05C302557422DF0800E316FCAC86978A371F025A6C7D
311
AA9F333E7BD160403A1A06EA75AA9888FF01504B03041400060808005173474E28BB58AF800100009E0500003D00000035374543454543462D343637332D343736342D393731352D4633334537313038334533362F536368656D61732F436F6D6D6F6E536368656D612E786D6CBD544D4FC23018BEFB2B96DE15493C786010
311
10A34B880709DEDFB52FD0D8B54BD70DF6EFED3AC0B12E6442E2716BFB3CEFF3D18E26FB440405EA8C2B1992E1C323095052C5B8DC842437EBFB673219DF8DA659866649B798C078B48AE6410122242F2A4994AC7F93815DF85C049C8564CA0A901499DD886B2EB9B1E02448F358701A9235880C49A0119892A20C89D1B9FD
311
768815CAD268CB5E0355B40B1E47F3E37A2020464BED06AA57CE8FCC20C3C3446D46761A2632A8C1283D07031EFF2AE7CCB1BFEEE916E406DFAC8E36FFD99A9D60A6944090EEDC3B670C7DC13DE86B6B2C5C240D6E503BB85ACD579D513F1B9F9A69DC9CC22AFA80C426D40AF0B21EA168559156B6276F0F726A6BFF04DCD5
311
13A87A62CAD41FB24FCB2858B3952E3D852084DA25B9303C15687973CC8E8AAE11DF2836C38C6A9E765E8C1BA1BFB1DC29CDFE518C8B5A7655A4ED7E77291ABEB80DBD82EC866ADE1B8D05AF9E35CF09D7A061F38A986D9EC412B8F0F65E5D81534D9B231D1E5A8FE577A241F3A5FD01504B03041400060808005173474EE3
311
36299B9F040000341300003E00000035374543454543462D343637332D343736342D393731352D4633334537313038334533362F536368656D61732F47656E65726963536368656D612E786D6CD5585B6FE238147EDF5F61E5BD1498E9A895A02398AA5D1E2A5665BAAF96710C78D6B9C87168D95FBFE7F81242134A968E46
311
9A4855437C72AEDFB965F4F53551642B7421B3741C0D7AFD88889467B14CD7E3A834AB8BEBE8EBED1FA3495108B3E01B91B0DBD1F3EC8E6C991A470F22155A72F73CBABC1D4D5921DCD1934863A11F990102A6F61466977B8AC49FB13C174CB3940BE4504A22E3713489B7F82406516225536940BD88E4E552493E8E564C15
311
22225AB0384BD56E1C195DC26FAB13882C2EBD62E1FF9E5B0FCC453132C99548446A1872B62267078F1EF14C3DB1DD1952DDBBB384AD456779F387C51992E0ADCE12FED2622BC5CB1952FC9BDF3295E9206E961AB116DA7ACE45F76F07A26EFC3FD762FD7362FC3C0BAA4DB34C09E682CA5167BADCD16CF94370E331E2F1A3
311
D852008AAD5D64BA2373478338AEB1583B905396D158182655E1B938D07926CF007CC7E85E6709999B0D3827C0BF406BEF55C68CF5579DA32C8C85BE03EFE788787E8FEC95DC85C3E31A615658D81F9A34499612004CE69CAB12531B15A887ACA642C110F8C1A8C1974A85853F407794695C905C688E69B116550ACA946B9B
311
4785FC179E0E229240B62665328E86D5BD2C800CF5D80289F35AC25E3DD51508F4BF9A74A0F5A557BB3D284BC6FF59312E282F956A75C5D453906F48D11A876599E49425602400842995BDF02C4D012E226658F78A710416AC552831FDDEF0E6F0BABEBEA9DC36718CCEF4DAC5A0DF871AECBDD8F448F015F8DA113A473609
311
D1751672B723874B2CAB21ECD6E284E51DCC7D1A47A00F60EC21DC4CC3CDC406DC03760A4E6C772F2F4D561A9AE58C4B03F5B4838701472139EDCB36819A66C472B52AB1139C648956F43E0DAEC067B56B0818F5961D3D446B8F1E1E78C0EAD7EE02AF2895D813E88AC5014A7B436DBB20F778D40A1D9737EFE45B47D49CC8
311
360F9966B15AABAC802C1005548A93EE469F5D55317CD8BF0AA86CABADB2A009D4D6F60CFE53AE370AFE8C45415B15D362A5A038E766E34B00F8C2E3E7098E2093B1C96349FDAEA158903B4BDAEA665F473FECE72186E3BDDCACCADA31839CD6D4FA7D47DF5469006ED340EBE71DF960DDEE88A3E17557039B58C278A1795B
311
A8079419DA8FC5BA1BAA1A66238BF69C7B2BE4E6274839122B7D00BE8B7D52CF61B2D63216046008C8B330FC10F8907787DEF061F47965BBA02FD8F53BA12F9827614979F53563D0BB1AD67A03DC0E00E2FB2CF3EFB457E70E65A3D7C78E7D700DBB45132AE9BBA5E468CD861408961AD8B00A55C2FCC677F4456039FD9F19
311
07A5B3E2D0EE845FDBA2DAFA88C64195671AD6D282DA2E45B1F50A0D632B0D0B6718757DCC7C84A70A3656F222CDA6DBF07E204AB358961D1BE31E53A82C2C0D56DBF61A5608B5A252A932A1DC6E32462430853353EA30417C8199A662E946A4EF352268B8CDB9A9C6762515ACE8E09BBC031C608A02C4BA89C9DDC074E46E
311
0E26A17BCBD4ED43270D03E3645ADB81F6D62CC07A3243EB81C07E01681DDF2DB4730631E6DDA6CBBD048BE9F06AEB3CF06B31DD6C9575E37E9FF17161342C4C76D95519672A6509E0F5C4E71B4B1916440059F57D0921F496237E473A83E3E4E06353BD9D27593594D7B6707C08D22FEBDFBFFE03504B0304140006080800
311
5173474E8DFFFC99640100009B0300004500000035374543454543462D343637332D343736342D393731352D4633334537313038334533362F536368656D61732F52656E6465724D6174657269616C536368656D612E786D6CA5535D6BC230147DDFAF08799F5FDB600FADA20EA430D968A7AF12D36B1B481349529DFF7EF9
311
A85A718860DFDA73EFB987734EA3D16FC5D10E946652C4B8DFE9610482CA9C8922C6B5D93CBFE3D1F0291A6B0D26A3255464182D920FB4233CC629881CD49C18508CF000E3EE309A100D61622AAB4A8A33B2483F11CB639C545B0E1508438C3D3C0361192846DB7ACD198DF186700D182920B914FC1063A36AFBEE8FBA03FF
311
D3CC1D1F4FC9E151A2AF59F628C5B7821D83FDFD3489305080F2EE04BF962195FB285E9D2DD352320A9E827AE357594914E42B1F5FE35F83688F60C4C91A6C946ED0668E8F244BC2EB0BA6E3BCCFC0B6A4B507F9F9F8D51EB315D9BA9E08D308E89F96931666E577837E2B4172199C68C4FE306156D47DF51C698C7B9D97FE
311
5BEFE2190C3C38BB054E6E8163FB039CB4B993C80BF18D969203116D6BBD26238B821F9BB909AD6D9C71B85BCD8C33D66FEA3D31B4BC0AD45BEA46BBEDDFEC0F504B03041400060808005173474EC595D7F451000000570000004700000035374543454543462D343637332D343736342D393731352D463333453731303833
311
4533362F4173736574446174612F41737365745461626C654F66436F6E74656E74732E62696E536160603031707336717471D43530B230D135317732D4B5343076D175343137303772B5347431371502AACB4D2C492DCA4CCC492C28484D2C4ACC4B4E050A82012F90744FCD03CA26072767A4E6260200504B030414000608
311
08005173474EC55C663656000000680000004500000035374543454543462D343637332D343736342D393731352D4633334537313038334533362F4173736574446174612F53747265616D56657273696F6E5461626C652E696E665D8CBD0A80300C06F73E4B29FE6CDD8A2E82A083B8B7F209014925C9FBA3AEAEC7DD2555
311
D896CB85E51C2A1BD834F6A1F56EC4494C4695278364ABB24ABD2146F88CCEBB89D5321FF8F3F43D672A3B44DF3CB6A1710F504B03041400060808005173474E922A2EC537010000A20400003600000035374543454543462D343637332D343736342D393731352D4633334537313038334533362F4173736574446174612F
311
636E782E786D6CCD943F4FC33010C5BF4A6489317612FE578E2B044B2790A818D8AECEA55875ECC8BE20F8F6D86D061088A943D7D3EFEE9E9FFC4E2E3F065BBC6388C6BB96D5BC62053AED3BE3B62D9BA82F6F58B15432784FDF30563818B065B9CC94DC063F8D73A9C31E269BABD6B8DD5CBC8B11690D1B8B8FFDBD77848E
311
222BB485185B16F51B0EC06122DF61DCF10E0878CD03463F058D69129901E7493A2010764C35557D5B564D595DAFEB8B4573B538BF7C9522934A6EBCB7336FD2B2E0C7B3A6D287BD4C55526440C9299899CAAF61EA2F957C639C148954325248AECC1DF439A60E18476B3450324F784D4865821006290EB09222BBF0C38B07
311
EC8D33B96595A401F9F0940462208327E8C97F6A8FEFCDCA4502A7F1941DF9ADF1F83E3CEF7FD1CB2196FBDC9C5E5A7E6BE4C6F547C88AD89F93149D7C5DD417504B03041400060808005173474E977DEE47E6000000600100006700000035374543454543462D343637332D343736342D393731352D463333453731303833
311
4533362F5265736F75726365732F34304643344144412D303238342D343742312D393033442D4134373037324539314437352F7468756D626E61696C2F302F636E782E786D6C4D90CD6EC4200C845F25B2D4630249FF57847D899E7AA9287153B404233055FBF68596C39EC61A7FB23CA3CEDF871FBE306547618579923060
311
B0B4B9B0AF50F8637C82E1AC5522E22B0C86600E5CA1D9A0D59EA8C46E6DF8618A6FAE77E1D2CD1D032667DF62D861B0DEE4BC42B69F7898C914A60DF365DA0C9B699E12662AC9623DC0EEC07EC026348C1BE845CECFA35C46F9F832DF9D9687D3EDFDAB128DD4EA9DC877DE05C644F1669196EA18EA3F528906685592EB54
311
0B01FAEA3925EA52ABCCA9E6EF10FFC40A9918BDB3866B4D822C238F15427328F10F6B255ADE2A7F65546DDDE85F504B03041400060808005173474EA233C2345D000000800000006500000035374543454543462D343637332D343736342D393731352D4633334537313038334533362F5265736F75726365732F34304643
311
344144412D303238342D343742312D393033442D4134373037324539314437352F7468756D626E61696C2F636E782E786D6C4D8B490E80201004BF42E6EE76F3C0F216234B883063108CCF170C074F95AE5473F5C4C06E932E4F28601967600677D21E9D8092EDB002539227A2FCCB80E1168D80A6417297A89C5D6963B712
311
9A0D1E8F2EE73AA7B62BBEB8B27DE50B504B03041400060808005173474EBE89762363000000880000005B00000035374543454543462D343637332D343736342D393731352D4633334537313038334533362F5265736F75726365732F34304643344144412D303238342D343742312D393033442D41343730373245393144
311
37352F636E782E786D6C4DCC3B0E80201004D0AB90EDFD75167CCE820A4A845D83603CBE602CAC26799919AEEEE0D965E2E908050C6D0FCCE04C8BC355404EB6198129C92351FAD580A10E464065907C8D948F8F166375F655BDC3FDC3B4E530A176BE7057BDC43B2A593FE403504B03041400060808005173474E7F09AB0C
311
7E000000A30000003600000035374543454543462D343637332D343736342D393731352D4633334537313038334533362F5265736F75726365732F636E782E786D6C4D8CD10AC22018465F45FE7B4B97E106EAB0ACF718CD0D99D3B0193D7E1ABBE8EA83C3778EE83FAB476F9B5E2E0609F44000D9F088A30BB384BC4DB805
311
D42B9162DCFE6E80C2B05A09158312738AF9B9A3D14E43F6957A17961D3272BF326D34264DCB30E3178A3B723258334E7873EBA8E1E7621CAB52E6D72B5BF3EA0B504B03041400060808005173474E78D28B490B010000550300003400000035374543454543462D343637332D343736342D393731352D4633334537313038
311
334533362F536368656D61732F636E782E786D6CCD933B4F04211485FFCA84C47280199FBB61D8C2C2CA46ADEC10EEAE64813BE161F4DF0BEB14BB899D16DBC1C9979B730E5CB1F9F4AEFB80982C86890C94930E824663C36E22256FFB3BD26DA48888F908235D501E26D26422C52E629917C9C05615D75467C37E11EFD17B
311
0CCFFA1DBC229D762AA589A4C395AA92D140DA53A3B2A2038D90B0440D7542B61E96093A82CA60881CF9B0EAF9D8F3DB97E16A3DDEAC2FAF5F056BA4146F886EE16DC81071BE18B9C67A0CD51017AC0152946817AAA520F2D81DAD7D08560929528EB58585CC5F7325D53C3BAB55AE65B103F8C348C15AD893C80F10205A7D
311
AE994FECFD5BE8270806E2637DA968953BD7ECBFB9FC5B05ECB001F51BB48590DF504B03041400060808005173474EE3603EBE7A000000C20000002C00000035374543454543462D343637332D343736342D393731352D4633334537313038334533362F636E782E786D6C6DCD410EC2201085E1AB90D9DBEACE05D0987802
311
3D01A1D34A8419C380F1F82DA68B9AB8FDFEC93C3D7C52546FCC12980C9CBA232824CF63A0D9402DD3E10C6AB03A3397DD192872090D3406ABE7CCF5B5D18893ABB1690CF4DCF02282E5EA8A5BB96FFE536F285CB347F95BEFFE81C9ED5AFF9D5B1FB575BB00504B03041400060808005173474E93B6B2727D000000A30000
311
0007000000636E782E786D6C4D8CD10A832018465F45FE7B5BA26903B58BB0F7886521331D2E638F3F1D5DECEA83C3778E1C3EBB47A74D6F178302D2B4806C78C4C5854D413E56DC031AB44C311E7F374061DEAD828A41CB2DC5FCBAD062D739FB4ABD0BCF0B76C28CC68C13665C50CC0467F82E4887274A8D206D4F0DE5C5
311
B855A5CCAF57B6E6F517504B03041400060808005173474ECA1DF9C9A900000073010000130000005B436F6E74656E745F54797065735D2E786D6CA590410EC2300C04BF12E5DEBA70400835E500FC800F84E0B411AD13252E2ABF27A55740421CEDDDD9B55CEFA7A117778CC979527255565220197F75D42A39B22DB652EC
311
9BFAFC089844F65252B2630E3B80643A1C742A7D40CA8AF571D09CC7D842D0E6A65B8475556DC07862242E78CE904D7D44ABC79EC569CAEBA537E3521C16DF5CA5A40EA17746733E0B6615DE7217475F386F18B9481C510F1F021CD9FF027EA0E1F5C4E609504B03041400060808005173474E3DEE336E6400000079000000
311
1B0000006175746F6465736B2D64657369676E2D7061636B6167652E786D6C35CBC10E83200C00D05F21DCA56CA76D41FC96062B120735B69A7DBE268BB7777961F8D5AF396893C2ADB70FE7ADA196782C2DF776D7A97B5933C430F15651E5469C55D70F80A4992A3ADC954792C525AE70A1E4D6AD9816CC044FEFDF01FE3F
311
DE907802504B03041400060808005173474EB7304F03F9000000960100003700000035374543454543462D343637332D343736342D393731352D4633334537313038334533362F4173736574446174612F636F72652E786D6C8550CB6E833010FC15B477836D9C8446C65153C217F4D49B050EB1126CE447D5CFAF1DA8D49E
311
7ADAD5ECCCECEEF0D3D7FC283E95F3DA9A164889A15066B0A336530B315C5103C54970676DF84583C2C859B59061107C72362E1B34581394C9A8B1A3DA40E9BD0A500C8FD4B4E0879B9A652963480C7F2F1739DCE5A44A52AE3CC163D4E326D56372D357AD1C88F3E5DC914BFD86BA9EEE116BC80E350D668831D677B8A7E4
311
70A0BCCA62C1839E7FB60F4EC9A046101493178429C28777C28E747FAC771FBCCA4CC17D70E9E76D69FE0EC46BBEBA9341F26A9DFE718DCBF8BF6BD426D474735D151E0449473E07825739A5549E11A69A1315DF504B03041400060808005173474E1E42E5CEF40000008E0100006800000035374543454543462D34363733
311
2D343736342D393731352D4633334537313038334533362F5265736F75726365732F34304643344144412D303238342D343742312D393033442D4134373037324539314437352F7468756D626E61696C2F302F636F72652E786D6C8550CB6E833010FC15B477836D9C4023E34829E10B7AEACD02875A0936F2A3EAE7D70E54
311
6A4F3DED6A76667677F8F96B79149FCA796D4D07A4C4502833DA499BB983186EA885E22CB8B336FCA24161E4A23AC830083E3B1BD71D1AAD09CA64D4D849EDA0F45E0528C6476A3AF0E3875A642963480C7F2F5739DEE5AC4A526E3CC163D4D32ED55372D337AD1C88CBF5D2936BFD8AFA811E116BC901B52D66883136F478
311
A0A46928AFB258F0A0979FEDA35332A80904C5E405618A70F346D8891E4FF5E19D579929B80F2EFDBC2FCDDF81C0BCDAD03F6E719DFE778BDA849AEE6E9BC28320E9B8E740F02AA793CA33BA547392E21B504B03041400060808005173474ED7FE7E01FA000000960100006600000035374543454543462D343637332D3437
311
36342D393731352D4633334537313038334533362F5265736F75726365732F34304643344144412D303238342D343742312D393033442D4134373037324539314437352F7468756D626E61696C2F636F72652E786D6C8550CB6E833010FC15B47703364EA09171A494F0053DF5E68243AC808DFCA8FAF9B50395DA534FBB9A
311
9D99DD1D76FE5AE6EC535AA78C6E01E72564520F66547A6A21F81B6A203B73668DF1BF689069B1C816120C9C4DD684758706A3BDD409D566943B289C931EB2618E4D0B6EB8CB45E422F8C8708F7C15C3434C32C7F9C6E32C0435EE523546377553D202BF5C2F1DBE56AFA8EBC911D1061F50D39414514AFBAEEC09AE6BC28A
311
24E6CCABE567FB60A5F072044E4AFC824A82CAFA0DD313399EAAC33B2B129333E76DFC795F9ABE03EEEF61F9D042CDACD8A67F5CC33AFEEF1A94F615D95D3785038EE391CF0167454A29966784B1A644F937504B03041400060808005173474E33952A5F0D010000B10100005C00000035374543454543462D343637332D34
311
3736342D393731352D4633334537313038334533362F5265736F75726365732F34304643344144412D303238342D343742312D393033442D4134373037324539314437352F636F72652E786D6C8590C16EC32010447FC5DA3B3660129C08132571FC053DF5866CE2A2C41019A8FAF985C495DA534F8B86191E3BE2F035DF8B
311
4FBD78E36C0BA4C450683BB8D1D8A98518AEA881E220C5E25CF86583C2AA59B7906590625A5C7CACD2E06CD036ABD68D7A1595F73A4031DCD3A1053F7CE859952A86E4F0B7F2A1869B9A7449CA974F8A18CDB846CD985E3357A31790A7CBA92397FA8CBA9E6E116BC806350D668831D677B8A784732AAA1C962298F9873E2C
311
5A053D82A498EC10A608F337C2F674BBAF37EFA2CA4E297C58D2CE2B346F0792E1FECC8EDD31459A04E1278276B8EED09171CCE965473ABE11D52BF807181FE3FFC0686CA8E90A7C253C4892FEFFBC90A2CA05A6F16C37CD5CB6FC06504B03041400060808005173474E236C285EFB00000096010000370000003537454345
311
4543462D343637332D343736342D393731352D4633334537313038334533362F5265736F75726365732F636F72652E786D6C8550CB6EC23010FC9568EF4E626320458E9128F001554FBD59CE122C888DFCA8FAF9B5492AB5A79E76353B33BB3B62FF35DDAB4FF4C138DB03AD5BA8D06A37183BF690E2857450EDA5F0CEC55F
311
34A8AC9AB087028314A377E9B140DAD988B6A0D60DB8802A048C50E97B6E7A08FA8A93AA558A99116EF543E99B1AB1A6F5CC932225332C523364377331E8411E4E87233DAD5EC9F1CC368477744DBAAEE584737E3EB66746B75B269A2296229AE967BBF6A8220E20594B5F48CB48BB7DA77CC736BBD5FA4334852945883EFF
311
BC2C2DDF817CC3E092D71844334FFFB8A6C7F0BF6B3236AED8E23A2B02489A8F7C0EA4684A4AB93C23CCB5242ABF01504B03041400060808005173474E6FDFA489F8000000940100003500000035374543454543462D343637332D343736342D393731352D4633334537313038334533362F536368656D61732F636F72652E
311
786D6C8550416E833010FC0ADABBC13624D0C838524AF8407BEACD320EB1126C84EDAACFAF0D546A4F3DED6A76667677D8F96B7A669F6A71DA9A16488E215346DA419BB185E06FA881ECCCD962ADFF4583CC8849B59060E06C5C6C9877485AE39549A8B183DA41E19CF290C9676C5A70F2AE26918BE023C33DF259C8871855
311
4EF28DC759087AD8A57A886EFAA6D502FC72BD74E45ABEA2AEA7475435E4809A0657A8AAAABEC33D25754D5991C49C793DFD6C978B125E0DC029262F085384EB77529DE8F1541E3E5891989C39BFC49FF7A5E93BE06FEB9D8E15DBEC8F679887FF3D8336BEA4BBE7A670C0493C711D7056A48C6259038C35E5C9BF01504B03
311
041400060808005173474EF9F29BEC01010000D80100002D00000035374543454543462D343637332D343736342D393731352D4633334537313038334533362F636F72652E786D6C95914D6EC3201085AF62CD1EDB18FF2411268BC8394157DD5133715162B000573D7EA176D576D7AE408FEFCDF066F8F97D7E646FE8BCB6
311
A6079A9790A119ADD266EA610D377280EC2CB8B336FCC0203372C61E920C824FCEAECB2E8DD60434493556E12E4AEF3140363EE2A5073FBEE22C73B98648F87BBEC8F12E27CC69BE7182073D7F59478732A0025195F448CA8A94DD13AD4F557B62CD332F1229F8AA4D60D5DE0CE71754995D428C04A261BCD89E23B66AB543
311
5AC54FEA9B4617916EB80CC3E54AEAB663A4EEDA9A1C3BDA902B634347CB031B581B8B44B3E03EB8389ABD481AC25FED9BF157B47551FF8CB6393C08FA1DAA487316BCF85C423CD34EC407504B03041400060808005173474ED0E6F3DB08010000B201000008000000636F72652E786D6C8D50416EC32010FC0ADA3B366027
311
71234CA4D4F10B7AEA8D1AE2A0D860191CB5BF2FC4AED4DE7A5A3433BB330C3F7D8E037AE8D91B676BA01901A46DE794B17D0D4BB8E20AD049F0D9B9F04B06C8CA51D7906010BC9FDD326D50E76CD036A1D629BD81D27B1D0075437CD4E0BB9B1E6526971015FE9E4DB2BBCB5E67345B75820733FEAC76B396412B108CD017
311
4C182687375A1ED9FE58ECDE799E94822F8B519B9551D1DD5C8D9E419C2FE7865E8A57DCB46C8FCB8AEE705591129765D936A465F470603C4FCB82FB30C73F6F4762CE80BC7C245F9EAF94E01FCE0D9B208652C8D9E10B04E17922FE845E26F58FD0C686826D07D70D0F82C6404F221AA706E378D61B676A5B7C03504B0102
311
14001400060808005173474E6A2A9A1DF9000000A80100004F000000000000000000000000000000000035374543454543462D343637332D343736342D393731352D4633334537313038334533362F4173736574446174612F446566696E6974696F6E4974657261746F7250726F706572746965732E62696E504B01021400
311
1400060808005173474E40A3BF54EC0000003002000045000000000000000000000000006601000035374543454543462D343637332D343736342D393731352D4633334537313038334533362F4173736574446174612F496E7374616E636550726F706572746965732E62696E504B010214001400060808005173474E88E5
311
7597CD3F0000904100006B00000000000000000000000000B502000035374543454543462D343637332D343736342D393731352D4633334537313038334533362F5265736F75726365732F34304643344144412D303238342D343742312D393033442D4134373037324539314437352F7468756D626E61696C2F302F67656E
311
657269635F706E67504B010214001400060808005173474E28BB58AF800100009E0500003D000000000000000000000000000B43000035374543454543462D343637332D343736342D393731352D4633334537313038334533362F536368656D61732F436F6D6D6F6E536368656D612E786D6C504B01021400140006080800
311
5173474EE336299B9F040000341300003E00000000000000000000000000E644000035374543454543462D343637332D343736342D393731352D4633334537313038334533362F536368656D61732F47656E65726963536368656D612E786D6C504B010214001400060808005173474E8DFFFC99640100009B030000450000
311
0000000000000000000000E149000035374543454543462D343637332D343736342D393731352D4633334537313038334533362F536368656D61732F52656E6465724D6174657269616C536368656D612E786D6C504B010214001400060808005173474EC595D7F451000000570000004700000000000000000000000000A8
311
4B000035374543454543462D343637332D343736342D393731352D4633334537313038334533362F4173736574446174612F41737365745461626C654F66436F6E74656E74732E62696E504B010214001400060808005173474EC55C6636560000006800000045000000000000000000000000005E4C000035374543454543
311
462D343637332D343736342D393731352D4633334537313038334533362F4173736574446174612F53747265616D56657273696F6E5461626C652E696E66504B010214001400060808005173474E922A2EC537010000A20400003600000000000000000000000000174D000035374543454543462D343637332D343736342D
311
393731352D4633334537313038334533362F4173736574446174612F636E782E786D6C504B010214001400060808005173474E977DEE47E6000000600100006700000000000000000000000000A24E000035374543454543462D343637332D343736342D393731352D4633334537313038334533362F5265736F7572636573
311
2F34304643344144412D303238342D343742312D393033442D4134373037324539314437352F7468756D626E61696C2F302F636E782E786D6C504B010214001400060808005173474EA233C2345D0000008000000065000000000000000000000000000D50000035374543454543462D343637332D343736342D393731352D
311
4633334537313038334533362F5265736F75726365732F34304643344144412D303238342D343742312D393033442D4134373037324539314437352F7468756D626E61696C2F636E782E786D6C504B010214001400060808005173474EBE89762363000000880000005B00000000000000000000000000ED50000035374543
311
454543462D343637332D343736342D393731352D4633334537313038334533362F5265736F75726365732F34304643344144412D303238342D343742312D393033442D4134373037324539314437352F636E782E786D6C504B010214001400060808005173474E7F09AB0C7E000000A3000000360000000000000000000000
311
0000C951000035374543454543462D343637332D343736342D393731352D4633334537313038334533362F5265736F75726365732F636E782E786D6C504B010214001400060808005173474E78D28B490B0100005503000034000000000000000000000000009B52000035374543454543462D343637332D343736342D3937
311
31352D4633334537313038334533362F536368656D61732F636E782E786D6C504B010214001400060808005173474EE3603EBE7A000000C20000002C00000000000000000000000000F853000035374543454543462D343637332D343736342D393731352D4633334537313038334533362F636E782E786D6C504B01021400
311
1400060808005173474E93B6B2727D000000A30000000700000000000000000000000000BC540000636E782E786D6C504B010214001400060808005173474ECA1DF9C9A90000007301000013000000000000000000000000005E5500005B436F6E74656E745F54797065735D2E786D6C504B01021400140006080800517347
311
4E3DEE336E64000000790000001B00000000000000000000000000385600006175746F6465736B2D64657369676E2D7061636B6167652E786D6C504B010214001400060808005173474EB7304F03F9000000960100003700000000000000000000000000D556000035374543454543462D343637332D343736342D39373135
311
2D4633334537313038334533362F4173736574446174612F636F72652E786D6C504B010214001400060808005173474E1E42E5CEF40000008E01000068000000000000000000000000002358000035374543454543462D343637332D343736342D393731352D4633334537313038334533362F5265736F75726365732F3430
311
4643344144412D303238342D343742312D393033442D4134373037324539314437352F7468756D626E61696C2F302F636F72652E786D6C504B010214001400060808005173474ED7FE7E01FA0000009601000066000000000000000000000000009D59000035374543454543462D343637332D343736342D393731352D4633
311
334537313038334533362F5265736F75726365732F34304643344144412D303238342D343742312D393033442D4134373037324539314437352F7468756D626E61696C2F636F72652E786D6C504B010214001400060808005173474E33952A5F0D010000B10100005C000000000000000000000000001B5B00003537454345
311
4543462D343637332D343736342D393731352D4633334537313038334533362F5265736F75726365732F34304643344144412D303238342D343742312D393033442D4134373037324539314437352F636F72652E786D6C504B010214001400060808005173474E236C285EFB00000096010000370000000000000000000000
311
0000A25C000035374543454543462D343637332D343736342D393731352D4633334537313038334533362F5265736F75726365732F636F72652E786D6C504B010214001400060808005173474E6FDFA489F8000000940100003500000000000000000000000000F25D000035374543454543462D343637332D343736342D39
311
3731352D4633334537313038334533362F536368656D61732F636F72652E786D6C504B010214001400060808005173474EF9F29BEC01010000D80100002D000000000000000000000000003D5F000035374543454543462D343637332D343736342D393731352D4633334537313038334533362F636F72652E786D6C504B01
311
0214001400060808005173474ED0E6F3DB08010000B2010000080000000000000000000000000089600000636F72652E786D6C504B0506000000001A001A00210B0000B76100000000
310
504B03041400060808005173474E000000000000000000000000370000006662782F30353831373535452D363637392D344231412D423435342D3231413135463133303143442F617474726962757465732E62696E504B03041400060808005173474E000000000000000000000000350000006662782F3035383137353545
310
2D363637392D344231412D423435342D3231413135463133303143442F76657274696365732E62696E504B03041400060808005173474EF270F1330600000004000000360000006662782F30353831373535452D363637392D344231412D423435342D3231413135463133303143442F747269616E676C65732E62696E6366
310
60600000504B03041400060808005173474E88E57597CD3F000090410000420000006662782F30353831373535452D363637392D344231412D423435342D3231413135463133303143442F7265736F75726365732F322F305F67656E657269632E706E67355B773CD4FF1FBF73E71C0E67EF7576C9DEF3EC995D46C6A1EC50
310
46649CBDF79E192942562825CE965D8A868C2842C8DE9FDFD1F7E7F138F7078FCF6B3F5FCFD7EBFDFEC41B196891913091804020321D6D7513FC77D8C5070EC3FFEE51B21F068154CC75D455CC028A3EA68992803810109FDDE5D5CEC5521B28A1B422BF80741695D5B529DA1C2D058AD2388BDA9F476F7C2CADC939304173
310
DBF48A452BF8A700C0C70C3D121C1AA15A5270C22E2B9E28763651F7DA0D12CE11077B2ECD0D560B5E3DE2368B1E65C5E1C87384A4CC5F2D9FB8BE39E9B77C753783A37998F5CEF1B4FEE553463245C9712270880DF339E0B882A6BA713D865F6F384C842D440934EF264F4A304F8DE4EEFA1E2BF5E2D91F5ADD9613D6E31D
310
DB33ED31DB1D7916CAF091286EA3D31B9CFECB78BB0060245B943C4C040119FF780A74DD308BA9D028678674EB5504ECF284EE814DAED07440BAF649BE4B55DA2890F4D73E2D489A59EE54FDB0A85B59F2F52C4858A02705C4815A792B0C4A996A2023ECB195073E115E3E3647F64243A8338F2000BCB58DA5692C7E7C3D41
310
3F963FEDF3CF00FBB0F831A9D51360FECA43819F527B89FA260EB63C5DA676830AA3626A3693B23F1A17A0DFFCE3EE164E31B5365EDF0C89EF64D8E38AB0BA9A1117D7C3A0EC44F44F4023095E80BA610DE336D0F99593A88BFC5306E72DF98F7FD132ED95878DF2964EA7E43071359FD83B2BDF9C6B5BDF768F0F3C0FC351
310
199526F53D9460A34511F75D1B63E488178569472C91A94497807A3FD4A390C6558F26D416365C3656DE6E769DA9D8FC73774E1709812842DD8EF96AED1960F79D21B395CDDFE6F92CB4EB962A4668C76990E2EF29798C8941D67DA50F4A5F947872460F1F6FDB794E8A29FD7AC0C0D6E0714339CE258FB17AE8535221E346
310
4A10F29A0BE5EEECEFC5675926A89F49EB14E5711894F6586DB5754EB4D5DA9C6437EBA57DB97A24F8B8A8DB295FFD73266CF57E82694DF5166DDF93573AFE9C9C5EB05F8FEF8E89E0A8917B0B3724DB7BEBB53252581EFC3E38166BA131A3A5B42FE2AD00A769BBFA4458D2DE7822F8C4F63D0B8E21B285AE13325F3410A4
310
35C648C9D91FDEB109E73CEDA7BC796961AF79175E1A3CE4C5E8B0D009B0C9E29EFD98BC8E97554E3D8D838424E270F7685226E5AC268E021EDE3522D583E8F20C0BDE2959EF5BBFEEDAB32FE9A3ED0E39F211A86AA9DEBFC68182EDED132AB8BB794442D2D7EA9F4D8BFF52BC4D55BB165124EE90A42D101E67BBBB292FFB
310
4F66DE5BF2300E44546757DA7CEF8932BFC9F92A0707953491A55C5A5ACEDABD9FA1AEA01BAC3DC5A24E22E7C47213493996EFBC369D086ED9397C9BA6C7F9855C7BD5E15BFC8C53DB3D2A4C5901A57ACD2FBDF4D1676E95338B2C2BCE65FDA4C64F5FEFDC7D9CA5AA1FCF11E193F2FDABF0F4916BF13FB916A224380E6462
310
A9815F2300DC49CC4DF8D055CEF76462F4B7A7ACA7365C2707891370BC1D0AA6203C44CCAB47084FEC057F27FFCD57F89B8B9852459798A675C66BD7CE572CAF71FF7E6D7ECF7BF62CAB7B3F1107DCD04DC55A3F9961700286141C94A4F771FEB2BCDA2DDEE0CB0BAE402FF1DB0100F8E475DFFFC074DDB4498AB7D186A765
310
4DDB1CB680D703D47CEB4E72F8CB13D86A4AA68116E26387B93FD6738779B34FEDB8E517EDF2BAF28D9BE93A1D3A164320E07D42E514725C29515FF361754213EDE06B079A2E99EB1CA82A02019EADEEB87B9AF005BD04BBCECB14AACD6B24EFBE482194A97DD32400685FF1FEF1544D1B14EFB1E7F08E6D2CD2AF52DE757F
310
35F5E62332EE88EA26417AD5C3E0E319D68F25414E6D672BD4522B278C57D18F0113921C71D96527E091F00CEB15AE23D24667369BD3CEFA10C7549D930890BA4366F4EBC55F01F746109F98ABCDD5A3EE06619C6AD78AB33E48E4C9BD21BF7478B385EC05C4F8987E2C1BFA0A60EBEDAA0AE0B015C2720ECE180FB6F2DEFB
310
EB822D96338C9B63822183BBF52FB664A7AE57003AABCE512BF77E7E31BDA2E739AC4C131657DDFE5225E900FB56CC01CDE808FA4A9C9DA16AC679656BB64796283D89812B8F91136AE18EE5EBBAF47A73BE3C153EB5D4CD491B4BFB4FE690A4CF9ABA08C0D8AA64220C438C96EA6CA80B58FE5761E697B3A292EB9FBDA502
310
FA863E49FE694ADDFFF9D62C520BDD1A22014147A0903A05B9B729F54272EF83931FEEC057BFF8C8055C279EAC5C0011804828734024F6CFA319C9CC6867C727184465CD9BB7ED386AFFD96B294A85E3802FAE47244602D8273615952B98C4F23F7EAE4463D9D638EEE374A20959E0FE519C4CFB0FBFE5DD80C2AA3F9DB961
310
D1BDE57E67C9BB47B77FDD74EE3094F5DBBE3EBC1FBDB7393F5116263009E2EFE1AF9A221B2AE234C902BF70E9F280ED23E73908361565964333A3F01D0B006AF32FB21AA1316744B489D5A198E85299241735BE559675130955C902A8ED761FC0DBE337A9F91919AF5CE32AF902ADF9AB2615E00E8A94586BA1A90839B618
310
32FF1BFB76D2EFADE6DB1BA04CCAD3DA649E7E2A0219F592E22F2AD54847EEA8E42271011E9074F8F3DD9FBA6CDF88FFC9FC7E811AD1CA8F4557CE4AFC7BBEDCF0114A48689F20A584520C74DA8127124B767E2FB91A6B186246727BE63C9445BAE02088D58B8EFDC0F1072407CD9B89A13F6303B4A928F593AD489B58E686
310
9325790ADC406036C591729FE14021F94B7796BB11848D463536A092A26F077F94639F7CEEE2A724C66EC885F4A24F8B8A0AC321F8FD149BA529460FAA34E4663C02D41FDF80BCA222D42F0ABFF8490F4FA74C673807C2051D8E467B47B616072860069A9A303ABA9B319D58404461401B0A0F9BE5E1E151C14BC33B32ABE0
310
3DDE91708DFAEB15E7C0D593C86BB7D7EC17BE56E57975F077BFD5525F3A1A361D584A75E08CF29FC7B44B2B3085014F3A5A14517377C3F6B8F37E59514C3B12F8AACDEDDA4DFC49BE5710101534CD6FB6DE15B50F11A09472AABA727F0C49D9CB906B158030065F48EB3625E010CEC1D511D0053474B11E6A4F01C0D6EF1B
310
ED3A944FDEC70E0DDCDC756C86545910E0DAE3BE3AA9A404574C2995CD5CAF9549226BC94B4F4F0F5F9086F418F6B32346464610D8BC7391D3C3A3CCF04CFC1FB2A3A3170E369511868F14EEA4E5E438CC73DB1F3248AA94B6B2FF33B222FF3D1E7BF146CAD229770158063BCE4F5391964DF62F7E52A7BE0EEA829C9E13C4
310
C147D6F93FE59E111DAB5E4594D6F3CD1AD375EE039930EFE5AF2BB2D41C83C7DABD8C659BAFBE8FAB392CA634F3D15C1D945DB4588D2B0824A4EC928AAC565557CA2F0DAA588CA5BE30B3A8004F7BF005E96CBF891D7F18112A3619FDF530DC8AA64954258E1811789B5189B49B4EB53F5F89F7D37523894F3EB57B373763
310
C91E502F52CC99EB7BDDF933FC324C4FFC2561DFFA7339FAFDD0A4BFBE6D3A8FF9ED1FC49898139864602458968913181918F719CCF5A68B2EE9C1FF050E34E63107003B8120FA982C21B30A874E4F5E4B38D5A8290C4B8D9BE48A0BE31EA995BDC37AC6DE90BA17D259DEF53605D55922FEB1855D915B659FBEB350EE0DFB
310
2F9F766E1C84CC8964B75D08667445EAB966015F63A18A9E0A325C1B3DC628C0D3CB60F767FA93CC65F25458BD23C3B312716E5F40E5858AC06EBA9AB14F95DB99147B832069201541D09A0D856E12C629CF32683760EE855537D1901988D5EBC156676C7DD51D7207CF3267AF1D76C2AD867315E44618015313A98B19941C
310
696FED3461CAA9B5415F918556D7802EDACEFD6B2E45853A9735DFC9DBF7E440F9319F8B6805A973BCCDC76C069A9144E51F187EDCC12FC31B5DEAAF0A76137199B106EC84ADA6B6EE697D4E6A96E007417F4E880E8B1E89B4BCE9D81EF611E2ED8F0C1A6C25F620FAFAAB656A7C42D464880E8AFAB0E0FC8EA38CA9A8AEEA
310
EE3E4648BA4680270A89743CDD3E6C6CBF34B7B640EFA285ABC7EA0A1E28F3CC963D114A80123EE66D0AF7D5380EB41909B605AB4765B709B808590458157E69BA1378FEC4B48CAF6A730E3BE3C5EF2DD1A5EAF94B1DDE50CEB55DDFD7EE9A16747FA4B223359FB1FCC69E1194892BABB93A1D5C4E807AC0EA2E30180811E7
310
7A2291F6E7F7FAA5E0F60215BC6024E48DE436C511F0628B8CA189982D4D83CCA17D305A7E923C37941CFDFDCD93ACAF735EF5F0E61BBD3E6C41A59B242790D3A3BAC7064DCD89AA2E37214EC839820949D5CAA31E240D2948E48F690298974A96BA9A8432BC90F5071D6537C9666EA4564796B7AFFFA548077BEEA75F6308
310
3435074BA182F3699557397F71548383FDA8CA34D99B981E72835ECDA5DDDC151315173D05A21F651AAF8524E88209E2E7A737ED1045800CE3390050BCFB8BE588DF111617874C62575039CA588EEFDEFEFE319B739DE2EDC147092A262611E159650E787917885EF08F1F51B8F2D8A71D60B58B190FEF9541A1BE94BC19FE
310
A50784DA1419FE4B0FB51B8D36B5FF8E1286FD8AF42B91E59A5F1CC4D60174E764045FD8C57B18209B217F89A62252BD20BE0E63E12B8E8F029FE19E0E8D0870F58721A557082250D5424F7909369376E41666C0EE77CD87CB283F661D5FB6D0DA023CB67320A20DC7BE661E9E1BFE5463085C557DA1FF9BE835733766C3D1
310
39F2CF9E2208873AD0EB4814DE9E6BF2CAF81614D4D43906ED1C05A3265CABBFE192770FC2F64F940CB6B17B5F166F133C9AEEAD2641807C3E69515171DD74C4A85311513D6EC9530B3B601B6BA3EBFF3B5C3D2F7D69765141E345F75433953D013ADDF8F6AA7DC3F4A7563FE5C7D367937E2900D7EAD0F9FC9A4A1A9B5BDF
310
1FEF08532660C01C5D6DE22199AA774383E306DAB87E301ABB7D213887F9869D4942D0D71E94B27EDF216A318BD488D45DF84529EF575AF3C3938C0AAA0215B01994153E2054A0B894DA5C784980633AAD48576957CF4AEAEAFADC7C587368551C73DBE1E57C58AC713303A8BFC258BD04B51724459FF9E24C03A81E0E0679
310
CEB9B348C0DC998FEB9C6D6EFA77D247CC8F92D3848599ED89A23218D0636465AD1CEEB7DC140D7426F83491C4E8E8281C2FB35240918FFECE880CA2A42D70E8B20B34DF5221C7DB0CF90ECCB9C745B37A47E9B716FF7A97B7A252C1F3814DC7B1E1A7F72B8751D524EF7CAE45B0C73B3BE7D08ED39781B380DDFC9AA4A474
310
9C9493DB5BAD07A6EA6C092FBD0E85DB004DF06B8C9D3089C5320187E4CE1846158C7EA7DDAE8AD9AFFF21AA3A1026BB06A259845E8232DEE62811A4DA9CEAB3A4887320B76E2AE5615EAB7BDF738CBDD01F1E64064BC13D9EC53576751CA8CACD58B3CEB0E6CA585BD089B2A59B9FC101403387AADBDBE70586B93D64BF3A
310
D4453EF9C3B6A93817E8346991798601344F79A83C51F3D50F7BF2683A3605F51A72449489E0EE6169C749C60B1035651103AEE24D24E51A759C840DD3FC6504DA6FE107510E447B43461C79D22970B75DE5E1BD3007D1AFC619A4A4A69B5626AF5E9B8374E20677F77E2F8E73DF868E8BEC7EBA7B6A75EEF7205E1AB9486C
310
B642741D6E03FF13FCCEDB1C4AC129886268B01CDF4B124AF797CF784F3C6DEC97A17D4B558070A0F1C04DA4FF9BDBF34159AEFE958479824B3F58EBD1E19088A2AFDE501B6F2052368A3FD0E650A179EFAB1561E1D27527077136E652676C3670F42DCB3352F48F6BC86D2C3B0051727E41A0A4DC6CE2BE9D47F5CAA2935A
310
3C0539AF080665997194ABECD723B08129CC5B6B21D2E7D54CD4D12610E7E9FB8306771A89576C7A982002775ED44F3F744CF21EEBB27A631671D921938AAEE3EB0D19CD1E083727F607823E817BF599DCED5394E37EEBC2E88782E638920CA641EF74D4CDFCDEF06F4278ECB18E31E7E9876F2D783C8BF429C75395F57E98
310
C2B495A3DA077EB3AC3C158608B6B57FE3EA48484D9A480096FCEE0DE880950E7E5A5714131C5C41AAA29FD19AE81AC145FA1B9E85C7169A5AB837B213493DF7E9AA4B5FBF9CDEB36EBD21EF1181B7CF7366AB2A951D01E37AF4EB835D1BE8C117CFBE7625D2EBCDB0B20C5A4B45CED0BCDE3EE8DA9DA78C2E21DEAAFFD119
310
7E463C33CC6A80FB785669B856EFF7A8CCCA2841B5A5369173320B1170C368B2748D81062EA0296E5E2D95D7667A4A46D98A6FF475C76AAB0A8C8D45E226FAFC9FE0133EA9F60111F99CA81ACE03A1D14C89E8B0D69079C91464FA1D99E651D0EAF606F345C42A8A1AA9BA391031582B96D5B4176A77AADB01F12FD298A75D
310
EEBB2C82F0B8650E880722F8DDD90C56A7A058E5FDEF1AC93545BA27367C76F5D8F9690CB6F8DAE141EDD7971F0FB548A2AE435F224D6E5954CA155512F7332029D5A1230854B79F258EC5FFDB09F5F6343A8EB193229B7F7E79B3E48F8E183860B38C8269D1B53738FF1E0BACF6AADA6D4869E9DE708E79B5DADCC09B1BC7
310
6F649731CFAF59A83FD8BAE4C749D66FA87A3810D4D62FFE826FA400C0F325D2BC0F3CA35F5847B82A2ACC7961745C823E4D863D54460AF792CE6F79B5C7A33B25C3AEA6CDE15A919B6367D781E9D44F61BF828672594A3E1D9EDD6DF179A81F27EAC05B936575D73E05C209DDD2115CFB705DF9BBF3C911589B3640735E9E
310
618FC9C36A7326C82B2205E244C55D56FDB9D5DC93CE958D4BF8174D2B3DA54CB3C09F2C2A6DFF73D23B2197355761AD421EC581284A7EF8DE2CE3497C0C804D49B41DFD6A7360844E5BEFFB495CFCDB97A4595911CDBA623274CE852B5E278AF0BEB1770E9D37CD977B2766A7DED0E94B840E1E95E8C77DE5CB6354AF7871
310
427C28ADBEEF7BA0A28E19DE9ACD75F379FE373EAE6DDDAE3834692F9C2B03B4FCA8FCA9ABE8EEEBEBB725B88A7C90941E850682CA04061A7DF0CE82ED49BFAFFD42C309818FAE14755CAAE78B0F73243ECCCAD7DF58FCB9CDFAE7A4D3E6671A613639130D056C8383C8F4FCF4808C331E544DD26E4755D09EA05253B3049A
310
1E32587CC25D72E073E2CD96D04A71BBCB0038FEC3F53D254199C3CDC67CD66640269431860225392B2CB3ECD0B4498AAE78BA1994246AE1EE78F2EDFB79F6C6CB6B5E279C4D373FBC21CB2698C9ACBBEB6A4BB6B39E16AB0E421CCBFC7654D81ED86022F9BB522146F9F4772E2D0E4FA70120C95A85A417BF5078B232F475
310
4363EB1750B2AC2148EB46B1EA72AD9B4D23ADCBC589D70106C3EC2ABEEED84DFE28E718C6C83502C28E9FDD3B09DA0A6F6F7B72B706A31C9E2A331EE70DA56A083D2177BFD63C55B11D8D949FAFCF90B23A1E24B9B5018B9A17E99F2890EC302F330FE7936E2C23F0D237EC8916F5166AB84B62A21BB0B950146962D754F9
310
2CC2C8877BED8FC7B7B25726DD19545392570B3A2C66B58F027BEF412E552D12A588C4A3CC5C3193FCB3485EFFF700D0B9EEC077754A33DC1FB9E25AF814628F91DDFECB667D3F7690803F38D13F8AE39353523BB08FC6760144AFA2CE28236F65EDBB3D5F59A57D612B99E3D7E5F8A851666BF9B5A6658EFC96EEB37A378A
310
BB0EB3FDDF1303AF32C41BD1C8560745D7BD81066B0D6313359CF488563D3BA3F8E2185D1FAA3EBA1397C9D0E3DD232180A4DCADB6AF25DB3AC3CC26589C8239E66E81547BC7E2F328F9884764CA37EB5DBE390DFC03A5246B456A7C3684C4377D0EEF9A350680FA9A077E8B2957B489E09AB1AD41316944C2254B5984830F
310
691C93CAA767EECF976FA5647538830B5E63236A6F0365C1E0F3E327F24FE35EDDBD7360B0F7374837409F7A6311BECC12B7026D4FA1AE204FA3F5FE904B1F420C7A9044AE58E403E7C4848E7DA25DC9EDAC79DD756FAA26B9EA83ACE8A214A2612A22AFA19DAE7DBAC5F8CDE1292A485F98DAC731A29FE01A3966E96BCB9F
310
B5A4C8830E1B9AF0C54B87FBE221A097036E5D28D1F869F810C06A9BB0AC0612F69AEBAF893C6E7AD59460208BAB3A6B09CA4F6BDDAB8CF0D1F84B72487498395A70DCD754796E271099A567A55CF242BBED64696378BB6CF25EF0FCDB589F3A82F1116D010A9AB9FA4358809EE0C973A2B4229BAA876A70B03AB49CBA7FBE
310
71DB1832FFD32F9BF2C8E98075CACAFB36921235D0F552B6A67E94E094097A5D7DF681B40623DA535ADA7A9AD8E9A62407D7C9A5AE51D62A17A83A23728DE86BB56115804D3F2675F2C6B87541A0FC497BF0CA86420F558C9859EBE9FAD62747E323E3AADC03FDCDDFE7407B09DA90B44E3185723C5381EAEF589765E2F7A0
310
99BA46695BAD60CEF3491B8A171F5F56444F7CE9455312C3498C74173AEA0214EC029833B34B650CBB5A5508D5091665309642791708ECF27CF11DB3D797D6CFE474453BD4BFADB768094B2147814D81C7CBAF8228DCAF5564B5891F5EF6A860EB2E323CB82AB868D8EA048880D63B0DE5341F1B3D53297B928A11E15F25E5
310
148990F710747C3509ED14909C552EBE3973246FCE55D00564D8310BC3EBC5085D08D806799B77D6C57FDF5E55837F9E934F09C03C729271B64F12D0A9F9E938107CAF7BF1EC8CF1BB9B42363D33070F4CACB425E605DDB0A34A12BB936DE286B9887A4E2E558F0886498BFF49C311D96C277CF6A9FC0D75AD0ECC5226D7E0
310
E3572012E56D7FDE4410CEC7A6D0F997F225A2055B8B92E3956E875AE4993CB3D4C9063AF98FD45E1BAB165640A43439A2C9181A7C355B297C0A0CCFFAE19B6FA3C2BA238A885FBC98B8F6DAF4B94B97304878DF4D8BFF6A4AEDF79E90ED4E68F00CD7299F4E0D83E35601AF0CBEF18C1E870E74758FA91F5131075004DB3C
310
FCF09AE1DABC11957FD9808C92E8A678CE9DBE40DDA0E0D1D505AAFBCBA208232BFB6FB3704E8985E61ADE53DE74152F5C7DE74B1DEDCD37DC3E8FB30D7EBA8B9EFFC3606BF90B8D438279CB7709FC7C00D327F41817EEA71CD9E49FE9C8C9A81C70915D9F0F15958EC5AA4C3BBFAF46986B90F188BDB24B89DE3C6F29EC3E
310
6F66D84856EE96A35E657CA41B41EFD8DBFA16AD6E91439EA92B40B21C053249F51AE50EB0B24C770FFAF40DF12C8436366819C48E36547D4E7B72FE2BBF10828583057814A668BDF183F6B2E58DFB151103E56303E63D00F39C27C4661605DB644D19175D02E3F0241E8FC3458D17AAAADB117CE9EEA690D0DB01E634878C
310
04C2C9310B69FCAB831151E3AD293BEF6E46B0ABCECB50F5939B39C613D41E81FAE8D34CAE3C4566B761D37185FE864AC32FCB71AEF39DAA5BAB88609BB980CD2F07A8F941653B529567726E2B2A58D079DD57E1E5E31426CF184A04D7B03B985F276D47406AF276FE32E3328BA866EB1FD39BEF57863A317634AA5FE46740
310
9B3873F5069EF0D71AF00AD189D17BA1974ECDB2D623E9E14086386A6AAB5807825C37B015BFE892AFD154920EC437EB945D958E18622E1E0FE2FA06557CE4BB9BBD05A2D40E774DA2B65473791E314B7D6C886820B2FCFE4AA272B3B8B15E7344A145E8AF919B5454D89D36D413E87211186BF6F645E5EC94DCCE8E1C7990
310
22E4EC9BC86D7A0F2AFB1FC4B2CE48F84B3F49ECE65BAD24CADCC07EFF39AB06BE9E6B27A059938EA7208838455383DDBCFCD967DDE4650EF92A14FF933C975DB20BD7FEEBC4487576485963D757D16340D9599FEB362F775F38CA4185A86F74B629C81B133644A3B18FD056E997E0734F9BE26D11C0AAFC669E2AC9FC41D2
310
81F8B2E1C35AE27BCE05F3DA295488096688719D974DF1B5D182DB7792288697F8763CFB43562C1CDEE11C4AABD5C22B6E33F6F389CFC3477C5919DC0D533F8A7A1846B7ADB60ABDC26C43D0CFC8910B7C15EE22675BD02702ED39DB77A87A192CA7A543E6205B979B9F5A6B512A3CA799E198B2D5797C0AF8D1D872CA455D
310
4D431A7879D4DD76110B5FF7F4176B54477A9EB5E4A5D11214FDA585F0382751D8E2582BA5D2075053298FEB8F1537304E32CB22C2E2B693DC0A760B1DFCA751BDC445AFDCBB12820ED85F6D5298933C7EF1211E9E057684056CDA3FEF3BB6052355E162DF27C59E965A8DDB7F9437EB72CDDA3A090DE65A5B2F50326247B7
310
EC67B73ACC7047FC9B353D6EE990F772207C6EC52B39DC2F3C0754821DAB559F7C1809C7D0DD5B0499D0442E0A6E391B3D5DB46D11E731E6794EC77523FBDAA242ED67F9FA1FB684255671F63C9BCFE6E7E896D51001A6113EF2298BA494E0B0980D1FA5B9D60796554C02256B1E0345FB7C6186B6A19D2DCA270416262845
310
FA4F42DB5D9B0A0B6F07FCA2E56C242522E001E0CEB734AF310FC8BFB57E38E03AACE93B3326A2197891E68452B26A6307FDABFEE0223D3C03C3C73D2D5BC054C8311F12004CAE488E5C29287F8156A2CAA4AD0D7BE6B97264E4139F437CE73ADF52E5134C52B819777C18B323A5924E4F67AFD13B1CDC3A61793A79FAF5C0
310
CEB718E441071E797C6DCCB9EFCF7E4A1E9F3DF3C2F9C9E8294E9586868788C972857FB0556D7A26941A7EEB9B580AD78EC40B85DC906B4120A563CA3B87797ED612D3B035962BB75F6515A393F4CB057F564CDF54F2E5A024514E6A1F901DB80C7E70B1FC05E356A7E72FABF4775B3E3FB8F70A2A8E7B6A94542BB3041579
310
78CCC999E707A29CC795E67A59CC546A5D47B368954CA7B6E75EC9E1F6FC73CE3B4F71F8CB1A6B15923D61EAAEB14626AAA9D04A26EB9C66CD1BE86CA31A5D8703DE04CD1EBCE4F5CCB62F93909AD11E55799A781A956ED27D3E738F4538CB04ADABC7DAEF20BC35BA6A90BCC1DC61BA05F20D8832FFB9BC9B15E2DB838A0A
310
FBB7E0C82A562127E0446894F427794C3037186F622BF24DE1B00AA10A23BFA47B2A180D6DA5AD6F7326FEB8C100C2D7142EB2A0B2A9D1008A09BA343D70E054AB69E2A7EDB783CBD92537FAF4A44D1296AC2792729104B3276C276C951D0CF3CF3F1E6B017720A7B8505A5FF9589365979678C36F1BAF759EAF57C60F1FF5
310
FE9DCF5F8E764FF25A2D06CF25117A8FED51884C13B2B750DB0E4F5E3D64124FCF11F0AD8F1CC3B3DA4B38ED22BF1CB2585EE6BFEBBA63FBFD44F9537B9B37BDD6B358720F98A8125AED4349CCFEB0E135F19E208A04CA7E2B10711185D72E381F448036EF57C9F874E54A971CA37A639E986AC0226DC5AA00D5B14FEA9192
310
234B3DE617814FC221C92F33F1D392F297731B567FD98FD91D989379AF567A65B8ADF177591DB90FBEA99BF4ED11B16E50A0AB1DBF1156D034BBE04D69D08F939D8E92BF525A1DDAFF80ECBC95D8F45D3FDD289FD23F7D8B452F8EBB34EC082DEEE68E18EDDF072060FAD2AB1504DD4879BF67099FC58F6E9DEFBF645D1633
310
4A3E9A127C6F1AF6132CF287E433B43A0EE93812B4AA0B194E03EE3FF91EF9C6ED0074A2F6EB18A96A7C9890B1FCDA1F2095E944DB911ED54C60DF16FB74C8CE9BDC7C54C4F14078CF73C2FFF1F1BBCCD7CF64F71407EA1683DBC410D226627F66E509060D5C0AFD611DE681D509DB8DD12FB1265B03C6F5C55FF4C30BD941
310
87FF692B4F152982502F193098A789526A038AB529A52BC0DC4FB6285CBAC10A8B8DB75DCD9BDABBB221E27D1F8DA9F5EE5926A1C8AA9BA9BC09239C6A7F12914EA3B59EFF7AAEC3FFCCE56F1C5C2980AD072793527565E774F4631DB178CEEC691B1F367BEA0CF2907E1D6B854D527065979DDEF002D8B2ACEA7CE21AE297
310
737EDE1D45B31233B73FEA35BCFDD0B09721FDBAF6432681F2FD10C3E9EFB246FD6E854B344ACC9D8A0EEF876A7314B49B6A499FC650B099D650DBFEC7638ADFD245E2B7839DA5AC5F7D5623FC0ECEEC8653FC9B2BDD1AD4D00A566FBA7186DD3C9CD26512551637498CADB950FEC71ADB9A5524285DE328B8EC7EC75D2345
310
AEC6A27C42AF6D9B92155315C80DBFCABBB7DA0FAE425C4FB896B15C9BFAC4FE67DF5A23D30C93DA4D8F36FB15D100050DA6062E22AEC5F4DAC4F6FEEF97AE05DE63C6D38F9E068A20BC5E3B6BCD75320C5090924E7F93640A7735B1A43451C2D91EE62C6238B797349E59890AF3A520DF4A87095F3ABEC2E61F0593416CE4
310
6CDCBE0E00E2523FCCD04408588B5B6C9DB6459C786CE378770B54F51DA3A5E1DF2A3349BEAAC234A6CF8993B598B3B25B4B113E353A4D750FA7534749430F3EBF2512E7EA3FD43C6AB9A1F765A58463B306721A15D224FAFE8C6F5E3432D57EE697DA0DD5A9D4866A8BCCAAA9DFF1F06047851408FEC060471D0E3EB86BFA
310
F46E4B5E60311DC3E3CEA147C75CF971BE74689507154FF2D2E92F15CDB2B9182B11459FD8ACAC5A85F174BC94A7F4EE4C4F5CAFA7C02E37BF0BC77B7DCD0C047BC316F562A01A441AFA7931CC84A28CB9F4AA367EB515778F29BFE61195FA671F4352E5E46E3A64773F1F76EE5EB36D7BCE9BCEAD837A4D77F8DB8C92AEEF
310
6711920D7C7D0F76B0FD0EB7AB83724CD35BCA7D36DDDF5FBB7FF6F04A91F3E2BB3B8F1A43CD659639507FF6331C5F697BCC782AE57D757A27D97F1AB9E0AEDB43F92F1B2AACDF5FEC8ADBAF9F814E2027003BA2F9E144B1938A7A04050AE5D953B82C45619165C813A10E76DD6906B3C16438064D14CDA713AEC420034613
310
E1AC7241904A49FBF87409AFB1FCB9B72FE7933A87D8FBEDACECE4EDCF6A4FE9FB94D5DEB74FAB7CFEAE17EE965DF980DCCA2D04134994F9A2E94D2265DA4FE6AA7B7AC15FACAC2B5ABBCD7DFF542C5314FDAB2E1B9D8B65220B8E2B638BE008E8DCA22678C820C5053664D15E89F2D735B51A84955E81A443545E9FF787BE
310
0FA700A76D136C27DA179A7C6E8939E01BE756E19CB292798063D8B97F44E8A27BCF3A614FEB8BE974A718E86F7EC99B53CA35FA24F61F2B07266684623A3D4CF073E511F3A10A8FDAFAF0078C577F4DF9D339FE7862E5FA47CF4344209E5BF76D783B1B48E152AD281B15FCB934DCDA49CEC5706B1EE8B460F435324A5CAD
310
154725E21AB8044B75A557A79F6C807B9340AA3D92503E866F4274412926C8C504E4D5EF8C0E68DD0B028781A6B4054F11CF18941F101C57CCC796773ABC8DED9CD91FE5788806C05E548895354AEAC96546D55B0E94A59F148D061F42AA398D822CDECA4CDE79E13469BDCC44FDC990F366BA5978C15F97ED80CBFD73B0CD
310
9B8B83A4F6845BDFBFAF034019473FB9A63BD55D3A4A7284757071574029A4D016DCCBE95DD679EF3C4880BF169422F8C89B68A988D2B13793CAED4F74DE7486C72DC94DF46B8E93D8E02EFCB1FF9B3BA10C8AE7F653DF94F4AF466CDDCEF5776687F7C4C14B63E4EED1719DC2EC482D7DBCC7AE518CDE3D5FF86D39000EC3
310
673C0044E1D308BF05F74D1B5F033A7D1BE7F74BC55BBE3E4A20F920946CA0271EB17BD2B80E5660ACB8A29A79F5E4BBA49D4D945B6EEF4A7EFEAA65E5555BBB57A7E15D2F83C69F30BBB978D2B39F1F26FC097424D39BB33CA3D87ABF64E307938B685BAD44F71556A30B7E712CA4FE600613C3E554B69ADE949A7CFE214D
310
F1FFF05CB82151EC6FC31950239F94CF7AD39DC473F6EA356E5EC2C4EFA04383CEFE985A127484366FBEE3C0EC4FEA363E4F6632AE781392FD45D67B63FB8DF70E82734F431FD3443172A0E30A83D60982D55FA6A2CF86DBA8382502ACC6CDEF3B907982EED1160E14863FA242F9757347E1544275CCDCF71ECD5F8621CBEA
310
326B8BA884AD7F825781923E66971F04010D574C541D8427A438A37EEF8AF88240EED7362C953F5A81DE2D56109CDE2524EA0F5D2F87308C0C47BD97AD605878AB8589E17CA83930CB5E0DCCD75853D68B1AB136594926DE426C367428E9334AFAFF90ECE221BB5DC9E5BB53D2CDEF954EAA9CD814F0E5725F1965DD458E5F
310
8487683AD86B9D0076BE3EE91EB1CECC5331A67A3F79D8B27587C12EC2A6A70474749F27B4C0BBAFB94B34189E88DC18964BE4121B9137FD516C7755356E50D6714E31ACD222621EBBCD1CFF81D87479056A9DA0E0B8EA19D24CF937DA89F78E8650CCBDC110AAB6C4E46DCBFD0446BA9E2060E81F314AC2031E88135E5476
310
AC0160EF5C0DD2EEF1B8B5CB2D198BE9A554A9093B5F7D7E4B5407DDFCA1D9C152FD97F55BFFFDFE802954DFEC8995B983E28AC92F1971E28F531DC407A1280EB125F64A72E617EFB27DFBCEDCDA2D6F2BDADA36873EE46B9BE1782998C63DA7182BC383FB6FD15DA472B175D7E8B4FC88F38D6E07FEAA3FA3CBB8F6B449EC
310
F14D2175E5C5CCA3A42ABF24CA6C9395AF74535F4DDB38CB84F56614B0FD32D7E19CA5CF988DB4449C40E23DF2B16772594554579094450F56F253CD25EA7F77366FB1CFE79696C428BB64D5A41E986189427E5E4D7E2DAE3D5BB4972B3DC44EAABDDDD63A2264ECFA5C786EB0EE1FDC5BE34FA0F08376869FD1E61EA06CAE
310
15191135445EE8F0394161C3266A596AA035572BB0C8876180D8B9C77D307DF9DCDF7365ABDA6F3A2366436457A4DFC1F259666569A9E4A79C817BDD5610E5200FCE894A358EC72858D50EF67545DA81C6FACE3D457BAF70367E1E6BDD9A952FB4F56247F58F523B97E640246051A72F79BE42FFA0B3187F63097F91C48B86
310
8586F714B0EBD5A00A8412C1236E1298F60C72BE6C96B82B404CADAA304AE9F303176B14BA53FBC2D5E86377E35542019E24D97B96A49B2C0E5006E7795954DEAF5DA58958839043C6C70BD3B1B33B6DC5C31316D8A6923F142E26F6711A2258AF977DDF1F970ECC4F1F2B434B96D81BEB6E89BF3BBB3C7C8CC80505070723
310
D6D7D7D3C8CA27CA164A26024FED94B12A86031867241DA53D929636DA600F050BC40CE48B8BA03D69224720DEE2ED2127390BDF5E6EA64527BBD4C4C63FA76BB801FEEC0E61218EC98A8A86CD8313781617877E66692839B9468CF4DB8E50A73986E558E309C0D6F676F921BE02F1185454DC75B111572FF9D27D85EA14C0
310
5AD7271225B391C4275659CA4A43759D0BA44639BE4C30A84DB7F67A41399FB95CBF923B1B1672ABC807C1590557FB18D811983FA97F5E609516D62281D38B1281F68FC75528C35E4CD7DF0F7DBB5E5DD69C414EBEA2F4A5B241B996BA77AE6C772E367408C633EA3E438B68563EA8BE7667F3A4C4FDEEA52ABD78A2820F44
310
3B7914A15F180018D231E64519C56A12F6CA7C8DAE18F06F6B769DBF92329EF6A5D18FBCE600F36BD8E8198DE5CDAA96181F3A756EBA5501CEE58F497EA4F418A2B82565B9BCC611713C0B708CCA1F398B78C5F7D03B3437CC18F13061F55C7BEDADD5ACB1DB0E36D3CE47FF6EA1A563A57E9649EA5D14D1A50EAA45746338
310
1C073777EF1600607BAF6428A7DDC079D47A204EF1E1F1F0589FB054D45E02CE623B3823C317C601E589E22B1E88B448524B86A82828E32345EC18AE17214B42F8C41C6D428016D9BA31DDCB47572561E5A402E5BA4FCE55F78AF7268524AA04130F3A20BA5D1E9F9948EA48FC8F5314FDB35E21898198060034ACE5E3E2BB
310
CA34092518F275190AF65F45867FF0900AA4B81F25427414C372BF51DC29AA855C5428EE1EEDD6B849AD60F6E73475C2D2523F8A2772C840A478DED18A8C5C91B085F255DC4F54EA7AA8947354FD17ECF8FB3B4A0DE7B483CAF3A1165EE05BBA413E5C1FEF3DE1D6B8F2F3F3251C17D9FCAB48A9AAF63AC773A0E413BBC46A
310
9ADF84A566FC920E4D8C52C9769EE3301CADEEEDD92B312E02E2A7E35B7F1E7D203FE5A7D75578B06E99D0E46FFADB8FDA17ED8880390DA29094202D6F645F76F6F96409CDA05495A96E84B04A00D1A6C6C81D7F3DE9376E828CCF144EE50E364ACCE7237EA0BFB5607ED1AC3CFE73794E5B61739D14DF1743441B1AC98F00
310
ECEDE9E7301FA29755FBEFA68C91EF2B314CF510537EF1ABFC9A762496280B546F5EDAAF8A5B387D469FC9A878A92828C88608453ACEC6094DCA54111E7AD5B2663DFE2DD151B7F123B9F4FEF8EE36AB125FD7AD52A59B1B765B3E3F73E3F73DEA93875004D2AFFE3CDE9493B87A9904DD052028949041A91DC0E1BA47BA71
310
4343FD5B25E0A6A09503AFC17C790058A836A324FE31D7893512E28230332F153181C1E018E1124EBE1BA262AA428A518237D1EA7275E48C5C561BD19ED6912EDD8367DA0F31E40EEAE9683DA9257525AEA7B632B97119E17145A90231768A4F3B9120FF32E8319B015E3CBE26F1A754177D8185345817C096B0CE443A955D
310
13AC15E1FB5DEEA0239EC32A3C92241A237B0B02FFCB4F93CF2B02570C8D192E2F2A68CEEB42F12E6F8CEEFF46C251E22B4341C56FB08CCE550E7A9D6F4D6564B9EA52A83D5BF2C6E03FA19D2775E15A8A7ACF30A13C259EE7F5EF2AC3BA354F1500E1A07FC63FB4686E2F12EC69719F9ECF5FE3F35598DF2CE944008CE78F
310
0911BA5BE5D0A34E0098FF038669C26030BA9B300303039852A8F6F496341737CA7E0D2E3AAA36DE0A70AA7D9CA0D54D9AD84B18A44C9E625475E1C97B93BEBB38DCE7D227E67A2D00F531436136355F243D1FC0D712C5765754FA22FCFFAE97919161F46D6E61ACB37D83777B385889770B50765B127768443A5C4D3A4E35
310
A3151111F146B7CA116F918A049F1C272F2CD7976C69A0068773451659A97E0F4A08FE604C3FF6CE7385DB19F4D3ABC8A0D80DA8A42096AC377DB49382B36E270B6FA7570188B4B7D1DDDDA82ACA487CCA5D38BD3BD039ADBAFA4ACFF27809239B722081E2EB9F145320553D183F28471C388BC8814E5045676767AB58A8E7
310
2D1CED2CA731379515D2E533E4CF0B39DFC625F97AC4836831A4DE330E87A8126FA17EBE583D614E71E22A8DBF2825599743E0640037303E8E1B1E8EA4E1ABFA4F62907B5E4E0E5DCFDAB417C36C6848A2B8D15F1E505434C0707E16B1CFC2A1C36A42BBF55734F8F4301DDC2A5110CEE8C0747F69519265012A2174BF4E95
310
5ECD4FDE095A3ABC70536B7AD0B9D7892F81287D667C108703C9B66A221E9A0929D030008F77FF6F5D2108EF5706FC87A3069B976F7C9FC3239D13D283CDEA83597461079FEEE049B0F392889898B7D87D31F8D60ED7B56B91823A8E4EDDB36C6172ECEE42BD42B12CD67994FA0F0DFAE9389356F4CD4425A4B8AA55CBF7EC
310
D585C6A2C2316791E43D5C06841ADBB226A87FD61515FFBB0167B74E56BD7F3E90A57A97FEDCBDF483A0D6699A8C0849CAEB4947FAA90D8E332D9DEBD9F4738C37DA0CAF9CF3DAA68BCB67C420459C7A64498D6E848E5CADE92BB6901F607AA331104A67F7CD650EE169B1DAE94D2C31C2F993632259B6957E246EFE4C5481
310
107B07118607700040E5812A2A2A38DA0076875258C753F60E0F2662C748EDD5F3F3686B8FC3BD6FE631ECCAA1E8B1C1E565AD117E54893E79F4672E32F9E46B2A183DFDCF3EECB4D4D077DBEA0DA254D256045109670050129E9B9B1A9E4A11344D61497A992778095151510C4BB7EF2009B63AA4360635312E4CF668B7E0
310
D3D85A8688E2BD83B569439892ADB63461930D428E0DE42E4AC57CE48DA5CC1449530D8BD3D6A0F08DF20C8E8F570F2CFFFCEA286E30969B4654D498A58D9DA782E19FE3F002181838925592C4A1EF0B332D88B61A92C644547BED490D3A42CFFAB70E36D961F694F6307F72FF15A1C79D5B1B5CEFD353D9E2B52566DEC8F8
310
F09CB3E8359C0F68EBBB7898243E34E12A015B2685AB303C04D3A9E00671FF3DFF0A184E4A2ABEB2B666AF5B3A209C73D8EF29DCDB069C9F391EEE9DD0F74C7BCDE16F8F02E3B8816122BBEB50665775B600549D8BB33A54A6BF940C028118BC6878C79958D6784F9DEAA6E26748386FFAF8D0D0101E2847B6563F5D8DC1D7
310
8F787BE00E2C941AE12148D4A81599FE8F68D4DA5CDED75530ADE138240300EE13B0FC13A1687FED6774662C05A2B7DFB186732F0D7A93545D8B0A6390AE5054D9CB582DA846D7A061B3358B45E2B52DDE63E114397EDB7E09233A579155D795BE76102CF277F4DF8B188C4F2879BEAE3C08347124BF9ED23B128259FE107D
310
31E34A652F090B30B39E0D9AF917B76A2806135621A8A60681F16AF216514BBD02711585B5B1AE823F4B2D0369EA5B6BCB863072727FFC871CA6C9AB79A814D989057E9470A3D238BC87CBB4A0EA49AFE2B86F22E499793CAA9047080450166BDC357524561E258C77CB697F1ABB32562CF87C3B7AA12F911EF19FB3E5C022
310
22E887D08202A60A17151F5E053A86B437771088B4FEE14D652C43E8D939995D34545E12E2FF93D4E366EAD25F10CB7DED141563C3D0C447AF06078A91135FD4B9611583CB4BF3BD167F2399CEAB0E0100F8FFC305F00F1711717173138B4B48C83022295DE657EFEDD97F238ECA80F528AFB4F8D67AD4E2594B9A3AA86D74
310
87EFC313BA95745C186F0CDD84CC12DC9CB0424B42203D351FD9C0A3AF10CC7F388E0329279087386421F194F4A29464C1DEF7EF8BE515E4A199DCD5B909342598D8FE6A231F71336248D5CEC5454455C7BE383B3BC7B260FED27F703FDC39A170F3827239102F59D4DEE7FEF82EAA1A5E4BA94DCC4CC44E7E2EDE20F24244
310
E4454369D2E87C3F823F193FD4FD27E1C23984B01898D15ABC20711A8A558054951A6AE280096BA36CBA439603B7B0B4C45F248C14B2383B4B5CD8ECECE4FF859AD4A6CA2326D020EF090F4041D28DB66E5256B56232CC52829DE8060BAE6BBF37D4B7469B822454FE93210A3E8D15E69FFCF01123222611C51C4FD0A041A0
310
CFA2471CF6BE38D2B20FA4C3525B5B8B586759475CF80ADFE67A284AC24651E52B8E683D24C2622642F27E7C3C22783BCF63648BC398BD6CD0D9C97E7E7E3EACB6126DB7A6C1FD9F1031302EE67ED96F22B77C7CA0239BB324207559B105E4693EB26EC46182A92C9C0DBD24F29B31C5C5AC1F84300E0E17CEEAC15F5736FA
310
4A98971E2F1423BFCD68D4BBD5F86E74B40A369F39507C88FCDB35D2DD8DEBEA4AF999E23CF2816D204200DF6E611781B9884C1AC8888B4DE397320472959434323A5A36B22A8E1F721A270DF3BD65E4A31C11FF048AFB0D8B7B6881423793963A23CFCE935FC189ED36FAE35C46DA3574C979E4394BE52084F3081837BE03
310
3396D2EBD80F1F691B273F660D2B32FA27A33B1DE4ADA5F0FA4651511102DFA410DDA86E065272CA314D5249DF91B06BB92807B28EFD54F08F7B525252782CD276DD02E6B0319B13DF87B1F6361AD6B28FC0D711CF445429B9E5A433CD493051C49A9E03DDB1B147D880253514A5DED88009018620EE229101C041950E2D8A
310
A8E1F5F5438E0C0C0C60EEDEE9E3E0C051948C69F84BB7B2A48A1F3C8EB9E6864687F4F4F6F6E2FA87608ADAF9C5E117B7C1A737E710769DA1D15ECE6A84502AA855398712D5FB51BE92E4EF824969CE18278798AC303C2C7980DD2500ADF8FB1E6D6C2FAAFF9987178923334A244758BAA01A9A1B70FA5097D01E1CC2A58D
310
AD0EC94CE6430AA9B0C10D75E3C6BAC670EFBADEE1607739CE0FC18A2587E3EC3058562014C64219C69BC269082D5C2F4A659278D585755912176D78A1B641719C2A394CED495A1AC5D583FD2F5EDD93308EA7EAE8A6DD396598BDBD3D4CFED62D18A5BDFDE0DD5C80D1A89BA62697B131AE7CE9A6594138582F1B37D68F17
310
49AC7CB67A70695D48A4A056AC1FBD4E82358CEAE38F54B95A9016F9000F9879C0D9D131768635CA798895F27D6F1614F11F2838A83611AA51C9A3DDB539D42979C29F10465655C17BEC3E2760B80DCBF609198C7B171A531905F3EC218D696025975E986C6B4C666666787271F202805577DD5A3EF0CAFAF91B62DC4B2DB4
310
217A7606282F31D8DDBC290593BAA93EA6353AFA9939B877978481E15CFC9F2755CDC00C538F63A4BA3E80AE009B73CA0185687D339A507D165B74290D6EE46D5C58148F020C3668ABE9EF2F7549170DC80DB41FFC1D678FF19AEB10C7133832B104B80F691B3138F97A92D26E551F1F110400D45AC71A9B9AC41A1A1B1DAE
310
ED0B0810638EFFB511D46B121C6FEA0F38CD00E03CFFEB9713FE1F9C263E4DDEC160D0497FA9A132BA608584057FB15380825DE6C7FC3C667EE947D488A09898D8E939C4953BF4EC9836344D2CC6B2971B2A21A572B06096F4982D2CC7232D46E8EA69DC83722E267754D777F97F96D5DA74E1E75178084D0E70F12AD33E5F
310
71EF2AFA599B2BEBF60A5BE475F444F240CBFE8143C334E7ED9150FEEFEF7EB020C4DBED388DD1D6A167A76F3CBF119B578AE8CFA7736ACAFA4440A1C47185638A0D2F3EB5BDDEFDA958FB13CE4AA4923D5BF840392D45544329525749734866684BF7F8D9D54D892E19BCA9F829A0F8BFCBEEA6CFDFC61D74EA1A645ED7A1
310
FF241739F15694BD835B66FEC5677E40FE69BD3F91AE402F036537218A401CB0828604AD189E575015C6F3F6BBC8AC79CF6C70653847254B31551EFCBEB5978B9DB85D58D0FA41A9DFE9C624834AA04949D24B5AE6D299E072D152D12097920F14AA92C31C3B97E28B6C2E6E9C23D63043ECBBC0A60FDF5BD0C33C127EA8A3
310
308B8B6AFFEB28B4455BF6E7AF4FC6222728357EB8E46E85053E6A8843AB23295BF838ABDA94658FEF3F832F147046B4ACD6F7D48E8FCC9618582961C898D1C7A253C91BFECBDA6BA18A1FCF70755DCCEE2222F41B76D23CA98D0CB3D95F0CF66D57FFF65E2A90F5DF40FC3187621E981BD0BC1D992787212688976B94A8F0
310
C6EF646624B570B78E068826F87CE27041A95C9A4871FF65CC17FCB1639629AD6A9517000D63AC231F3D741CB8430777E7ECF80CE7A3F73C0F162F7E56AA71F4DA80A33CD6ACEE78E2C11FAC03DAFCE929B106F8F6B3ED2DC71FF994BD9CEF4E9A94896EF1B6E2B7B4978168BCF0847A3D2A4F1B0500B926E634B174548E9F
310
BAD27153FB5FC36799B1E6C7C38A94E1F9E996796D7B485E635D5287A2AE76FBD11A341DB3F8F810385BB7296391973DC6C37C452A9305AEBBE0CDB6C566DB59FE60C8E94B1FD090354BF51439FFD1B48D725228FFA88C84F686F547107A7A235665A4593B7C34D748C1AC8D56DD5DA861EEFBADDECBBD65117E65851F9035
310
1AEB65F0EFCFF4BCFEF24CB7A5879699FAC437A7AF9099186CF006BB923A59E37D7A36A29FD8D2CBB914A5E9D0A8FD212FBF796AE9A67958FF1D5D8B85F78F96219D4714EB919929241B6C018AAE0C02069F8D919961EC5DDFBFB7573E3AC8E08BFB7C8534BE6DE045B3CD63DBD71F7638BA2309CAE398EA3A7D8F98BBBC7A
310
EB367EFA5CFA27A9F8F2F52FE878058E6209C026453F8E7E8A237DFC389E9590F6059B397CFD65183BBF936E86896612A5B5FEE49DAC8455D026218AFEBEC12B3523A45B57B82C9C97E02ACFA1184DB18E48CF615DBF39C3CC6F0B4AE6BBEEA2E39D944E290302FA3DE33FA7E40296E2EF7BF1CD855BBECFAD0FD622BEE974
310
6FC4FDFDE545AE6E3BC234CADF83A0FB76DFB145BF3828AE3436368AC24989454F8FF70A177672C711CAA1A76107218CF948CA01F873520E7A2B118EBB161ABAD432932029628B6761590C98AB590C8C8C79798CE9F715BA696E839E9131A4BB68BE923F1747FBFF165331FFDD4D05997ACD168F12CA75348DAC04C7F509FE
310
83898A8B421181AF492861CE81E4A2DD0A30850CFA95E05F097FF70F9E777310D584A75BA7018922E271DAB1D785671157685B7D383D3E074DDB4F1E44EF04B07BAAC75A062077C54B9752C738C9D804D402E02851F3F89605AF189738C18C021D2139EAF72513824E10DDD3047BACC8521ED7E98B257D1166903B1B08FA6F
310
918FD7E162913FEC7D0EF4787E29C35FBA8C6E2C9C20E9AB30AE42CA2A01A090E7D010C1B5BF9CEE2A304BF3A987FB40D836979B79E18D70F257DA61E808472DD85B82761825779D6B90CAEB0F23360C6F80A7D7D77545E95B3DFF0CF96A827F9B5BCECD2C9698718417EF80FEEDEE938AFF55859D0D540B7FE09435583A6F
310
04874A0C7E8CF234DF4879722000167F5872CEC6BF3EF7E5A8CC8121E6A359227C8A29C95212F9F735BC72A887D56B8F309FC525BFB4FD767AAEC4AEFF249CFBBD2DE1AB9969A6155C7D8DABC307E47324C1F916C7BCFF40ABA5644E9FFB9238D19ADADA49D9610F01ABBA57E4DFCBDCCBB2B93C8953206C91DE01B0E2651A
310
6D6C31721915B31F7B7CBCE55466F6D70402788FA91D73BE4ADCBA99A35F17D6B83383704917D6833F0FA3CD45C926ADB8BC17999A4A0AFBCE2541F7B8CF4C2F5FBA611B3E626D64407CB32C122DFF4EF8674D6EDBB86C8F7C6A16D50FA685E2CCA34F8F7D1D8265BB0042E9D7F1F666F7BE5FAA5184DF58E12122A42EF02F
310
461B3F369AC746F96528AD208512AB56844CF75B97F352DF7995024FB02855385854F3798670D01CAC771AC3E1889EC25F61A20C1F8CAB46898817F9C47E2CDA1F286BF2F358298709FE567C91133E2638C8B53975E753EA8BFD3578B5F7186B7BF084EBA3F77BAC3132A5779902EC22AF2D2E79F42D324E083386DAEE9810
310
D1B44A5DAA54513C7A71E52A4AB9257D975B621308FE4D2141CC3DCFE946C154A3C1DFCCA7629EC69ACFA831634ADDA93C0388D2A9A2DDAFCF957C6995BCE7FBB6DC4EBAE79E63EB08E9A25F52F67076F7093CA545CA3053B5BF576DEAD4E0017143C5F759F32B2D6F145B52B67B48909B7C7FCA6586EE385A2189C16932CB
310
6DDFD9152AE317C430492A578ED27B72D85D40C7C93C097939E1B50F4D67F05334FE9DC362C30B7FF561B95259138ECFD9274C8D695C31B14D4EAA9F3D7FA8DDF652F8C5DEFA23284C799B7D94416DEE81E05A866302DC70192A5368EA65E1CED8BF107A1E2D3119A71E85DC1A7B0C1E93274CE04DD0F2ABC8AC7C987FDB00
310
2B6F81757B43502EF7A0D92E416494FAEEA4C9C090CD9557AA4D532F4996A272B94355C5A0E4974EEA9627476F30809B94D8D8D860062E02204643BEC7D0438AF800FC7E2B26955D595421E83C69E1A07E0E3122285835F014AD538188CF9737CE76D464A353FA55A001AB2526B84E985083693BC76FE211CA1D000679C889
310
E3C009832C87E1AC2EDD05C302557422DF0800E316FCAC86978A371F025A6C7DAA9F333E7BD160403A1A06EA75AA9888FF01504B03041400060808005173474E51464CB48900000043010000360000006662782F30353831373535452D363637392D344231412D423435342D3231413135463133303143442F646972656374
310
6F72792E786D6C9D8F310EC2300C45AF127987122606C71DD918B841D4B851A43646695A717C52A85029031293A5A76FBF6FACEF7DA7264E43906840EF0FA03836E242F406C6DCEE4EA06AC22492573150D1F66C60C640E8938CB705396EEDD86DE9B5042FE27813D640EA63BB001C722AF6E55CB61E4863F58284D5D3F53D
310
D715CE1C3985E63FD7F1B7EBDD617E9F1E504B03041400060808005173474E1A544A704B070000551C0000340000006662782F30353831373535452D363637392D344231412D423435342D3231413135463133303143442F6F626A656374732E786D6CDD595B8FDA3814FE2B56F665F721370803540C15974E85BAD356455D
310
ED5B648261BC939B9C6406F6D7EFB16387381320D38B542D2341C6718ECFF9CEFD64F2F61085E889B08C26F1ADE15A8E81481C245B1AEF6F8D22DF992303BD9DA2094B92BCB6CF40318EC8ADC1978DE964CF9222954B5BB2C345D85CBD9BFF8DB280C4C4404188B3ECD6C8820712610B1779B225D9A3B5C539B6F6BB83E55A
310
E5469DEC9EE1F4A171548A1989736015D663A0223970F57F41247B3AB1F9066D5BBFDBB6DE856DB6105C6794C6598EE3E005578DE37A67B86A1CD777BDE5BBDE606C0E3CAF6F7A373DD79CDFCD97A63BEC3B8B9BC5623C7B3736D074B24992B052404AE22D68F1684CDD89CDEF54E24B14DAF80E9238268144B36DC39648BA
310
94644D4C34605D215A4D21A5ACB5857E47E1CF6CEB048AC69286B6124EFDD6AD37D9FC0320645DAC9465845B799633D0B5C4BEF407676297AB9A5E6886229C1346718842BA61988182606BA9208D0CF7164E0A71CC841615BD3AAF60D8D77DA98DCB5D1186DC7F8DA9F0341FFC91E499E08CFE4BD889FBFA69C013485BD038
310
1F4961F3630A24C6135B2C96F7FA3D79B30412ED42BC076B0131F9A67EAF81D782C782D5D2987EB8DB1CD63C3EB41F9EB224252CE796279C59FA9DD260CDB4C0F83A8052E2AAEBEE84CA1780FE23205FF18226A039460FDEC153B2331C67BB8445A01DE420D3812F07F1CB175713BB7A788A90162BCF610A6EFB8330D5C4D0
310
CEAE413A9D3C81D127AC2F855B0738049BBEA731F77330141426B004F17EB73918D31504535884A77008D2C3DFC4E697087E4A3A106F1A1A6A0BBF1D14A51CA6E967275DBD079B6134A854A5C9780EDFC10FC177B65C7F58176C8703722F1D7B497634A63924D3768634D03597FFBAFA283C727EFC131FEB3EA8ED0AE09C7D
310
C203478B5ED6522F48280658E179B8548D58B9A7E0EE6188639214995C6F0B54411226CCDF1CFDD2875BCFFA4B19417998B480D66006D93D6034E5A01853A9AE2A125A279C323031CCA409EE4BB5FA9B224A7D1C2545CC63ED4B5B6CF20181869B225015D494652BB75564B774B72B32885EAD24171A90D2A115E1D2C43D08
310
646DFC32B26318B26812FB149230784BEB09DA0115789779CE48B8F369181691BFA32124123FC2E919FA1D25A8A7AE47727C4ED8B695A06E59CA29950D71C025B00A2495AECAA02F75CAC813E575A648682A1D683B64216A4CBD33F982A78A164095310A33F79CBB85375BCE4CA737F24C6F3877CDB1D35F9A336FE80C7BEF
310
C6EE7208FE2FAD4420700A57F58407AAE4758EE67FF943116D624C43B8C129E06DFAE6AD489FB736C446DB198CDCE160F0CEBCB9198E4D6FEECECCB937F0CC9E3B7307776EDF71174B9B912C29584032BB673BBE32C934DE9FE3AA0AA63C6D81FCF02D2185BAE67AB653FA6A0AF3FF0DA2EF9B494153E2AF1A44ABD8D55211
310
760DA2FCD16608C5C123CF517E00655FABFB348268938FB638F7CAB8EC587D477C5C77DC73C6BDD17830E818F6C449DF1DE9DA6408A0F52C723F497140F3F694DA40A623CBAFCA2E56DF1D94D8A8EF5E0F015E9D572BA62E6726C9944F23BC27FE0EF3C6A225945E93B835EBEDC324CB684C32D118BE28181B341DEB147F65
310
966E315B9AF911C9F1B758ACE8341A5E00D13CF4A185CDF910E16A1D51B9806C5ACE51E40D33A47A21FFD1CF70948665737C0D03B7A782BD6A8BDA2C9433CD8F7802FBF471EE3B5B22661DD7A857ECAB8AA2556B4DEAE36F267F061E5509FD4478D411DD8B2D6BE08EF9670461E866E0F66F86952AAEA1A50ECB79F31716D0
310
AE0647FF99D0FD43A7E2B49B566A655E5988E72482DE17E705EBE4B137104D946D2981646468B844EDA4571694A2E9536D1F1C26BABE732571ED18A85D690CC3B14E82BC90A2D588852EC42090CFBB5EE1D90A9BAB54BF3B62FEF42ABBEE7E1114875D70800ABB2C8165FCD1EAF0D64A5DABA1B2679C07104AD7E2D79C8347
310
6CC9F6D4CC69E4DACA7A55D35EABB8573CA44630E6C53CD2DEF38BF00B065543CB9DD9B2D0B3CBF5154F6D164CB44F7C684CEBB43EBD5F37A8C04AE7A73F738CC87383825C5DF00EFA02A9AFABD3A0A041414AF47575E1F15FA20B510AAC75233042CE9290C2249F6CD19E2490BF6154D1A1436111C9445E3E7536EA354287
310
A79FCA416C8E37A1EA8B82070CD3EC50F66F45009354C899B7865C47BFC1EC948F2FC544CB7A84D64DC63003158CDE1A60B139850ECDDAC00C4C4C1C05F5C68C131C1BC77B9EF1CBA7AAFF4F8FBDE8D8AA3D5D70919269CE04A5702A5E2E40DD57DE984EBE5D74C50EC2395C6E8ABC12E6B470924682A0DE2294C2C1A8F051
310
C27B8092E2B25CAE25F6684D6CA771FE453B28A99A39667B3193AFD9E46CF9D9E6E3F4D5279486C59EABF352C7AC513279A71E16E5E46A028621C54C31AF22176FECCF2C81F75211BAA36004E8F7C3E8E60F7B91445112974BF64CBEDD42EB077857B5B5D59C105A7FC71DD9627220DF05F81B9C110B6FB3475800D532CA07
310
AA25C49A0154D1B466004A235C17F098B67FB544B23AAA4D55EA6197C3235E04207024FE0288BB4D7D436D6A09BE005C899BA70BB530B1194CCEA7FF01504B03041400060808005173474E849D2C9DE1000000550100003C0000006662782F30353831373535452D363637392D344231412D423435342D3231413135463133
310
303143442F7265736F75726365732F322F636E782E786D6C4D904B6E03211044AF8290B21C60267F8BC197C82A1B8B407B8C0CF4884F94DC3EE01029AB6E553DB5AA4B1EBF82279F90B2C3B8D299094A201AB42E6E2BADE53CBD5072543221967F18255107586997A9925BC2BA0FC9C25957DF55EFE27588E2B44184E4CC69
310
8F1B25C6EB9C579ACD058266BA16B490AFCCEAA2D9CC1264ACC9403B515C8071C224D0052C558B985F27B14CE2F96D7E382C4F87FBC777C93BA9E407A21FBC8B0512EE778B30D8D6D81209C93BA0644D6E50FD8D66FCC5632D9EE4CD563297D43A1858F9DE1BE682DE80DF905F5749DE9F6CE3D6409BBD10F503504B030414
310
00060808005173474EFF15A4A45D000000800000003A0000006662782F30353831373535452D363637392D344231412D423435342D3231413135463133303143442F7265736F75726365732F636E782E786D6C4D8B3B0E80201005AF42B6F75B59F0390B113044D83508C6E30BC6C26AF226F3B8BA6360974DA7271430F523
310
308B2B198F9B80925DB700539227A2FCCB80A18E5640D320F996A81C9F32D6E9129A0D1EF74FCE750E6D57BC7165FBCA07504B03041400060808005173474E8A754AF04301000056050000300000006662782F30353831373535452D363637392D344231412D423435342D3231413135463133303143442F636E782E786D6C
310
CD94CB6EC32010457FC542EAD2F8D1778489D445BFA08BAA3B8C272E0D060B86AAF9FB42EA24ADAAA85D584A76683848F7CE5C862D3F069DBD83F3CA9A8654B4241918693B65FA86045CE577245B72E6ACC56F18C98C18A021A94C38EB9D0DE354EA6025824E55ADCC7A2A0A44A7DA80E04926B5F0BE215EBEC220A808683B
310
F06BDA0914B4A20EBC0D4E427C8F6A80E9BD7420103AC2EBB2BACFCB3A2F6F9FAAAB457DB3B8BC7E614522396BADD513AF0C82B3E3455D4A1B8F26CA29599100CE825313953C107ED0465B655811EF39F351AFE9270E3763E2C6512B293036AAB01201F308811858F105735624C73F7C3F3E3C1F34C453A71C48B46E73B236
310
54C7DAB097466322FED7852DF89779DBBE45CBA79BFB51C393B0D9ECEE92EB63747F2721E649985E9FE307D84B9B3FFF71B1A092E7687AA76C26CFC57605C6C1A78DC83F01504B03041400060808005173474E7312A78A7F000000A30000000B0000006662782F636E782E786D6C4D8CCB0EC22014057F85DC3DCA55686B02
310
34AD8FFF682C6D88140C16E3E70BA60B5727999C19D97E1647DE26BE6CF00A70C780187F0FA3F5B382B44EB401D26A194358FF6E40FCB01805058396730CE9B9A1D14C4372853AEB1F1B64A2C15A882BADAAFA44798F1DEDB9E0F4801D8A1B1E199E2FD9D81725CFAF97B7E4F517504B03041400060808005173474EA6D797
310
065F0000008200000007000000636E782E786D6C4DCB3B0E80201045D1AD90E9FD7516806B51190811670C8A61F982B1B0BAC9C97B72CA7B1037C6D3332918DA1E04D2CAC69353902EDB8C20262D23F3F59B81A079470595414B17391D1F19B4730A5583A7ED43BBE4025D9592775E5ADFFA01504B03041400060808005173
310
474EECFD112DA800000026010000130000005B436F6E74656E745F54797065735D2E786D6C7D4F4B0EC22010BD0A61DF525D18634ABB506FE00510A79458060253536F2FD89D5197F3FED3F68B9BD80362B21E25DFD40D6780DADF2C1AC9671AAA3D677DD75E9E0112CB5A4C928F44E12044D22338956A1F003333F8E814E5
310
331A1194BE2B0362DB343BA13D122055543278D79E6050F344ECBC6478EDCD76CE8EABAE5449AE4298AC56946789C28AAFBEABC53F3EAF09A84A1441B91F0101CD4780756578C173A578FFDDBD00504B03041400060808005173474E3DEE336E64000000790000001B0000006175746F6465736B2D64657369676E2D706163
310
6B6167652E786D6C35CBC10E83200C00D05F21DCA56CA76D41FC96062B120735B69A7DBE268BB7777961F8D5AF396893C2ADB70FE7ADA196782C2DF776D7A97B5933C430F15651E5469C55D70F80A4992A3ADC954792C525AE70A1E4D6AD9816CC044FEFDF01FE3FDE907802504B03041400060808005173474EB100107EF3
310
0000008E0100003D0000006662782F30353831373535452D363637392D344231412D423435342D3231413135463133303143442F7265736F75726365732F322F636F72652E786D6C8550CB6EC32010FC156BEFD8805DD78E3051E5AA5FD0536F0888831283C5A3EAE71762576A4F3DED6A76667677D8F96BBD579FDA07E3EC
310
04A4C650692B9D32769920C50B1AA03A73E69D8BBF685059B1EA090A0C9C2DDEA5ED80A4B351DB825AA7F4018A1074844ADE7333419057BD8A5AA49819E1566F42DEC4A26B52EF3CCE5232EA901A95DDCCC5680FBCC73D195FC6019171C6A87BA33D1A68DBA1AE9DC70177734FF02B6B8A98B368D69FEDD26B11B5024E3119
310
11A6083FBF93EE44FB53FBF4C19AC2E42C449F7F3E9696EF329D353BFAC72D6DEA7FB7646C6CE9E1B62B0270928F7B0C386B4A3AB93CA2CBB524C9BF01504B03041400060808005173474E2C7F9280F8000000960100003B0000006662782F30353831373535452D363637392D344231412D423435342D3231413135463133
310
303143442F7265736F75726365732F636F72652E786D6C8550CB6E84300CFC15E47B20014A6115B2AAA8FA053DF516052F1BED92A03CAA7E7E93854AEDA9275BE399B13DFCFCB5DE8B4F745E5B33022B291468949DB5594688E1427A28CE823B6BC32F1A1446AE38428641F0C5D9B81D90B226A0C9A8B1331EA0F41E0314EA
310
9E9A11BCBAE22A4B194362F85BB94975930B96ACDC7982C7A8E743AAE7E4A62F1A1D888E766C78197AC2868992F6ADEE485F372D699B69E8693B758CBEF22A8B050F7AFDD9AE1CCA8033889AB281D09AD0E777D69EEAEED43C7DF02A3305F7C1A59F8FA5F93B100EBD8D4EA1E7D53EFDE31AB7F97FD7A84D68EAC375577810
310
2C1DF918085EE594527944986A4E547C03504B03041400060808005173474E11486CDFF2000000B1010000310000006662782F30353831373535452D363637392D344231412D423435342D3231413135463133303143442F636F72652E786D6C8D50CB6EC32010FC156BEFD8601B3B893051D2C717F4D41BC2C44189C1E251
310
F5F30BB12BB5B79C16CDCE30B3C38EDFF3BDF852CE6B6B06202586421969476DA60162B8A01D1447CE9CB5E10F0D0A236635408681B3C9D9B86C90B4262893516347B581C27B15A090F7F418C0CBAB9A452962480C7F2B17216F62522529571E6741CFBF52E994086A045E63B247B846B8FF20EDA1EE0E0DFD6455667216A3
310
1E372B3D26777DD1CA01C774477A4ADF50D7F57BD49EC9099D5BDAA29A9C087D270D262FAFACCA62CE7C70E9E6ED937CDDB3F255F82F735CC627326B139A7A335C151E3849791E0BCEAA5C601A8F76D3CC65F31F504B03041400060808005173474E15637CE152010000DD0200000C0000006662782F636F72652E786D6C8D
310
52DB6E842014FC15C33B0A6AAD6E904DB34DBFA04F7D6391B564150C82D9CF2F7889F5A19798209973CECC9909E4FCE8BB681266945AD500C708444271DD48D5D6C0D91B2C4174A6C4686DBFB58148B15ED420C08092D66837AC10D7CA0A1550A51BB1826C1C850511EFFCA50623FF143D8B99B3BE63BCC703E377D68A18C7
310
4B1F25CEC9661D958D679337290CA0052A70F5529510571704F3B7B480659AE530CF2E5589F24B81D12B49C2302556F69B3A378259D1009A225C419442F4FC8EF3535A9CB2A70F92844E4A466BBCE75534B803F4767D9064C10F7C6E68FEE67352D92C5DF996891150ECD79B0B9424211FFF9BC33B66E8857D7E965DBBCDC2
310
DD4393E0569BDC571AEDF6D2C43A273C358AE68F244BD533CF043FF1A4BFF0FCCEE18362AAF5AB31EBAF576783FA71A7411838D947A4B4E959B72FB7ACB89FBBD0C1D236CE75A7CD7FA637AB5B98497898F40B504B03041400060808005173474E49732C8006010000B201000008000000636F72652E786D6C8D50C16E8420
310
14FC15F2EE28A8B5BA41368D4DBFA0A7DEA8B096AC8211D8B47F5F5869D2DE7A7A6466DE9B61D8F9735DD04DED4E5B33002D082065262BB5990708FE823B4067CE766BFD2F1920235635408281B379B761CBD0648D5726A1C64A9541E19CF280A6253E0670D3875A4521828F0A772D36315DC5AC0A5A1C3ACEBC5E7F56A75D
310
09AF24F08AD01E930A93C757DA9CAAF6543FBCB13229390B41CB6CA56574D717AD76E02D6969FFD47798F623C1CD4BD5E2AEAA1BDCD463DF91666C297966655AE6CCF93DFE391F89393D72E2967C5979509CBD5BBB64410C259135CB1770C2CA44FC091D36F98FD0DAF8BACA078F0D079CC64077221AA706E3B8D71B676A9B
310
7F03504B010214001400060808005173474E0000000000000000000000003700000000000000000000000000000000006662782F30353831373535452D363637392D344231412D423435342D3231413135463133303143442F617474726962757465732E62696E504B010214001400060808005173474E0000000000000000
310
000000003500000000000000000000000000550000006662782F30353831373535452D363637392D344231412D423435342D3231413135463133303143442F76657274696365732E62696E504B010214001400060808005173474EF270F13306000000040000003600000000000000000000000000A80000006662782F3035
310
3831373535452D363637392D344231412D423435342D3231413135463133303143442F747269616E676C65732E62696E504B010214001400060808005173474E88E57597CD3F0000904100004200000000000000000000000000020100006662782F30353831373535452D363637392D344231412D423435342D3231413135
310
463133303143442F7265736F75726365732F322F305F67656E657269632E706E67504B010214001400060808005173474E51464CB4890000004301000036000000000000000000000000002F4100006662782F30353831373535452D363637392D344231412D423435342D3231413135463133303143442F6469726563746F
310
72792E786D6C504B010214001400060808005173474E1A544A704B070000551C000034000000000000000000000000000C4200006662782F30353831373535452D363637392D344231412D423435342D3231413135463133303143442F6F626A656374732E786D6C504B010214001400060808005173474E849D2C9DE10000
310
00550100003C00000000000000000000000000A94900006662782F30353831373535452D363637392D344231412D423435342D3231413135463133303143442F7265736F75726365732F322F636E782E786D6C504B010214001400060808005173474EFF15A4A45D000000800000003A00000000000000000000000000E44A
310
00006662782F30353831373535452D363637392D344231412D423435342D3231413135463133303143442F7265736F75726365732F636E782E786D6C504B010214001400060808005173474E8A754AF043010000560500003000000000000000000000000000994B00006662782F30353831373535452D363637392D344231
310
412D423435342D3231413135463133303143442F636E782E786D6C504B010214001400060808005173474E7312A78A7F000000A30000000B000000000000000000000000002A4D00006662782F636E782E786D6C504B010214001400060808005173474EA6D797065F000000820000000700000000000000000000000000D2
310
4D0000636E782E786D6C504B010214001400060808005173474EECFD112DA8000000260100001300000000000000000000000000564E00005B436F6E74656E745F54797065735D2E786D6C504B010214001400060808005173474E3DEE336E64000000790000001B000000000000000000000000002F4F00006175746F6465
310
736B2D64657369676E2D7061636B6167652E786D6C504B010214001400060808005173474EB100107EF30000008E0100003D00000000000000000000000000CC4F00006662782F30353831373535452D363637392D344231412D423435342D3231413135463133303143442F7265736F75726365732F322F636F72652E786D
310
6C504B010214001400060808005173474E2C7F9280F8000000960100003B000000000000000000000000001A5100006662782F30353831373535452D363637392D344231412D423435342D3231413135463133303143442F7265736F75726365732F636F72652E786D6C504B010214001400060808005173474E11486CDFF2
310
000000B101000031000000000000000000000000006B5200006662782F30353831373535452D363637392D344231412D423435342D3231413135463133303143442F636F72652E786D6C504B010214001400060808005173474E15637CE152010000DD0200000C00000000000000000000000000AC5300006662782F636F72
310
652E786D6C504B010214001400060808005173474E49732C8006010000B2010000080000000000000000000000000028550000636F72652E786D6C504B050600000000120012002D060000545600000000
  0
XRECORD
  5
17
102
{ACAD_REACTORS
330
12
102
}
330
12
100
AcDbXrecord
280
     1
270
     1
271
     1
  0
XRECORD
  5
16
102
{ACAD_REACTORS
330
12
102
}
330
12
100
AcDbXrecord
280
     1
270
     1
271
     1
  0
XRECORD
  5
18
102
{ACAD_REACTORS
330
12
102
}
330
12
100
AcDbXrecord
280
     1
270
     1
271
     1
  0
XRECORD
  5
15
102
{ACAD_REACTORS
330
12
102
}
330
12
100
AcDbXrecord
280
     1
270
     1
271
     1
  0
XRECORD
  5
24
102
{ACAD_REACTORS
330
22
102
}
330
22
100
AcDbXrecord
280
     1
270
     1
271
     1
  0
XRECORD
  5
23
102
{ACAD_REACTORS
330
22
102
}
330
22
100
AcDbXrecord
280
     1
270
     1
271
     1
  0
XRECORD
  5
27
102
{ACAD_REACTORS
330
22
102
}
330
22
100
AcDbXrecord
280
     1
270
     1
271
     1
  0
XRECORD
  5
26
102
{ACAD_REACTORS
330
22
102
}
330
22
100
AcDbXrecord
280
     1
270
     1
271
     1
  0
XRECORD
  5
28
102
{ACAD_REACTORS
330
22
102
}
330
22
100
AcDbXrecord
280
     1
270
     1
271
     1
  0
XRECORD
  5
25
102
{ACAD_REACTORS
330
22
102
}
330
22
100
AcDbXrecord
280
     1
270
     1
271
     1
  0
CELLSTYLEMAP
  5
3DD
102
{ACAD_REACTORS
330
3DC
102
}
330
3DC
100
AcDbCellStyleMap
 90
        3
300
CELLSTYLE
  1
TABLEFORMAT_BEGIN
 90
        5
170
     1
 91
        0
 92
    32768
 62
   257
 93
        1
300
CONTENTFORMAT
  1
CONTENTFORMAT_BEGIN
 90
        0
 91
        0
 92
      512
 93
        0
300

 40
0.0
140
1.0
 94
        5
 62
     0
340
55
144
0.25
309
CONTENTFORMAT_END
171
     0
 94
        0
309
TABLEFORMAT_END
  1
CELLSTYLE_BEGIN
 90
        1
 91
        1
300
_TITLE
309
CELLSTYLE_END
300
CELLSTYLE
  1
TABLEFORMAT_BEGIN
 90
        5
170
     1
 91
        0
 92
        0
 62
   257
 93
        1
300
CONTENTFORMAT
  1
CONTENTFORMAT_BEGIN
 90
        0
 91
        0
 92
      512
 93
        0
300

 40
0.0
140
1.0
 94
        5
 62
     0
340
55
144
0.18
309
CONTENTFORMAT_END
171
     0
 94
        0
309
TABLEFORMAT_END
  1
CELLSTYLE_BEGIN
 90
        2
 91
        1
300
_HEADER
309
CELLSTYLE_END
300
CELLSTYLE
  1
TABLEFORMAT_BEGIN
 90
        5
170
     1
 91
        0
 92
        0
 62
   257
 93
        1
300
CONTENTFORMAT
  1
CONTENTFORMAT_BEGIN
 90
        0
 91
        0
 92
      512
 93
        0
300

 40
0.0
140
1.0
 94
        2
 62
     0
340
55
144
0.18
309
CONTENTFORMAT_END
171
     0
 94
        0
309
TABLEFORMAT_END
  1
CELLSTYLE_BEGIN
 90
        3
 91
        2
300
_DATA
309
CELLSTYLE_END
  0
ENDSEC
  0
EOF
