  0
SECTION
  2
HEADER
  9
$ACADVER
  1
AC1018
  9
$ACADMAINTVER
 70
   104
  9
$DWGCODEPAGE
  3
ANSI_1252
  9
$AUTHOR
  1
basyouni
  9
$LASTSAVEDBY
  1
ibasyouni
  9
$CUSTOMPROPERTYTAG
  1
Manager
  9
$CUSTOMPROPERTY
  1

  9
$CUSTOMPROPERTYTAG
  1
Firma
  9
$CUSTOMPROPERTY
  1

  9
$CUSTOMPROPERTYTAG
  1
Kategorie
  9
$CUSTOMPROPERTY
  1

  9
$CUSTOMPROPERTYTAG
  1
Bauteilnummer
  9
$CUSTOMPROPERTY
  1
60022955
  9
$CUSTOMPROPERTYTAG
  1
Bezeichnung
  9
$CUSTOMPROPERTY
  1
FRV 115 WMS
  9
$CUSTOMPROPERTYTAG
  1
Projekt
  9
$CUSTOMPROPERTY
  1

  9
$CUSTOMPROPERTYTAG
  1
Konstrukteur
  9
$CUSTOMPROPERTY
  1
basyouni
  9
$CUSTOMPROPERTYTAG
  1
Ingenieur
  9
$CUSTOMPROPERTY
  1

  9
$CUSTOMPROPERTYTAG
  1
Bevollmächtigter
  9
$CUSTOMPROPERTY
  1

  9
$CUSTOMPROPERTYTAG
  1
Kostenstelle
  9
$CUSTOMPROPERTY
  1

  9
$CUSTOMPROPERTYTAG
  1
Zulieferer
  9
$CUSTOMPROPERTY
  1

  9
$CUSTOMPROPERTYTAG
  1
Benutzerstatus
  9
$CUSTOMPROPERTY
  1

  9
$CUSTOMPROPERTYTAG
  1
Konstruktionsstatus
  9
$CUSTOMPROPERTY
  1
InBearbeitung
  9
$CUSTOMPROPERTYTAG
  1
Kontrolliert von
  9
$CUSTOMPROPERTY
  1

  9
$CUSTOMPROPERTYTAG
  1
Konstruktion genehmigt von
  9
$CUSTOMPROPERTY
  1

  9
$CUSTOMPROPERTYTAG
  1
Fertigung genehmigt von
  9
$CUSTOMPROPERTY
  1

  9
$INSBASE
 10
0.0
 20
0.0
 30
0.0
  9
$EXTMIN
 10
119.3419579160527
 20
136.1931234457591
 30
0.0
  9
$EXTMAX
 10
290.4586842706975
 20
239.1573459838222
 30
0.0
  9
$LIMMIN
 10
0.0
 20
0.0
  9
$LIMMAX
 10
420.0
 20
297.0
  9
$ORTHOMODE
 70
     1
  9
$REGENMODE
 70
     1
  9
$FILLMODE
 70
     1
  9
$QTEXTMODE
 70
     0
  9
$MIRRTEXT
 70
     0
  9
$LTSCALE
 40
1.0
  9
$ATTMODE
 70
     1
  9
$TEXTSIZE
 40
0.2
  9
$TRACEWID
 40
0.05
  9
$TEXTSTYLE
  7
Standard
  9
$CLAYER
  8
0
  9
$CELTYPE
  6
ByLayer
  9
$CECOLOR
 62
   256
  9
$CELTSCALE
 40
1.0
  9
$DISPSILH
 70
     0
  9
$DIMSCALE
 40
1.0
  9
$DIMASZ
 40
1.799999999999999
  9
$DIMEXO
 40
0.0625
  9
$DIMDLI
 40
0.38
  9
$DIMRND
 40
0.0
  9
$DIMDLE
 40
0.0
  9
$DIMEXE
 40
0.18
  9
$DIMTP
 40
0.0
  9
$DIMTM
 40
0.0
  9
$DIMTXT
 40
0.3499999940395355
  9
$DIMCEN
 40
0.09
  9
$DIMTSZ
 40
0.0
  9
$DIMTOL
 70
     0
  9
$DIMLIM
 70
     0
  9
$DIMTIH
 70
     1
  9
$DIMTOH
 70
     1
  9
$DIMSE1
 70
     0
  9
$DIMSE2
 70
     0
  9
$DIMTAD
 70
     0
  9
$DIMZIN
 70
     0
  9
$DIMBLK
  1

  9
$DIMASO
 70
     1
  9
$DIMSHO
 70
     1
  9
$DIMPOST
  1

  9
$DIMAPOST
  1

  9
$DIMALT
 70
     0
  9
$DIMALTD
 70
     2
  9
$DIMALTF
 40
25.4
  9
$DIMLFAC
 40
1.0
  9
$DIMTOFL
 70
     0
  9
$DIMTVP
 40
0.0
  9
$DIMTIX
 70
     0
  9
$DIMSOXD
 70
     0
  9
$DIMSAH
 70
     0
  9
$DIMBLK1
  1

  9
$DIMBLK2
  1

  9
$DIMSTYLE
  2
Standard
  9
$DIMCLRD
 70
     0
  9
$DIMCLRE
 70
     0
  9
$DIMCLRT
 70
     0
  9
$DIMTFAC
 40
1.0
  9
$DIMGAP
 40
0.09
  9
$DIMJUST
 70
     0
  9
$DIMSD1
 70
     0
  9
$DIMSD2
 70
     0
  9
$DIMTOLJ
 70
     1
  9
$DIMTZIN
 70
     0
  9
$DIMALTZ
 70
     0
  9
$DIMALTTZ
 70
     0
  9
$DIMUPT
 70
     0
  9
$DIMDEC
 70
     4
  9
$DIMTDEC
 70
     4
  9
$DIMALTU
 70
     2
  9
$DIMALTTD
 70
     2
  9
$DIMTXSTY
  7
Standard
  9
$DIMAUNIT
 70
     0
  9
$DIMADEC
 70
     0
  9
$DIMALTRND
 40
0.0
  9
$DIMAZIN
 70
     0
  9
$DIMDSEP
 70
    46
  9
$DIMATFIT
 70
     3
  9
$DIMFRAC
 70
     0
  9
$DIMLDRBLK
  1

  9
$DIMLUNIT
 70
     2
  9
$DIMLWD
 70
    -2
  9
$DIMLWE
 70
    -2
  9
$DIMTMOVE
 70
     0
  9
$LUNITS
 70
     2
  9
$LUPREC
 70
     4
  9
$SKETCHINC
 40
0.1
  9
$FILLETRAD
 40
0.0
  9
$AUNITS
 70
     0
  9
$AUPREC
 70
     0
  9
$MENU
  1
.
  9
$ELEVATION
 40
0.0
  9
$PELEVATION
 40
0.0
  9
$THICKNESS
 40
0.0
  9
$LIMCHECK
 70
     0
  9
$CHAMFERA
 40
0.0
  9
$CHAMFERB
 40
0.0
  9
$CHAMFERC
 40
0.0
  9
$CHAMFERD
 40
0.0
  9
$SKPOLY
 70
     0
  9
$TDCREATE
 40
2456192.454748716
  9
$TDUCREATE
 40
2456192.371415382
  9
$TDUPDATE
 40
2456192.460989757
  9
$TDUUPDATE
 40
2456192.377656424
  9
$TDINDWG
 40
0.0044305324
  9
$TDUSRTIMER
 40
0.0044305324
  9
$USRTIMER
 70
     1
  9
$ANGBASE
 50
0.0
  9
$ANGDIR
 70
     0
  9
$PDMODE
 70
     0
  9
$PDSIZE
 40
0.0
  9
$PLINEWID
 40
0.0
  9
$SPLFRAME
 70
     0
  9
$SPLINETYPE
 70
     6
  9
$SPLINESEGS
 70
     8
  9
$HANDSEED
  5
2117
  9
$SURFTAB1
 70
     6
  9
$SURFTAB2
 70
     6
  9
$SURFTYPE
 70
     6
  9
$SURFU
 70
     6
  9
$SURFV
 70
     6
  9
$UCSBASE
  2

  9
$UCSNAME
  2

  9
$UCSORG
 10
0.0
 20
0.0
 30
0.0
  9
$UCSXDIR
 10
1.0
 20
0.0
 30
0.0
  9
$UCSYDIR
 10
0.0
 20
1.0
 30
0.0
  9
$UCSORTHOREF
  2

  9
$UCSORTHOVIEW
 70
     0
  9
$UCSORGTOP
 10
0.0
 20
0.0
 30
0.0
  9
$UCSORGBOTTOM
 10
0.0
 20
0.0
 30
0.0
  9
$UCSORGLEFT
 10
0.0
 20
0.0
 30
0.0
  9
$UCSORGRIGHT
 10
0.0
 20
0.0
 30
0.0
  9
$UCSORGFRONT
 10
0.0
 20
0.0
 30
0.0
  9
$UCSORGBACK
 10
0.0
 20
0.0
 30
0.0
  9
$PUCSBASE
  2

  9
$PUCSNAME
  2

  9
$PUCSORG
 10
0.0
 20
0.0
 30
0.0
  9
$PUCSXDIR
 10
1.0
 20
0.0
 30
0.0
  9
$PUCSYDIR
 10
0.0
 20
1.0
 30
0.0
  9
$PUCSORTHOREF
  2

  9
$PUCSORTHOVIEW
 70
     0
  9
$PUCSORGTOP
 10
0.0
 20
0.0
 30
0.0
  9
$PUCSORGBOTTOM
 10
0.0
 20
0.0
 30
0.0
  9
$PUCSORGLEFT
 10
0.0
 20
0.0
 30
0.0
  9
$PUCSORGRIGHT
 10
0.0
 20
0.0
 30
0.0
  9
$PUCSORGFRONT
 10
0.0
 20
0.0
 30
0.0
  9
$PUCSORGBACK
 10
0.0
 20
0.0
 30
0.0
  9
$USERI1
 70
     0
  9
$USERI2
 70
     0
  9
$USERI3
 70
     0
  9
$USERI4
 70
     0
  9
$USERI5
 70
     0
  9
$USERR1
 40
0.0
  9
$USERR2
 40
0.0
  9
$USERR3
 40
0.0
  9
$USERR4
 40
0.0
  9
$USERR5
 40
0.0
  9
$WORLDVIEW
 70
     1
  9
$SHADEDGE
 70
     3
  9
$SHADEDIF
 70
    70
  9
$TILEMODE
 70
     1
  9
$MAXACTVP
 70
    64
  9
$PINSBASE
 10
0.0
 20
0.0
 30
0.0
  9
$PLIMCHECK
 70
     0
  9
$PEXTMIN
 10
0.0
 20
0.0
 30
0.0
  9
$PEXTMAX
 10
420.0
 20
297.0
 30
0.0
  9
$PLIMMIN
 10
0.0
 20
0.0
  9
$PLIMMAX
 10
420.0
 20
297.0
  9
$UNITMODE
 70
     0
  9
$VISRETAIN
 70
     1
  9
$PLINEGEN
 70
     0
  9
$PSLTSCALE
 70
     1
  9
$TREEDEPTH
 70
  3020
  9
$CMLSTYLE
  2
Standard
  9
$CMLJUST
 70
     0
  9
$CMLSCALE
 40
1.0
  9
$PROXYGRAPHICS
 70
     1
  9
$MEASUREMENT
 70
     1
  9
$CELWEIGHT
370
    -1
  9
$ENDCAPS
280
     0
  9
$JOINSTYLE
280
     0
  9
$LWDISPLAY
290
     0
  9
$INSUNITS
 70
     4
  9
$HYPERLINKBASE
  1

  9
$STYLESHEET
  1

  9
$XEDIT
290
     1
  9
$CEPSNTYPE
380
     0
  9
$PSTYLEMODE
290
     1
  9
$FINGERPRINTGUID
  2
{46159CC7-F594-482D-8698-08039FC0BCBF}
  9
$VERSIONGUID
  2
{BC5512A5-A64F-4362-8EC7-72291B526CBE}
  9
$EXTNAMES
290
     1
  9
$PSVPSCALE
 40
0.0
  9
$OLESTARTUP
290
     0
  9
$SORTENTS
280
   127
  9
$INDEXCTL
280
     0
  9
$HIDETEXT
280
     1
  9
$XCLIPFRAME
290
     0
  9
$HALOGAP
280
     0
  9
$OBSCOLOR
 70
   257
  9
$OBSLTYPE
280
     0
  9
$INTERSECTIONDISPLAY
280
     0
  9
$INTERSECTIONCOLOR
 70
   257
  9
$DIMASSOC
280
     1
  9
$PROJECTNAME
  1

  0
ENDSEC
  0
SECTION
  2
CLASSES
  0
CLASS
  1
ACDBDICTIONARYWDFLT
  2
AcDbDictionaryWithDefault
  3
ObjectDBX Classes
 90
        0
 91
        1
280
     0
281
     0
  0
CLASS
  1
MATERIAL
  2
AcDbMaterial
  3
ObjectDBX Classes
 90
     1153
 91
        3
280
     0
281
     0
  0
CLASS
  1
VISUALSTYLE
  2
AcDbVisualStyle
  3
ObjectDBX Classes
 90
     4095
 91
       24
280
     0
281
     0
  0
CLASS
  1
SCALE
  2
AcDbScale
  3
ObjectDBX Classes
 90
     1153
 91
       17
280
     0
281
     0
  0
CLASS
  1
TABLESTYLE
  2
AcDbTableStyle
  3
ObjectDBX Classes
 90
     4095
 91
        1
280
     0
281
     0
  0
CLASS
  1
MLEADERSTYLE
  2
AcDbMLeaderStyle
  3
ACDB_MLEADERSTYLE_CLASS
 90
     4095
 91
        1
280
     0
281
     0
  0
CLASS
  1
DICTIONARYVAR
  2
AcDbDictionaryVar
  3
ObjectDBX Classes
 90
        0
 91
        9
280
     0
281
     0
  0
CLASS
  1
ACME_DOCUMENT
  2
AcMeDbDoc
  3
AcMeServices
 90
     1024
 91
        2
280
     0
281
     0
  0
CLASS
  1
AMGSETTINGSOBJ
  2
AmgSettingsObj
  3
"AcadM|Product Description: AutoCAD Mechanical|Company: Autodesk, Inc."
 90
     1024
 91
        2
280
     0
281
     0
  0
CLASS
  1
ACMESCOPE
  2
AcMeScope
  3
AcMeServices
 90
     1024
 91
        1
280
     0
281
     0
  0
CLASS
  1
ACMECOMMANDHISTORY
  2
AcMeCommandHistory
  3
AcMeServices
 90
     1024
 91
        1
280
     0
281
     0
  0
CLASS
  1
ACIMSYSVARMAN
  2
AcImSysVarManager
  3
AcMeServices
 90
     1024
 91
        3
280
     0
281
     0
  0
CLASS
  1
ACIMINTSYSVAR
  2
AcImIntSysVar
  3
AcMeServices
 90
     1024
 91
        2
280
     0
281
     0
  0
CLASS
  1
ACMESTATEMGR
  2
AcMeStateMgr
  3
AcMeServices
 90
     1024
 91
        1
280
     0
281
     0
  0
CLASS
  1
ACDBENTITYCACHE
  2
AcMeEntityCache
  3
AcMeServices
 90
     1024
 91
        1
280
     0
281
     0
  0
CLASS
  1
ACGREFMASTER
  2
AcGrefMaster
  3
AcAttribServices
 90
     1024
 91
        1
280
     0
281
     0
  0
CLASS
  1
ACME_DATABASE
  2
AcMeDbDatabase
  3
AcMeServices
 90
     1024
 91
        2
280
     0
281
     0
  0
CLASS
  1
ACRFINSADJUSTERMGR
  2
AcRfInsAdjusterMgr
  3
AcMeServices
 90
     1024
 91
        1
280
     0
281
     0
  0
CLASS
  1
ACGREFACADMASTER
  2
AcGrefacadMaster
  3
AcGrefServices
 90
     1024
 91
        1
280
     0
281
     0
  0
CLASS
  1
AMDTMENUSTATEMGR
  2
AmdtMenuStateMgr
  3
McadcomServices
 90
     1024
 91
        1
280
     0
281
     0
  0
CLASS
  1
AMDTMCOMMENUSTATE
  2
AmdtMcomMenuState
  3
McadcomServices
 90
     1024
 91
        1
280
     0
281
     0
  0
CLASS
  1
AMIMASTER
  2
AmiMaster
  3
AmiServices
 90
     1024
 91
        1
280
     0
281
     0
  0
CLASS
  1
MAPIAMMOUDLE
  2
MApiAmModule
  3
MApiAmServices
 90
     1024
 91
        1
280
     0
281
     0
  0
CLASS
  1
ACIMSTRSYSVAR
  2
AcImStrSysVar
  3
AcMeServices
 90
     1024
 91
        5
280
     0
281
     0
  0
CLASS
  1
AMDTAMMENUSTATE
  2
AmdtAmMenuState
  3
DesignerAssemblies
 90
     1024
 91
        1
280
     0
281
     0
  0
CLASS
  1
ACAMPROJECT
  2
AcAmProject
  3
DesignerAssemblies
 90
     1024
 91
        1
280
     0
281
     0
  0
CLASS
  1
ACAMGRCOMPDEF
  2
AcAmGrCompDef
  3
DesignerAssemblies
 90
     1024
 91
        1
280
     0
281
     0
  0
CLASS
  1
ACAMCOMPDEF
  2
AcAmCompDef
  3
DesignerAssemblies
 90
     1024
 91
        1
280
     0
281
     0
  0
CLASS
  1
ACAMCOMPDEFMGR
  2
AcAmCompDefMgr
  3
DesignerAssemblies
 90
     1024
 91
        1
280
     0
281
     0
  0
CLASS
  1
AMCONTEXTMGR
  2
AcAmContextMgr
  3
DesignerAssemblies
 90
     1024
 91
        1
280
     0
281
     0
  0
CLASS
  1
ACAMCONTEXTMODELER
  2
AcAmContextModeler
  3
DesignerAssemblies
 90
     1024
 91
        1
280
     0
281
     0
  0
CLASS
  1
ACMDATADICTIONARY
  2
AcmDataDictionary
  3
"AcmSymBB|Product Description: AutoCAD Mechanical|Company: Autodesk, Inc."
 90
     1024
 91
        1
280
     0
281
     0
  0
CLASS
  1
ACAMGRCOMPDEFSET
  2
AcAmGrCompDefSet
  3
DesignerAssemblies
 90
     1024
 91
        1
280
     0
281
     0
  0
CLASS
  1
AMDTBROWSERDBTAB
  2
AmdtBrowserDbTab
  3
McadcomServices
 90
     1024
 91
        1
280
     0
281
     0
  0
CLASS
  1
CBROWSERAPPOBJECT
  2
CBrowserAppObject
  3
McadcomServices
 90
     1024
 91
        2
280
     0
281
     0
  0
CLASS
  1
DM_PLACEHOLDER
  2
AcDmSelsetPlaceholder
  3
McadcomServices
 90
     1024
 91
        1
280
     0
281
     0
  0
CLASS
  1
ACMSTANDARDDIN
  2
AcmStandardDIN
  3
"Amdt_StdImp|Product Description: AutoCAD Mechanical|Company: Autodesk, Inc."
 90
     1024
 91
        1
280
     0
281
     0
  0
CLASS
  1
AMDTEDGESTANDARDDIN13715
  2
AmdtEdgeStdDIN13715
  3
"Amdt_StdImp|Product Description: AutoCAD Mechanical|Company: Autodesk, Inc."
 90
     1024
 91
        1
280
     0
281
     0
  0
CLASS
  1
ACMSURFSTANDARDDIN2002
  2
AcmSurfTextStdDIN2002
  3
"Amdt_StdImp|Product Description: AutoCAD Mechanical|Company: Autodesk, Inc."
 90
     1024
 91
        1
280
     0
281
     0
  0
CLASS
  1
ACMFCFSTANDARDDIN2008
  2
AcmFCFStdDIN2008
  3
"Amdt_StdImp|Product Description: AutoCAD Mechanical|Company: Autodesk, Inc."
 90
     1024
 91
        1
280
     0
281
     0
  0
CLASS
  1
ACMWELDSTANDARDDIN
  2
AcmWeldingStdDIN
  3
"Amdt_StdImp|Product Description: AutoCAD Mechanical|Company: Autodesk, Inc."
 90
     1024
 91
        1
280
     0
281
     0
  0
CLASS
  1
ACMIDSTANDARDDIN2008
  2
AcmIdStdDIN2008
  3
"Amdt_StdImp|Product Description: AutoCAD Mechanical|Company: Autodesk, Inc."
 90
     1024
 91
        1
280
     0
281
     0
  0
CLASS
  1
ACMDATUMSTANDARDDIN
  2
AcmDatumStdDIN
  3
"Amdt_StdImp|Product Description: AutoCAD Mechanical|Company: Autodesk, Inc."
 90
     1024
 91
        1
280
     0
281
     0
  0
CLASS
  1
ACMBOMSTANDARDDIN
  2
AcmBOMStdDIN
  3
"Amdt_StdImp|Product Description: AutoCAD Mechanical|Company: Autodesk, Inc."
 90
     1024
 91
        1
280
     0
281
     0
  0
CLASS
  1
ACMDETAILSTANDARDDIN
  2
AmdtDetailSymStdDIN
  3
"Amdt_StdImp|Product Description: AutoCAD Mechanical|Company: Autodesk, Inc."
 90
     1024
 91
        1
280
     0
281
     0
  0
CLASS
  1
ACMSECTIONSTANDARDDIN
  2
AmdtSectionSymStdDIN
  3
"Amdt_StdImp|Product Description: AutoCAD Mechanical|Company: Autodesk, Inc."
 90
     1024
 91
        1
280
     0
281
     0
  0
CLASS
  1
ACMCENTERLINESTANDARDDIN
  2
AmdtCenterLineStdDIN
  3
"Amdt_StdImp|Product Description: AutoCAD Mechanical|Company: Autodesk, Inc."
 90
     1024
 91
        1
280
     0
281
     0
  0
CLASS
  1
ACMTHREADLINESTANDARDDIN
  2
AmdtThreadLineStdDIN
  3
"Amdt_StdImp|Product Description: AutoCAD Mechanical|Company: Autodesk, Inc."
 90
     1024
 91
        1
280
     0
281
     0
  0
CLASS
  1
ACMNOTESTANDARDDIN
  2
AmdtNoteStdDIN
  3
"Amdt_StdImp|Product Description: AutoCAD Mechanical|Company: Autodesk, Inc."
 90
     1024
 91
        1
280
     0
281
     0
  0
CLASS
  1
ACMTAPERSTANDARDDIN
  2
AcmTaperStdDIN
  3
"Amdt_StdImp|Product Description: AutoCAD Mechanical|Company: Autodesk, Inc."
 90
     1024
 91
        1
280
     0
281
     0
  0
CLASS
  1
ACMANOOTATIONVIEWSTANDARDDIN
  2
AmdtAnViewStdDIN
  3
"Amdt_StdImp|Product Description: AutoCAD Mechanical|Company: Autodesk, Inc."
 90
     1024
 91
        1
280
     0
281
     0
  0
CLASS
  1
ACAMGLAYSTD
  2
AcAmgLayStd
  3
"AmgLay|Product Description: AutoCAD Mechanical|Company: Autodesk, Inc."
 90
     1024
 91
        2
280
     0
281
     0
  0
CLASS
  1
ACAMGDIMSTD
  2
AcAmgDimStd
  3
"AmgDim|Product Description: AutoCAD Mechanical|Company: Autodesk, Inc."
 90
     1024
 91
        2
280
     0
281
     0
  0
CLASS
  1
AMGOBJPROPCFG
  2
AmgObjPropCfg
  3
"AmgLay|Product Description: AutoCAD Mechanical|Company: Autodesk, Inc."
 90
     1025
 91
        1
280
     0
281
     0
  0
CLASS
  1
ACAMGHOLECHARTSTDDIN
  2
AcAmgHoleChartStdDIN
  3
AmgDim|Product Description: AutoCAD Mechanical|Company: Autodesk, Inc.
 90
     1024
 91
        1
280
     0
281
     0
  0
CLASS
  1
ACAMGTITLESTD
  2
AcAmgTitleStd
  3
"AmgTitle|Product Description: AutoCAD Mechanical|Company: Autodesk, Inc."
 90
     4095
 91
        2
280
     0
281
     0
  0
CLASS
  1
AMDTNOTETEMPLATEDB
  2
AmdtNoteTemplateDB
  3
AcmSymBB|Product Description: AutoCAD Mechanical|Company: Autodesk, Inc.
 90
     1024
 91
       12
280
     0
281
     0
  0
CLASS
  1
ACMDIMBREAKPERSREACTOR
  2
AcmDimBreakPersReactor
  3
AmgDim|Product Description: AutoCAD Mechanical|Company: Autodesk, Inc.
 90
     4095
 91
        1
280
     0
281
     0
  0
CLASS
  1
SORTENTSTABLE
  2
AcDbSortentsTable
  3
ObjectDBX Classes
 90
        0
 91
        2
280
     0
281
     0
  0
CLASS
  1
ACMSTANDARDISO
  2
AcmStandardISO
  3
"Amdt_StdImp|Product Description: AutoCAD Mechanical|Company: Autodesk, Inc."
 90
     1024
 91
        1
280
     0
281
     0
  0
CLASS
  1
AMDTEDGESTANDARDISO13715
  2
AmdtEdgeStdISO13715
  3
"Amdt_StdImp|Product Description: AutoCAD Mechanical|Company: Autodesk, Inc."
 90
     1024
 91
        1
280
     0
281
     0
  0
CLASS
  1
ACMSURFSTANDARDISO2002
  2
AcmSurfTextStdISO2002
  3
"Amdt_StdImp|Product Description: AutoCAD Mechanical|Company: Autodesk, Inc."
 90
     1024
 91
        1
280
     0
281
     0
  0
CLASS
  1
ACMFCFSTANDARDISO
  2
AcmFCFStdISO
  3
"Amdt_StdImp|Product Description: AutoCAD Mechanical|Company: Autodesk, Inc."
 90
     1024
 91
        1
280
     0
281
     0
  0
CLASS
  1
ACMWELDSTANDARDISO
  2
AcmWeldingStdISO
  3
"Amdt_StdImp|Product Description: AutoCAD Mechanical|Company: Autodesk, Inc."
 90
     1024
 91
        1
280
     0
281
     0
  0
CLASS
  1
ACMIDSTANDARDISO
  2
AcmIdStdISO
  3
"Amdt_StdImp|Product Description: AutoCAD Mechanical|Company: Autodesk, Inc."
 90
     1024
 91
        1
280
     0
281
     0
  0
CLASS
  1
ACMDATUMSTANDARDISO
  2
AcmDatumStdISO
  3
"Amdt_StdImp|Product Description: AutoCAD Mechanical|Company: Autodesk, Inc."
 90
     1024
 91
        1
280
     0
281
     0
  0
CLASS
  1
ACMBOMSTANDARDISO
  2
AcmBOMStdISO
  3
"Amdt_StdImp|Product Description: AutoCAD Mechanical|Company: Autodesk, Inc."
 90
     1024
 91
        1
280
     0
281
     0
  0
CLASS
  1
ACMDETAILSTANDARDISO
  2
AmdtDetailSymStdISO
  3
"Amdt_StdImp|Product Description: AutoCAD Mechanical|Company: Autodesk, Inc."
 90
     1024
 91
        1
280
     0
281
     0
  0
CLASS
  1
ACMSECTIONSTANDARDISO2001
  2
AmdtSectionSymStdISO2001
  3
"Amdt_StdImp|Product Description: AutoCAD Mechanical|Company: Autodesk, Inc."
 90
     1024
 91
        1
280
     0
281
     0
  0
CLASS
  1
ACMCENTERLINESTANDARDISO
  2
AmdtCenterLineStdISO
  3
"Amdt_StdImp|Product Description: AutoCAD Mechanical|Company: Autodesk, Inc."
 90
     1024
 91
        1
280
     0
281
     0
  0
CLASS
  1
ACMTHREADLINESTANDARDISO
  2
AmdtThreadLineStdISO
  3
"Amdt_StdImp|Product Description: AutoCAD Mechanical|Company: Autodesk, Inc."
 90
     1024
 91
        1
280
     0
281
     0
  0
CLASS
  1
ACMNOTESTANDARDISO
  2
AmdtNoteStdISO
  3
"Amdt_StdImp|Product Description: AutoCAD Mechanical|Company: Autodesk, Inc."
 90
     1024
 91
        1
280
     0
281
     0
  0
CLASS
  1
ACMTAPERSTANDARDISO
  2
AcmTaperStdISO
  3
"Amdt_StdImp|Product Description: AutoCAD Mechanical|Company: Autodesk, Inc."
 90
     1024
 91
        1
280
     0
281
     0
  0
CLASS
  1
ACMANOOTATIONVIEWSTANDARDISO
  2
AmdtAnViewStdISO
  3
"Amdt_StdImp|Product Description: AutoCAD Mechanical|Company: Autodesk, Inc."
 90
     1024
 91
        1
280
     0
281
     0
  0
CLASS
  1
ACAMGHOLECHARTSTDISO
  2
AcAmgHoleChartStdISO
  3
AmgDim|Product Description: AutoCAD Mechanical|Company: Autodesk, Inc.
 90
     1024
 91
        1
280
     0
281
     0
  0
CLASS
  1
ACAMGFILTERDAT
  2
AcAmgFilterDat
  3
"AcadM|Product Description: AutoCAD Mechanical|Company: Autodesk, Inc."
 90
     1024
 91
        6
280
     0
281
     0
  0
CLASS
  1
CELLSTYLEMAP
  2
AcDbCellStyleMap
  3
ObjectDBX Classes
 90
     1152
 91
        1
280
     0
281
     0
  0
ENDSEC
  0
SECTION
  2
TABLES
  0
TABLE
  2
VPORT
  5
8
330
0
100
AcDbSymbolTable
 70
     1
  0
VPORT
  5
57
330
8
100
AcDbSymbolTableRecord
100
AcDbViewportTableRecord
  2
*Active
 70
     0
 10
0.0
 20
0.0
 11
1.0
 21
1.0
 12
196.2318229613238
 22
186.4580201573773
 13
0.0
 23
0.0
 14
1.0
 24
1.0
 15
0.0
 25
0.0
 16
0.0
 26
0.0
 36
1.0
 17
0.0
 27
0.0
 37
0.0
 40
140.6600035632608
 41
1.738285714285714
 42
50.0
 43
0.0
 44
0.0
 50
0.0
 51
0.0
 71
     0
 72
   100
 73
     1
 74
     1
 75
     0
 76
     0
 77
     0
 78
     0
281
     0
 65
     1
110
0.0
120
0.0
130
0.0
111
1.0
121
0.0
131
0.0
112
0.0
122
1.0
132
0.0
 79
     0
146
0.0
1001
ACAD_NAV_VCDISPLAY
1070
     3
  0
ENDTAB
  0
TABLE
  2
LTYPE
  5
5
330
0
100
AcDbSymbolTable
 70
    78
  0
LTYPE
  5
5B
330
5
100
AcDbSymbolTableRecord
100
AcDbLinetypeTableRecord
  2
ByBlock
 70
     0
  3

 72
    65
 73
     0
 40
0.0
  0
LTYPE
  5
5C
330
5
100
AcDbSymbolTableRecord
100
AcDbLinetypeTableRecord
  2
ByLayer
 70
     0
  3

 72
    65
 73
     0
 40
0.0
  0
LTYPE
  5
5D
330
5
100
AcDbSymbolTableRecord
100
AcDbLinetypeTableRecord
  2
Continuous
 70
     0
  3
Solid line
 72
    65
 73
     0
 40
0.0
  0
LTYPE
  5
97
330
5
100
AcDbSymbolTableRecord
100
AcDbLinetypeTableRecord
  2
PHANTOM2
 70
     0
  3
Phantom (.5x) ___ _ _ ___ _ _ ___ _ _ ___ _ _
 72
    65
 73
     6
 40
31.75
 49
15.875
 74
     0
 49
-3.174999999999999
 74
     0
 49
3.174999999999999
 74
     0
 49
-3.174999999999999
 74
     0
 49
3.174999999999999
 74
     0
 49
-3.174999999999999
 74
     0
  0
LTYPE
  5
1E21
330
5
100
AcDbSymbolTableRecord
100
AcDbLinetypeTableRecord
  2
AM_ISO02W050
 70
     0
  3
__ __ __ __ __ __ __ __ __ __ __ __ __ __ __
 72
    65
 73
     2
 40
7.5
 49
6.0
 74
     0
 49
-1.5
 74
     0
  0
LTYPE
  5
1E22
330
5
100
AcDbSymbolTableRecord
100
AcDbLinetypeTableRecord
  2
AM_ISO08W050
 70
     0
  3
____ . ____ . ____ . ____ . ____ . ____ . ____
 72
    65
 73
     4
 40
18.0
 49
12.0
 74
     0
 49
-1.5
 74
     0
 49
3.0
 74
     0
 49
-1.5
 74
     0
  0
LTYPE
  5
1E23
330
5
100
AcDbSymbolTableRecord
100
AcDbLinetypeTableRecord
  2
AM_ISO09W050
 70
     0
  3
_____ . . _____ . . _____ . . ____ .. ____
 72
    65
 73
     6
 40
22.5
 49
12.0
 74
     0
 49
-1.5
 74
     0
 49
3.0
 74
     0
 49
-1.5
 74
     0
 49
3.0
 74
     0
 49
-1.5
 74
     0
  0
LTYPE
  5
1E24
330
5
100
AcDbSymbolTableRecord
100
AcDbLinetypeTableRecord
  2
Amconstr
 70
     0
  3
_______________________
 72
    65
 73
     2
 40
9999.0
 49
9999.0
 74
     0
 49
0.0
 74
     0
  0
LTYPE
  5
1E25
330
5
100
AcDbSymbolTableRecord
100
AcDbLinetypeTableRecord
  2
AM_ISO08W050x2
 70
     0
  3
__ . __ . __ . __ . __ . __
 72
    65
 73
     4
 40
9.0
 49
6.0
 74
     0
 49
-0.75
 74
     0
 49
1.5
 74
     0
 49
-0.75
 74
     0
  0
LTYPE
  5
1E26
330
5
100
AcDbSymbolTableRecord
100
AcDbLinetypeTableRecord
  2
AM_ISO02W050x2
 70
     0
  3
 _ _ _ _ _ _ _ _ _ _ _ _
 72
    65
 73
     2
 40
3.75
 49
3.0
 74
     0
 49
-0.75
 74
     0
  0
LTYPE
  5
1E29
330
5
100
AcDbSymbolTableRecord
100
AcDbLinetypeTableRecord
  2
Amzigzag
 70
     0
  3
/\/-/\/-/\/-/\/-/\/-/\/
 72
    65
 73
     2
 40
11.0001
 49
0.0001
 74
     4
 75
   136
340
1E28
 46
0.04
 50
0.0
 44
0.0
 45
0.0
 49
-11.0
 74
     0
  0
LTYPE
  5
1E2A
330
5
100
AcDbSymbolTableRecord
100
AcDbLinetypeTableRecord
  2
AM_DIN_F_W050
 70
     0
  3
__ __ __ __ __ __ __ __ __ __ __ __ __ __ __
 72
    65
 73
     2
 40
6.25
 49
4.75
 74
     0
 49
-1.5
 74
     0
  0
LTYPE
  5
1E2B
330
5
100
AcDbSymbolTableRecord
100
AcDbLinetypeTableRecord
  2
AM_DIN_G_W050
 70
     0
  3
____ . ____ . ____ . ____ . ____ . ____ . ____
 72
    65
 73
     4
 40
13.75
 49
9.75
 74
     0
 49
-1.5
 74
     0
 49
1.0
 74
     0
 49
-1.5
 74
     0
  0
LTYPE
  5
1E2C
330
5
100
AcDbSymbolTableRecord
100
AcDbLinetypeTableRecord
  2
AM_DIN_K_W050
 70
     0
  3
_____ . . _____ . . _____ . . ____ .. ____
 72
    65
 73
     6
 40
16.25
 49
9.75
 74
     0
 49
-1.5
 74
     0
 49
1.0
 74
     0
 49
-1.5
 74
     0
 49
1.0
 74
     0
 49
-1.5
 74
     0
  0
LTYPE
  5
1E2D
330
5
100
AcDbSymbolTableRecord
100
AcDbLinetypeTableRecord
  2
AM_DIN_G_W050x2
 70
     0
  3
__ . __ . __ . __ . __ . __
 72
    65
 73
     4
 40
6.875
 49
4.75
 74
     0
 49
-0.875
 74
     0
 49
0.375
 74
     0
 49
-0.875
 74
     0
  0
LTYPE
  5
1E2E
330
5
100
AcDbSymbolTableRecord
100
AcDbLinetypeTableRecord
  2
AM_DIN_F_W050x2
 70
     0
  3
 _ _ _ _ _ _ _ _ _ _ _ _
 72
    65
 73
     2
 40
3.125
 49
2.25
 74
     0
 49
-0.875
 74
     0
  0
LTYPE
  5
1E3D
330
5
100
AcDbSymbolTableRecord
100
AcDbLinetypeTableRecord
  2
ACDINWELD
 70
     0
  3
_ _ _ _ _
 72
    65
 73
     2
 40
2.0
 49
2.0
 74
     0
 49
-1.0
 74
     0
  0
LTYPE
  5
1E3E
330
5
100
AcDbSymbolTableRecord
100
AcDbLinetypeTableRecord
  2
ACDINTGL
 70
     0
  3
_ _ _ _ _
 72
    65
 73
     2
 40
3.0
 49
2.0
 74
     0
 49
-1.0
 74
     0
  0
LTYPE
  5
1E3F
330
5
100
AcDbSymbolTableRecord
100
AcDbLinetypeTableRecord
  2
ACDINTGB
 70
     0
  3
__ . . __ . .
 72
    65
 73
     6
 40
9.0
 49
4.0
 74
     0
 49
-1.0
 74
     0
 49
1.0
 74
     0
 49
-1.0
 74
     0
 49
1.0
 74
     0
 49
-1.0
 74
     0
  0
LTYPE
  5
1EB6
330
5
100
AcDbSymbolTableRecord
100
AcDbLinetypeTableRecord
  2
MITTE
 70
     0
  3
____ _ ____ _ ____ _ ____ _ ____ _ ____ _ ____ 
 72
    65
 73
     4
 40
2.0
 49
1.25
 74
     0
 49
-0.25
 74
     0
 49
0.25
 74
     0
 49
-0.25
 74
     0
  0
LTYPE
  5
1EB7
330
5
100
AcDbSymbolTableRecord
100
AcDbLinetypeTableRecord
  2
ACISOWELD
 70
     0
  3
_ _ _ _ _
 72
    65
 73
     2
 40
2.0
 49
2.0
 74
     0
 49
-1.0
 74
     0
  0
LTYPE
  5
1EB8
330
5
100
AcDbSymbolTableRecord
100
AcDbLinetypeTableRecord
  2
ACISOTGB
 70
     0
  3
__ . . __ . .
 72
    65
 73
     6
 40
9.0
 49
4.0
 74
     0
 49
-1.0
 74
     0
 49
1.0
 74
     0
 49
-1.0
 74
     0
 49
1.0
 74
     0
 49
-1.0
 74
     0
  0
LTYPE
  5
1EB9
330
5
100
AcDbSymbolTableRecord
100
AcDbLinetypeTableRecord
  2
ACISOTGL
 70
     0
  3
_ _ _ _ _
 72
    65
 73
     2
 40
3.0
 49
2.0
 74
     0
 49
-1.0
 74
     0
  0
ENDTAB
  0
TABLE
  2
LAYER
  5
2
102
{ACAD_XDICTIONARY
360
1ED1
102
}
330
0
100
AcDbSymbolTable
 70
    13
  0
LAYER
  5
54
330
2
100
AcDbSymbolTableRecord
100
AcDbLayerTableRecord
  2
0
 70
     0
 62
     7
  6
Continuous
370
    -3
390
F
  0
LAYER
  5
C3
330
2
100
AcDbSymbolTableRecord
100
AcDbLayerTableRecord
  2
Schraffur MD
 70
     0
 62
     7
  6
Continuous
370
    18
390
F
  0
LAYER
  5
B57
330
2
100
AcDbSymbolTableRecord
100
AcDbLayerTableRecord
  2
Defpoints
 70
     0
 62
     7
  6
Continuous
290
     0
370
    -3
390
F
  0
LAYER
  5
1EBA
102
{ACAD_XDICTIONARY
360
1EBB
102
}
330
2
100
AcDbSymbolTableRecord
100
AcDbLayerTableRecord
  2
MITTE
 70
     0
 62
     4
  6
MITTE
370
    -3
390
F
  0
LAYER
  5
1EBC
102
{ACAD_XDICTIONARY
360
1EBD
102
}
330
2
100
AcDbSymbolTableRecord
100
AcDbLayerTableRecord
  2
SCHRAFF
 70
     0
 62
     1
  6
Continuous
370
    -3
390
F
  0
LAYER
  5
1EBE
102
{ACAD_XDICTIONARY
360
1EBF
102
}
330
2
100
AcDbSymbolTableRecord
100
AcDbLayerTableRecord
  2
LINIE
 70
     0
 62
     4
  6
Continuous
370
    -3
390
F
  0
ENDTAB
  0
TABLE
  2
STYLE
  5
3
330
0
100
AcDbSymbolTable
 70
    21
  0
STYLE
  5
55
330
3
100
AcDbSymbolTableRecord
100
AcDbTextStyleTableRecord
  2
Standard
 70
     0
 40
0.0
 41
1.0
 50
0.0
 71
     0
 42
0.2
  3
isocpeur.ttf
  4

1001
ACAD
1000
ISOCPEUR
1071
      256
  0
STYLE
  5
1E28
330
3
100
AcDbSymbolTableRecord
100
AcDbTextStyleTableRecord
  2

 70
     1
 40
0.0
 41
1.0
 50
0.0
 71
     0
 42
0.2
  3
genltshp.shx
  4

  0
STYLE
  5
1E3C
330
3
100
AcDbSymbolTableRecord
100
AcDbTextStyleTableRecord
  2
ACDINGDT
 70
     0
 40
0.0
 41
1.0
 50
0.0
 71
     0
 42
0.2
  3
amgdt.shx
  4

  0
STYLE
  5
1EC0
330
3
100
AcDbSymbolTableRecord
100
AcDbTextStyleTableRecord
  2
ACISOTS
 70
     0
 40
1.0
 41
1.0
 50
0.0
 71
     0
 42
20.0
  3
isocp.shx
  4

  0
STYLE
  5
1EC1
330
3
100
AcDbSymbolTableRecord
100
AcDbTextStyleTableRecord
  2
ACISOGDT
 70
     0
 40
0.0
 41
1.0
 50
0.0
 71
     0
 42
20.0
  3
amgdt.shx
  4

  0
ENDTAB
  0
TABLE
  2
VIEW
  5
6
330
0
100
AcDbSymbolTable
 70
     0
  0
ENDTAB
  0
TABLE
  2
UCS
  5
7
330
0
100
AcDbSymbolTable
 70
     0
  0
ENDTAB
  0
TABLE
  2
APPID
  5
9
330
0
100
AcDbSymbolTable
 70
    26
  0
APPID
  5
56
330
9
100
AcDbSymbolTableRecord
100
AcDbRegAppTableRecord
  2
ACAD
 70
     0
  0
APPID
  5
5E
330
9
100
AcDbSymbolTableRecord
100
AcDbRegAppTableRecord
  2
AcadAnnotative
 70
     0
  0
APPID
  5
116
330
9
100
AcDbSymbolTableRecord
100
AcDbRegAppTableRecord
  2
AcadAnnoPO
 70
     0
  0
APPID
  5
F70
330
9
100
AcDbSymbolTableRecord
100
AcDbRegAppTableRecord
  2
ACAD_DSTYLE_DIMANGULAR_EXTENSION
 70
     0
  0
APPID
  5
1DE0
330
9
100
AcDbSymbolTableRecord
100
AcDbRegAppTableRecord
  2
MCAD_NO_VIS
 70
     0
  0
APPID
  5
1DE1
330
9
100
AcDbSymbolTableRecord
100
AcDbRegAppTableRecord
  2
ACAD_TEMP_GRAPHIC
 70
     0
  0
APPID
  5
1DEB
330
9
100
AcDbSymbolTableRecord
100
AcDbRegAppTableRecord
  2
ACATTRIBSERVICES
 70
     0
  0
APPID
  5
1E03
330
9
100
AcDbSymbolTableRecord
100
AcDbRegAppTableRecord
  2
DESIGNERASSEMBLIES
 70
     0
  0
APPID
  5
1E1E
330
9
100
AcDbSymbolTableRecord
100
AcDbRegAppTableRecord
  2
ACAD_DSTYLE_DIMJAG
 70
     0
  0
APPID
  5
1E1F
330
9
100
AcDbSymbolTableRecord
100
AcDbRegAppTableRecord
  2
ACAD_DSTYLE_DIMBREAK
 70
     0
  0
APPID
  5
1E46
330
9
100
AcDbSymbolTableRecord
100
AcDbRegAppTableRecord
  2
ACAD_NAV_VCDISPLAY
 70
     0
  0
APPID
  5
1ECA
330
9
100
AcDbSymbolTableRecord
100
AcDbRegAppTableRecord
  2
ACAD_PSEXT
 70
     0
  0
APPID
  5
1ECB
330
9
100
AcDbSymbolTableRecord
100
AcDbRegAppTableRecord
  2
ACAD_DSTYLE_DIMINSPECT
 70
     0
  0
APPID
  5
1ECC
330
9
100
AcDbSymbolTableRecord
100
AcDbRegAppTableRecord
  2
GENIUS_GENDTOL_13
 70
     0
  0
APPID
  5
1ECD
330
9
100
AcDbSymbolTableRecord
100
AcDbRegAppTableRecord
  2
AD_DRAW
 70
     0
  0
APPID
  5
1ECE
330
9
100
AcDbSymbolTableRecord
100
AcDbRegAppTableRecord
  2
ACADM_DIM_EDIT
 70
     0
  0
APPID
  5
1ECF
330
9
100
AcDbSymbolTableRecord
100
AcDbRegAppTableRecord
  2
AMDT_DM_ADJ
 70
     0
  0
APPID
  5
1ED0
330
9
100
AcDbSymbolTableRecord
100
AcDbRegAppTableRecord
  2
DCO15
 70
     0
  0
APPID
  5
20CD
330
9
100
AcDbSymbolTableRecord
100
AcDbRegAppTableRecord
  2
GradientColor1ACI
 70
     0
  0
APPID
  5
20CE
330
9
100
AcDbSymbolTableRecord
100
AcDbRegAppTableRecord
  2
GradientColor2ACI
 70
     0
  0
APPID
  5
2111
330
9
100
AcDbSymbolTableRecord
100
AcDbRegAppTableRecord
  2
ACAD_MLEADERVER
 70
     0
  0
APPID
  5
2112
330
9
100
AcDbSymbolTableRecord
100
AcDbRegAppTableRecord
  2
ACAD_DSTYLE_DIMJOGGED_JOGANGLE_SYMBOL
 70
     0
  0
APPID
  5
2113
330
9
100
AcDbSymbolTableRecord
100
AcDbRegAppTableRecord
  2
ACAD_DSTYLE_DIM_LINETYPE
 70
     0
  0
APPID
  5
2114
330
9
100
AcDbSymbolTableRecord
100
AcDbRegAppTableRecord
  2
ACAD_DSTYLE_DIM_EXT1_LINETYPE
 70
     0
  0
APPID
  5
2115
330
9
100
AcDbSymbolTableRecord
100
AcDbRegAppTableRecord
  2
ACAD_DSTYLE_DIM_EXT2_LINETYPE
 70
     0
  0
APPID
  5
2116
330
9
100
AcDbSymbolTableRecord
100
AcDbRegAppTableRecord
  2
ACAD_DSTYLE_DIMARC_LENGTH_SYMBOL
 70
     0
  0
ENDTAB
  0
TABLE
  2
DIMSTYLE
  5
A
330
0
100
AcDbSymbolTable
 70
    34
100
AcDbDimStyleTable
 71
     1
340
58
  0
DIMSTYLE
105
58
330
A
100
AcDbSymbolTableRecord
100
AcDbDimStyleTableRecord
  2
Standard
 70
     0
340
55
  0
DIMSTYLE
105
1E1D
102
{ACAD_REACTORS
330
1E0C
102
}
330
A
100
AcDbSymbolTableRecord
100
AcDbDimStyleTableRecord
  2
AM_DIN
 70
     0
  4
"
 41
3.5
 42
1.0
 43
10.0
 44
1.0
 47
0.1
 48
0.1
 73
     0
 74
     0
 77
     1
 78
     8
 79
     2
140
3.5
141
0.0
143
0.0393701
146
0.71
147
1.5
172
     1
176
   256
177
   256
178
     2
271
     2
272
     3
274
     4
283
     0
284
     8
340
55
371
    -1
372
    -1
1001
ACAD_DSTYLE_DIMJAG
1070
   388
1040
1.5
1001
ACAD_DSTYLE_DIMBREAK
1070
   391
1040
3.75
1001
ACAD_DSTYLE_DIMJOGGED_JOGANGLE_SYMBOL
1070
   384
1040
1.570796326794896
1001
ACAD_DSTYLE_DIM_LINETYPE
1070
   380
1005
5B
1001
ACAD_DSTYLE_DIM_EXT1_LINETYPE
1070
   381
1005
5B
1001
ACAD_DSTYLE_DIM_EXT2_LINETYPE
1070
   382
1005
5B
  0
DIMSTYLE
105
1E2F
330
A
100
AcDbSymbolTableRecord
100
AcDbDimStyleTableRecord
  2
AM_DIN$3
 70
     0
  4
"
 41
3.5
 42
1.0
 43
10.0
 44
1.0
 47
0.1
 48
0.1
 73
     0
 77
     1
 78
     8
 79
     2
140
3.5
141
0.0
143
0.0393701
146
0.71
147
1.5
176
   256
177
   256
178
     2
271
     2
272
     3
274
     4
283
     0
284
     8
288
     1
289
     0
340
55
371
    -1
372
    -1
1001
ACAD_DSTYLE_DIMBREAK
1070
   391
1040
3.75
1001
ACAD_DSTYLE_DIMJAG
1070
   388
1040
1.5
1001
ACAD_DSTYLE_DIMJOGGED_JOGANGLE_SYMBOL
1070
   384
1040
1.570796326794896
1001
ACAD_DSTYLE_DIM_LINETYPE
1070
   380
1005
5B
1001
ACAD_DSTYLE_DIM_EXT1_LINETYPE
1070
   381
1005
5B
1001
ACAD_DSTYLE_DIM_EXT2_LINETYPE
1070
   382
1005
5B
  0
DIMSTYLE
105
1E30
330
A
100
AcDbSymbolTableRecord
100
AcDbDimStyleTableRecord
  2
AM_DIN$4
 70
     0
  4
"
 41
3.5
 42
1.0
 43
10.0
 44
1.0
 47
0.1
 48
0.1
 73
     0
 77
     1
 78
     8
 79
     2
140
3.5
141
0.0
143
0.0393701
146
0.71
147
1.5
176
   256
177
   256
178
     2
271
     2
272
     3
274
     4
283
     0
284
     8
288
     1
289
     0
340
55
371
    -1
372
    -1
1001
ACAD_DSTYLE_DIMBREAK
1070
   391
1040
3.75
1001
ACAD_DSTYLE_DIMJAG
1070
   388
1040
1.5
1001
ACAD_DSTYLE_DIMJOGGED_JOGANGLE_SYMBOL
1070
   384
1040
1.570796326794896
1001
ACAD_DSTYLE_DIM_LINETYPE
1070
   380
1005
5B
1001
ACAD_DSTYLE_DIM_EXT1_LINETYPE
1070
   381
1005
5B
1001
ACAD_DSTYLE_DIM_EXT2_LINETYPE
1070
   382
1005
5B
  0
DIMSTYLE
105
1E31
330
A
100
AcDbSymbolTableRecord
100
AcDbDimStyleTableRecord
  2
AM_DIN$6
 70
     0
  4
"
 41
3.5
 42
1.0
 43
10.0
 44
1.0
 47
0.1
 48
0.1
 73
     0
 74
     0
 78
     8
 79
     2
140
3.5
141
0.0
143
0.0393701
146
0.71
147
1.5
172
     1
176
   256
177
   256
178
     2
271
     2
272
     3
274
     4
283
     0
284
     8
340
55
371
    -1
372
    -1
1001
ACAD_DSTYLE_DIMBREAK
1070
   391
1040
3.75
1001
ACAD_DSTYLE_DIMJAG
1070
   388
1040
1.5
1001
ACAD_DSTYLE_DIMJOGGED_JOGANGLE_SYMBOL
1070
   384
1040
1.570796326794896
1001
ACAD_DSTYLE_DIM_LINETYPE
1070
   380
1005
5B
1001
ACAD_DSTYLE_DIM_EXT1_LINETYPE
1070
   381
1005
5B
1001
ACAD_DSTYLE_DIM_EXT2_LINETYPE
1070
   382
1005
5B
  0
DIMSTYLE
105
1E32
330
A
100
AcDbSymbolTableRecord
100
AcDbDimStyleTableRecord
  2
AM_DIN$7
 70
     0
  4
"
 41
3.5
 42
1.0
 43
10.0
 44
1.0
 47
0.1
 48
0.1
 73
     0
 74
     0
 77
     1
 78
     8
 79
     2
140
3.5
141
0.0
143
0.0393701
146
0.71
147
1.5
172
     1
176
   256
177
   256
178
     2
271
     2
272
     3
274
     4
283
     0
284
     8
340
55
371
    -1
372
    -1
1001
ACAD_DSTYLE_DIMBREAK
1070
   391
1040
3.75
1001
ACAD_DSTYLE_DIMJAG
1070
   388
1040
1.5
1001
ACAD_DSTYLE_DIMJOGGED_JOGANGLE_SYMBOL
1070
   384
1040
1.570796326794896
1001
ACAD_DSTYLE_DIM_LINETYPE
1070
   380
1005
5B
1001
ACAD_DSTYLE_DIM_EXT1_LINETYPE
1070
   381
1005
5B
1001
ACAD_DSTYLE_DIM_EXT2_LINETYPE
1070
   382
1005
5B
  0
DIMSTYLE
105
1E33
330
A
100
AcDbSymbolTableRecord
100
AcDbDimStyleTableRecord
  2
AM_DIN$SF
 70
     0
  4
"
 41
3.5
 42
1.0
 43
10.0
 44
1.0
 47
0.1
 48
0.1
 73
     0
 74
     0
 75
     1
 76
     1
 77
     1
 78
     8
 79
     2
140
3.5
141
0.0
143
0.0393701
146
0.71
147
1.5
172
     1
176
   256
177
   256
178
     2
271
     2
272
     3
274
     4
283
     0
284
     8
340
55
371
    -1
372
    -1
1001
ACAD_DSTYLE_DIMBREAK
1070
   391
1040
3.75
1001
ACAD_DSTYLE_DIMJAG
1070
   388
1040
1.5
1001
ACAD_DSTYLE_DIMJOGGED_JOGANGLE_SYMBOL
1070
   384
1040
1.570796326794896
1001
ACAD_DSTYLE_DIM_LINETYPE
1070
   380
1005
5B
1001
ACAD_DSTYLE_DIM_EXT1_LINETYPE
1070
   381
1005
5B
1001
ACAD_DSTYLE_DIM_EXT2_LINETYPE
1070
   382
1005
5B
  0
DIMSTYLE
105
1E38
330
A
100
AcDbSymbolTableRecord
100
AcDbDimStyleTableRecord
  2
AM_DIN$SH
 70
     0
  4
"
 41
3.5
 42
1.0
 43
10.0
 44
1.0
 47
0.1
 48
0.1
 73
     0
 74
     0
 75
     1
 76
     1
 77
     1
 78
     8
 79
     2
140
3.5
141
0.0
143
0.0393701
144
2.0
146
0.71
147
1.5
172
     1
173
     1
176
   256
177
   256
178
     2
271
     2
272
     3
274
     4
283
     0
284
     8
340
55
343
1E34
371
    -1
372
    -1
1001
ACAD_DSTYLE_DIMBREAK
1070
   391
1040
3.75
1001
ACAD_DSTYLE_DIMJAG
1070
   388
1040
1.5
1001
ACAD_DSTYLE_DIMJOGGED_JOGANGLE_SYMBOL
1070
   384
1040
1.570796326794896
1001
ACAD_DSTYLE_DIM_LINETYPE
1070
   380
1005
5B
1001
ACAD_DSTYLE_DIM_EXT1_LINETYPE
1070
   381
1005
5B
1001
ACAD_DSTYLE_DIM_EXT2_LINETYPE
1070
   382
1005
5B
  0
DIMSTYLE
105
1EC3
330
A
100
AcDbSymbolTableRecord
100
AcDbDimStyleTableRecord
  2
AM_ISO
 70
     0
  4
"
 41
2.5
 42
1.0
 43
10.0
 44
1.0
 47
0.1
 48
0.1
 73
     0
 74
     0
 77
     1
 78
     8
 79
     2
140
3.5
141
0.0
143
0.0393701
146
0.71
147
1.5
172
     1
176
   256
177
   256
178
     2
271
     2
272
     3
274
     4
283
     0
284
     8
340
55
371
    -1
372
    -1
1001
ACAD_DSTYLE_DIMARC_LENGTH_SYMBOL
1070
   379
1070
     1
  0
DIMSTYLE
105
1EC4
330
A
100
AcDbSymbolTableRecord
100
AcDbDimStyleTableRecord
  2
AM_ISO$3
 70
     0
  4
"
 41
2.5
 42
1.0
 43
10.0
 44
1.0
 47
0.1
 48
0.1
 73
     0
 77
     1
 78
     8
 79
     2
140
3.5
141
0.0
143
0.0393701
146
0.71
147
1.5
176
   256
177
   256
178
     2
271
     2
272
     3
274
     4
283
     0
284
     8
288
     1
289
     0
340
55
371
    -1
372
    -1
1001
ACAD_DSTYLE_DIMARC_LENGTH_SYMBOL
1070
   379
1070
     1
  0
DIMSTYLE
105
1EC5
330
A
100
AcDbSymbolTableRecord
100
AcDbDimStyleTableRecord
  2
AM_ISO$4
 70
     0
  4
"
 41
2.5
 42
1.0
 43
10.0
 44
1.0
 47
0.1
 48
0.1
 73
     0
 77
     1
 78
     8
 79
     2
140
3.5
141
0.0
143
0.0393701
146
0.71
147
1.5
176
   256
177
   256
178
     2
271
     2
272
     3
274
     4
283
     0
284
     8
288
     1
289
     0
340
55
371
    -1
372
    -1
1001
ACAD_DSTYLE_DIMARC_LENGTH_SYMBOL
1070
   379
1070
     1
  0
DIMSTYLE
105
1EC6
330
A
100
AcDbSymbolTableRecord
100
AcDbDimStyleTableRecord
  2
AM_ISO$6
 70
     0
  4
"
 41
2.5
 42
1.0
 43
10.0
 44
1.0
 47
0.1
 48
0.1
 73
     0
 74
     0
 78
     8
 79
     2
140
3.5
141
0.0
143
0.0393701
146
0.71
147
1.5
172
     1
176
   256
177
   256
178
     2
271
     2
272
     3
274
     4
283
     0
284
     8
340
55
371
    -1
372
    -1
1001
ACAD_DSTYLE_DIMARC_LENGTH_SYMBOL
1070
   379
1070
     1
  0
DIMSTYLE
105
1EC7
330
A
100
AcDbSymbolTableRecord
100
AcDbDimStyleTableRecord
  2
AM_ISO$7
 70
     0
  4
"
 41
2.5
 42
1.0
 43
10.0
 44
1.0
 47
0.1
 48
0.1
 73
     0
 74
     0
 77
     1
 78
     8
 79
     2
140
5.0
141
0.0
143
0.0393701
146
0.71
147
1.5
172
     1
176
   256
177
   256
178
     2
271
     2
272
     3
274
     4
283
     0
284
     8
340
55
371
    -1
372
    -1
1001
ACAD_DSTYLE_DIMARC_LENGTH_SYMBOL
1070
   379
1070
     1
  0
DIMSTYLE
105
1EC8
330
A
100
AcDbSymbolTableRecord
100
AcDbDimStyleTableRecord
  2
AM_ISO$SF
 70
     0
  4
"
 41
2.5
 42
1.0
 43
10.0
 44
1.0
 47
0.1
 48
0.1
 73
     0
 74
     0
 75
     1
 76
     1
 77
     1
 78
     8
 79
     2
140
3.5
141
0.0
143
0.0393701
146
0.71
147
1.5
172
     1
176
   256
177
   256
178
     2
271
     2
272
     3
274
     4
283
     0
284
     8
340
55
371
    -1
372
    -1
1001
ACAD_DSTYLE_DIMARC_LENGTH_SYMBOL
1070
   379
1070
     1
  0
DIMSTYLE
105
1EC9
330
A
100
AcDbSymbolTableRecord
100
AcDbDimStyleTableRecord
  2
AM_ISO$SH
 70
     0
  4
"
 41
2.5
 42
1.0
 43
10.0
 44
1.0
 47
0.1
 48
0.1
 73
     0
 74
     0
 75
     1
 76
     1
 77
     1
 78
     8
 79
     2
140
3.5
141
0.0
143
0.0393701
144
2.0
146
0.71
147
1.5
172
     1
173
     1
176
   256
177
   256
178
     2
271
     2
272
     3
274
     4
283
     0
284
     8
340
55
343
1E34
371
    -1
372
    -1
1001
ACAD_DSTYLE_DIMARC_LENGTH_SYMBOL
1070
   379
1070
     1
  0
ENDTAB
  0
TABLE
  2
BLOCK_RECORD
  5
1
330
0
100
AcDbSymbolTable
 70
    60
  0
BLOCK_RECORD
  5
6C
102
{ACAD_XDICTIONARY
360
201C
102
}
330
1
100
AcDbSymbolTableRecord
100
AcDbBlockTableRecord
  2
*Model_Space
340
6F
  0
BLOCK_RECORD
  5
68
330
1
100
AcDbSymbolTableRecord
100
AcDbBlockTableRecord
  2
*Paper_Space
340
6B
  0
BLOCK_RECORD
  5
70
330
1
100
AcDbSymbolTableRecord
100
AcDbBlockTableRecord
  2
*Paper_Space0
340
73
  0
BLOCK_RECORD
  5
1E34
330
1
100
AcDbSymbolTableRecord
100
AcDbBlockTableRecord
  2
GENAXEH
340
0
  0
ENDTAB
  0
ENDSEC
  0
SECTION
  2
BLOCKS
  0
BLOCK
  5
6D
330
6C
100
AcDbEntity
  8
0
100
AcDbBlockBegin
  2
*Model_Space
 70
     0
 10
0.0
 20
0.0
 30
0.0
  3
*Model_Space
  1

  0
ENDBLK
  5
6E
330
6C
100
AcDbEntity
  8
0
100
AcDbBlockEnd
  0
BLOCK
  5
69
330
68
100
AcDbEntity
 67
     1
  8
0
100
AcDbBlockBegin
  2
*Paper_Space
 70
     0
 10
0.0
 20
0.0
 30
0.0
  3
*Paper_Space
  1

  0
ENDBLK
  5
6A
330
68
100
AcDbEntity
 67
     1
  8
0
100
AcDbBlockEnd
  0
BLOCK
  5
71
330
70
100
AcDbEntity
 67
     1
  8
0
100
AcDbBlockBegin
  2
*Paper_Space0
 70
     0
 10
0.0
 20
0.0
 30
0.0
  3
*Paper_Space0
  1

  0
ENDBLK
  5
72
330
70
100
AcDbEntity
 67
     1
  8
0
100
AcDbBlockEnd
  0
BLOCK
  5
1E36
330
1E34
100
AcDbEntity
  8
0
100
AcDbBlockBegin
  2
GENAXEH
 70
     0
 10
0.0
 20
0.0
 30
0.0
  3
GENAXEH
  1

  0
LINE
  5
1E35
330
1E34
100
AcDbEntity
  8
0
100
AcDbLine
 10
-1.0
 20
0.0
 30
0.0
 11
1.0
 21
0.0
 31
0.0
  0
ENDBLK
  5
1E37
330
1E34
100
AcDbEntity
  8
0
100
AcDbBlockEnd
  0
ENDSEC
  0
SECTION
  2
ENTITIES
  0
LINE
  5
2E4
102
{ACAD_REACTORS
330
20CF
102
}
330
6C
100
AcDbEntity
  8
0
100
AcDbLine
 10
274.7582774243558
 20
209.6573459838218
 30
0.0
 11
274.2168632647708
 21
208.7195891514835
 31
0.0
  0
LINE
  5
2E5
102
{ACAD_REACTORS
330
20CF
102
}
330
6C
100
AcDbEntity
  8
0
100
AcDbLine
 10
276.7582774243558
 20
209.6573459838218
 30
0.0
 11
274.7582774243558
 21
209.6573459838218
 31
0.0
  0
LINE
  5
2E6
102
{ACAD_REACTORS
330
20CF
102
}
330
6C
100
AcDbEntity
  8
0
100
AcDbLine
 10
276.7582774243558
 20
211.1573459838218
 30
0.0
 11
276.7582774243558
 21
209.6573459838218
 31
0.0
  0
LINE
  5
2E7
102
{ACAD_REACTORS
330
20CF
102
}
330
6C
100
AcDbEntity
  8
0
100
AcDbLine
 10
286.7582774243558
 20
211.1573459838218
 30
0.0
 11
276.7582774243558
 21
211.1573459838218
 31
0.0
  0
LINE
  5
2E8
102
{ACAD_REACTORS
330
20CF
102
}
330
6C
100
AcDbEntity
  8
0
100
AcDbLine
 10
286.7582774243558
 20
213.0788459838218
 30
0.0
 11
286.7582774243558
 21
211.1573459838218
 31
0.0
  0
LINE
  5
2E9
102
{ACAD_REACTORS
330
20CF
102
}
330
6C
100
AcDbEntity
  8
0
100
AcDbLine
 10
285.9022774243558
 20
213.9348459838218
 30
0.0
 11
286.7582774243558
 21
213.0788459838218
 31
0.0
  0
LINE
  5
2EA
102
{ACAD_REACTORS
330
20CF
102
}
330
6C
100
AcDbEntity
  8
0
100
AcDbLine
 10
271.7651609927535
 20
213.9348459838219
 30
0.0
 11
285.9022774243558
 21
213.9348459838218
 31
0.0
  0
LINE
  5
2EB
102
{ACAD_REACTORS
330
20CF
102
}
330
6C
100
AcDbEntity
  8
0
100
AcDbLine
 10
274.2167225610748
 20
230.5953465221106
 30
0.0
 11
274.7582774243558
 21
229.6573459838219
 31
0.0
  0
LINE
  5
2EC
102
{ACAD_REACTORS
330
20CF
102
}
330
6C
100
AcDbEntity
  8
0
100
AcDbLine
 10
285.9022774243558
 20
225.3798459838218
 30
0.0
 11
271.7650232962949
 21
225.3798459838218
 31
0.0
  0
LINE
  5
2ED
102
{ACAD_REACTORS
330
20CF
102
}
330
6C
100
AcDbEntity
  8
0
100
AcDbLine
 10
286.7582774243558
 20
226.2358459838218
 30
0.0
 11
285.9022774243558
 21
225.3798459838218
 31
0.0
  0
LINE
  5
2EE
102
{ACAD_REACTORS
330
20CF
102
}
330
6C
100
AcDbEntity
  8
0
100
AcDbLine
 10
286.7582774243558
 20
228.1573459838218
 30
0.0
 11
286.7582774243558
 21
226.2358459838218
 31
0.0
  0
LINE
  5
2EF
102
{ACAD_REACTORS
330
20CF
102
}
330
6C
100
AcDbEntity
  8
0
100
AcDbLine
 10
276.7582774243558
 20
228.1573459838219
 30
0.0
 11
286.7582774243558
 21
228.1573459838218
 31
0.0
  0
LINE
  5
2F0
102
{ACAD_REACTORS
330
20CF
102
}
330
6C
100
AcDbEntity
  8
0
100
AcDbLine
 10
276.7582774243558
 20
229.6573459838219
 30
0.0
 11
276.7582774243558
 21
228.1573459838219
 31
0.0
  0
LINE
  5
2F1
102
{ACAD_REACTORS
330
20CF
102
}
330
6C
100
AcDbEntity
  8
0
100
AcDbLine
 10
274.7582774243558
 20
229.6573459838219
 30
0.0
 11
276.7582774243558
 21
229.6573459838219
 31
0.0
  0
POLYLINE
  5
2F2
102
{ACAD_REACTORS
330
20CF
102
}
330
6C
100
AcDbEntity
  8
LINIE
100
AcDb2dPolyline
 66
     1
 10
0.0
 20
0.0
 30
0.0
 70
   128
  0
VERTEX
  5
2F3
330
2F2
100
AcDbEntity
  8
LINIE
100
AcDbVertex
100
AcDb2dVertex
 10
274.216722973367
 20
230.595346662838
 30
0.0
  0
VERTEX
  5
2F4
330
2F2
100
AcDbEntity
  8
LINIE
100
AcDbVertex
100
AcDb2dVertex
 10
274.2132086835111
 20
230.5901825164146
 30
0.0
  0
VERTEX
  5
2F6
330
2F2
100
AcDbEntity
  8
LINIE
100
AcDbVertex
100
AcDb2dVertex
 10
274.2026896558011
 20
230.574582788784
 30
0.0
  0
VERTEX
  5
2F7
330
2F2
100
AcDbEntity
  8
LINIE
100
AcDbVertex
100
AcDb2dVertex
 10
274.1852040372098
 20
230.5483913157768
 30
0.0
  0
VERTEX
  5
2F8
330
2F2
100
AcDbEntity
  8
LINIE
100
AcDbVertex
100
AcDb2dVertex
 10
274.1607899747098
 20
230.5114495490379
 30
0.0
  0
VERTEX
  5
2F9
330
2F2
100
AcDbEntity
  8
LINIE
100
AcDbVertex
100
AcDb2dVertex
 10
274.1294856152738
 20
230.4636001323051
 30
0.0
  0
VERTEX
  5
2FA
330
2F2
100
AcDbEntity
  8
LINIE
100
AcDbVertex
100
AcDb2dVertex
 10
274.0913291058744
 20
230.4046833251304
 30
0.0
  0
VERTEX
  5
2FB
330
2F2
100
AcDbEntity
  8
LINIE
100
AcDbVertex
100
AcDb2dVertex
 10
274.04636097767
 20
230.3345429633445
 30
0.0
  0
VERTEX
  5
2FC
330
2F2
100
AcDbEntity
  8
LINIE
100
AcDbVertex
100
AcDb2dVertex
 10
273.9946146092618
 20
230.2530204985924
 30
0.0
  0
VERTEX
  5
2FD
330
2F2
100
AcDbEntity
  8
LINIE
100
AcDbVertex
100
AcDb2dVertex
 10
273.936132915994
 20
230.1599573825187
 30
0.0
  0
VERTEX
  5
2FE
330
2F2
100
AcDbEntity
  8
LINIE
100
AcDbVertex
100
AcDb2dVertex
 10
273.8710541806424
 20
230.0552451346702
 30
0.0
  0
VERTEX
  5
2FF
330
2F2
100
AcDbEntity
  8
LINIE
100
AcDbVertex
100
AcDb2dVertex
 10
273.8000173649991
 20
229.9392032359428
 30
0.0
  0
VERTEX
  5
300
330
2F2
100
AcDbEntity
  8
LINIE
100
AcDbVertex
100
AcDb2dVertex
 10
273.7236328206265
 20
229.8123657439537
 30
0.0
  0
VERTEX
  5
301
330
2F2
100
AcDbEntity
  8
LINIE
100
AcDbVertex
100
AcDb2dVertex
 10
273.6424989781583
 20
229.6752655242271
 30
0.0
  0
VERTEX
  5
302
330
2F2
100
AcDbEntity
  8
LINIE
100
AcDbVertex
100
AcDb2dVertex
 10
273.5572071156705
 20
229.5284372304267
 30
0.0
  0
VERTEX
  5
303
330
2F2
100
AcDbEntity
  8
LINIE
100
AcDbVertex
100
AcDb2dVertex
 10
273.4683604321683
 20
229.3724161122627
 30
0.0
  0
VERTEX
  5
304
330
2F2
100
AcDbEntity
  8
LINIE
100
AcDbVertex
100
AcDb2dVertex
 10
273.3765502057279
 20
229.2077350352592
 30
0.0
  0
VERTEX
  5
305
330
2F2
100
AcDbEntity
  8
LINIE
100
AcDbVertex
100
AcDb2dVertex
 10
273.2823748669828
 20
229.0349286530799
 30
0.0
  0
VERTEX
  5
306
330
2F2
100
AcDbEntity
  8
LINIE
100
AcDbVertex
100
AcDb2dVertex
 10
273.1864304623807
 20
228.8545316193886
 30
0.0
  0
VERTEX
  5
307
330
2F2
100
AcDbEntity
  8
LINIE
100
AcDbVertex
100
AcDb2dVertex
 10
273.0890388570035
 20
228.6665600274391
 30
0.0
  0
VERTEX
  5
308
330
2F2
100
AcDbEntity
  8
LINIE
100
AcDbVertex
100
AcDb2dVertex
 10
272.9874510846341
 20
228.4650295708961
 30
0.0
  0
VERTEX
  5
309
330
2F2
100
AcDbEntity
  8
LINIE
100
AcDbVertex
100
AcDb2dVertex
 10
272.8814120373929
 20
228.2483398650474
 30
0.0
  0
VERTEX
  5
30A
330
2F2
100
AcDbEntity
  8
LINIE
100
AcDbVertex
100
AcDb2dVertex
 10
272.7716989598477
 20
228.0168062184639
 30
0.0
  0
VERTEX
  5
30B
330
2F2
100
AcDbEntity
  8
LINIE
100
AcDbVertex
100
AcDb2dVertex
 10
272.6590890965665
 20
227.7707445357628
 30
0.0
  0
VERTEX
  5
30C
330
2F2
100
AcDbEntity
  8
LINIE
100
AcDbVertex
100
AcDb2dVertex
 10
272.5443573079313
 20
227.5104707215614
 30
0.0
  0
VERTEX
  5
30D
330
2F2
100
AcDbEntity
  8
LINIE
100
AcDbVertex
100
AcDb2dVertex
 10
272.4282832226957
 20
227.2363000844307
 30
0.0
  0
VERTEX
  5
30E
330
2F2
100
AcDbEntity
  8
LINIE
100
AcDbVertex
100
AcDb2dVertex
 10
272.3116917691434
 20
226.948541972477
 30
0.0
  0
VERTEX
  5
30F
330
2F2
100
AcDbEntity
  8
LINIE
100
AcDbVertex
100
AcDb2dVertex
 10
272.1955890736783
 20
226.6479038928337
 30
0.0
  0
VERTEX
  5
310
330
2F2
100
AcDbEntity
  8
LINIE
100
AcDbVertex
100
AcDb2dVertex
 10
272.0808525166715
 20
226.335610720951
 30
0.0
  0
VERTEX
  5
311
330
2F2
100
AcDbEntity
  8
LINIE
100
AcDbVertex
100
AcDb2dVertex
 10
271.9683547101224
 20
226.012907001812
 30
0.0
  0
VERTEX
  5
312
330
2F2
100
AcDbEntity
  8
LINIE
100
AcDbVertex
100
AcDb2dVertex
 10
271.8589611134732
 20
225.6810384724922
 30
0.0
  0
VERTEX
  5
313
330
2F2
100
AcDbEntity
  8
LINIE
100
AcDbVertex
100
AcDb2dVertex
 10
271.7535443387235
 20
225.341251466114
 30
0.0
  0
VERTEX
  5
314
330
2F2
100
AcDbEntity
  8
LINIE
100
AcDbVertex
100
AcDb2dVertex
 10
271.6529722295011
 20
224.9947905276604
 30
0.0
  0
VERTEX
  5
315
330
2F2
100
AcDbEntity
  8
LINIE
100
AcDbVertex
100
AcDb2dVertex
 10
271.5558381161893
 20
224.6344515417404
 30
0.0
  0
VERTEX
  5
316
330
2F2
100
AcDbEntity
  8
LINIE
100
AcDbVertex
100
AcDb2dVertex
 10
271.4606328091825
 20
224.251534912426
 30
0.0
  0
VERTEX
  5
317
330
2F2
100
AcDbEntity
  8
LINIE
100
AcDbVertex
100
AcDb2dVertex
 10
271.3688869557584
 20
223.8479670618362
 30
0.0
  0
VERTEX
  5
318
330
2F2
100
AcDbEntity
  8
LINIE
100
AcDbVertex
100
AcDb2dVertex
 10
271.2821288190091
 20
223.4257009361572
 30
0.0
  0
VERTEX
  5
319
330
2F2
100
AcDbEntity
  8
LINIE
100
AcDbVertex
100
AcDb2dVertex
 10
271.2018961987699
 20
222.9866900776214
 30
0.0
  0
VERTEX
  5
31A
330
2F2
100
AcDbEntity
  8
LINIE
100
AcDbVertex
100
AcDb2dVertex
 10
271.1297197423184
 20
222.5328883264847
 30
0.0
  0
VERTEX
  5
31B
330
2F2
100
AcDbEntity
  8
LINIE
100
AcDbVertex
100
AcDb2dVertex
 10
271.0671849332059
 20
222.0662791763134
 30
0.0
  0
VERTEX
  5
31C
330
2F2
100
AcDbEntity
  8
LINIE
100
AcDbVertex
100
AcDb2dVertex
 10
271.0151453099454
 20
221.589885625679
 30
0.0
  0
VERTEX
  5
31D
330
2F2
100
AcDbEntity
  8
LINIE
100
AcDbVertex
100
AcDb2dVertex
 10
270.9739918790067
 20
221.1072572801895
 30
0.0
  0
VERTEX
  5
31E
330
2F2
100
AcDbEntity
  8
LINIE
100
AcDbVertex
100
AcDb2dVertex
 10
270.9441108784879
 20
220.6219440434761
 30
0.0
  0
VERTEX
  5
31F
330
2F2
100
AcDbEntity
  8
LINIE
100
AcDbVertex
100
AcDb2dVertex
 10
270.9258980832303
 20
220.1374957074113
 30
0.0
  0
VERTEX
  5
320
330
2F2
100
AcDbEntity
  8
LINIE
100
AcDbVertex
100
AcDb2dVertex
 10
270.9197421155179
 20
219.6574621009749
 30
0.0
  0
VERTEX
  5
321
330
2F2
100
AcDbEntity
  8
LINIE
100
AcDbVertex
100
AcDb2dVertex
 10
270.9259028516019
 20
219.1774323318786
 30
0.0
  0
VERTEX
  5
322
330
2F2
100
AcDbEntity
  8
LINIE
100
AcDbVertex
100
AcDb2dVertex
 10
270.9441227994168
 20
218.6929876093454
 30
0.0
  0
VERTEX
  5
323
330
2F2
100
AcDbEntity
  8
LINIE
100
AcDbVertex
100
AcDb2dVertex
 10
270.9740061841214
 20
218.2076775763817
 30
0.0
  0
VERTEX
  5
324
330
2F2
100
AcDbEntity
  8
LINIE
100
AcDbVertex
100
AcDb2dVertex
 10
271.0151667676175
 20
217.7250520621128
 30
0.0
  0
VERTEX
  5
325
330
2F2
100
AcDbEntity
  8
LINIE
100
AcDbVertex
100
AcDb2dVertex
 10
271.0672111592496
 20
217.2486604486294
 30
0.0
  0
VERTEX
  5
326
330
2F2
100
AcDbEntity
  8
LINIE
100
AcDbVertex
100
AcDb2dVertex
 10
271.129748352548
 20
216.7820521925277
 30
0.0
  0
VERTEX
  5
327
330
2F2
100
AcDbEntity
  8
LINIE
100
AcDbVertex
100
AcDb2dVertex
 10
271.201929577371
 20
216.3282510374374
 30
0.0
  0
VERTEX
  5
328
330
2F2
100
AcDbEntity
  8
LINIE
100
AcDbVertex
100
AcDb2dVertex
 10
271.2821693501676
 20
215.8892404769249
 30
0.0
  0
VERTEX
  5
329
330
2F2
100
AcDbEntity
  8
LINIE
100
AcDbVertex
100
AcDb2dVertex
 10
271.3689322552884
 20
215.4669737551994
 30
0.0
  0
VERTEX
  5
32A
330
2F2
100
AcDbEntity
  8
LINIE
100
AcDbVertex
100
AcDb2dVertex
 10
271.4606828770841
 20
215.0634041164703
 30
0.0
  0
VERTEX
  5
32B
330
2F2
100
AcDbEntity
  8
LINIE
100
AcDbVertex
100
AcDb2dVertex
 10
271.5558929524625
 20
214.6804851029701
 30
0.0
  0
VERTEX
  5
32C
330
2F2
100
AcDbEntity
  8
LINIE
100
AcDbVertex
100
AcDb2dVertex
 10
271.6530318341459
 20
214.3201428387947
 30
0.0
  0
VERTEX
  5
32D
330
2F2
100
AcDbEntity
  8
LINIE
100
AcDbVertex
100
AcDb2dVertex
 10
271.7536063275541
 20
213.9736866687126
 30
0.0
  0
VERTEX
  5
32E
330
2F2
100
AcDbEntity
  8
LINIE
100
AcDbVertex
100
AcDb2dVertex
 10
271.8590278706754
 20
213.6339032386131
 30
0.0
  0
VERTEX
  5
32F
330
2F2
100
AcDbEntity
  8
LINIE
100
AcDbVertex
100
AcDb2dVertex
 10
271.9684214673246
 20
213.3020376895256
 30
0.0
  0
VERTEX
  5
330
330
2F2
100
AcDbEntity
  8
LINIE
100
AcDbVertex
100
AcDb2dVertex
 10
272.0809240422452
 20
212.9793363545723
 30
0.0
  0
VERTEX
  5
331
330
2F2
100
AcDbEntity
  8
LINIE
100
AcDbVertex
100
AcDb2dVertex
 10
272.1956629834378
 20
212.6670443747825
 30
0.0
  0
VERTEX
  5
332
330
2F2
100
AcDbEntity
  8
LINIE
100
AcDbVertex
100
AcDb2dVertex
 10
272.3117704472745
 20
212.3664068911857
 30
0.0
  0
VERTEX
  5
333
330
2F2
100
AcDbEntity
  8
LINIE
100
AcDbVertex
100
AcDb2dVertex
 10
272.4283642850125
 20
212.0786481831856
 30
0.0
  0
VERTEX
  5
334
330
2F2
100
AcDbEntity
  8
LINIE
100
AcDbVertex
100
AcDb2dVertex
 10
272.5444431386197
 20
211.8044775460548
 30
0.0
  0
VERTEX
  5
335
330
2F2
100
AcDbEntity
  8
LINIE
100
AcDbVertex
100
AcDb2dVertex
 10
272.6591796956266
 20
211.5442025397606
 30
0.0
  0
VERTEX
  5
336
330
2F2
100
AcDbEntity
  8
LINIE
100
AcDbVertex
100
AcDb2dVertex
 10
272.7717943272794
 20
211.2981396649665
 30
0.0
  0
VERTEX
  5
337
330
2F2
100
AcDbEntity
  8
LINIE
100
AcDbVertex
100
AcDb2dVertex
 10
272.8815121731961
 20
211.0666048262901
 30
0.0
  0
VERTEX
  5
338
330
2F2
100
AcDbEntity
  8
LINIE
100
AcDbVertex
100
AcDb2dVertex
 10
272.9875536046232
 20
210.8499127362556
 30
0.0
  0
VERTEX
  5
339
330
2F2
100
AcDbEntity
  8
LINIE
100
AcDbVertex
100
AcDb2dVertex
 10
273.0891461453641
 20
210.6483804915733
 30
0.0
  0
VERTEX
  5
33A
330
2F2
100
AcDbEntity
  8
LINIE
100
AcDbVertex
100
AcDb2dVertex
 10
273.1865377507413
 20
210.4604088996238
 30
0.0
  0
VERTEX
  5
33B
330
2F2
100
AcDbEntity
  8
LINIE
100
AcDbVertex
100
AcDb2dVertex
 10
273.2824845395291
 20
210.2800124619789
 30
0.0
  0
VERTEX
  5
33C
330
2F2
100
AcDbEntity
  8
LINIE
100
AcDbVertex
100
AcDb2dVertex
 10
273.37666226246
 20
210.1072066758461
 30
0.0
  0
VERTEX
  5
33D
330
2F2
100
AcDbEntity
  8
LINIE
100
AcDbVertex
100
AcDb2dVertex
 10
273.4684748730863
 20
209.9425255988426
 30
0.0
  0
VERTEX
  5
33E
330
2F2
100
AcDbEntity
  8
LINIE
100
AcDbVertex
100
AcDb2dVertex
 10
273.5573263249601
 20
209.7865044806785
 30
0.0
  0
VERTEX
  5
33F
330
2F2
100
AcDbEntity
  8
LINIE
100
AcDbVertex
100
AcDb2dVertex
 10
273.6426181874478
 20
209.6396755908317
 30
0.0
  0
VERTEX
  5
340
330
2F2
100
AcDbEntity
  8
LINIE
100
AcDbVertex
100
AcDb2dVertex
 10
273.7237567982877
 20
209.5025753711051
 30
0.0
  0
VERTEX
  5
341
330
2F2
100
AcDbEntity
  8
LINIE
100
AcDbVertex
100
AcDb2dVertex
 10
273.8001437268461
 20
209.3757366870231
 30
0.0
  0
VERTEX
  5
342
330
2F2
100
AcDbEntity
  8
LINIE
100
AcDbVertex
100
AcDb2dVertex
 10
273.8711829266752
 20
209.2596935962028
 30
0.0
  0
VERTEX
  5
343
330
2F2
100
AcDbEntity
  8
LINIE
100
AcDbVertex
100
AcDb2dVertex
 10
273.9362616620267
 20
209.1549813483543
 30
0.0
  0
VERTEX
  5
344
330
2F2
100
AcDbEntity
  8
LINIE
100
AcDbVertex
100
AcDb2dVertex
 10
273.9947481236661
 20
209.0619182322807
 30
0.0
  0
VERTEX
  5
345
330
2F2
100
AcDbEntity
  8
LINIE
100
AcDbVertex
100
AcDb2dVertex
 10
274.0464944920743
 20
208.9803945754356
 30
0.0
  0
VERTEX
  5
346
330
2F2
100
AcDbEntity
  8
LINIE
100
AcDbVertex
100
AcDb2dVertex
 10
274.0914673886503
 20
208.9102530215568
 30
0.0
  0
VERTEX
  5
347
330
2F2
100
AcDbEntity
  8
LINIE
100
AcDbVertex
100
AcDb2dVertex
 10
274.1296238980496
 20
208.8513362143821
 30
0.0
  0
VERTEX
  5
348
330
2F2
100
AcDbEntity
  8
LINIE
100
AcDbVertex
100
AcDb2dVertex
 10
274.1609282574857
 20
208.8034867976494
 30
0.0
  0
VERTEX
  5
349
330
2F2
100
AcDbEntity
  8
LINIE
100
AcDbVertex
100
AcDb2dVertex
 10
274.1853423199857
 20
208.7665438388176
 30
0.0
  0
VERTEX
  5
34A
330
2F2
100
AcDbEntity
  8
LINIE
100
AcDbVertex
100
AcDb2dVertex
 10
274.202827938577
 20
208.7403523658104
 30
0.0
  0
VERTEX
  5
34B
330
2F2
100
AcDbEntity
  8
LINIE
100
AcDbVertex
100
AcDb2dVertex
 10
274.2133493504728
 20
208.7247538302726
 30
0.0
  0
VERTEX
  5
34C
330
2F2
100
AcDbEntity
  8
LINIE
100
AcDbVertex
100
AcDb2dVertex
 10
274.2168636403287
 20
208.7195896838493
 30
0.0
  0
SEQEND
  5
2F5
330
2F2
100
AcDbEntity
  8
LINIE
  0
LINE
  5
34D
330
6C
100
AcDbEntity
  8
0
100
AcDbLine
 10
285.9022774243558
 20
225.3798459838218
 30
0.0
 11
285.9022774243558
 21
213.9348459838218
 31
0.0
  0
LINE
  5
34E
330
6C
100
AcDbEntity
  8
0
100
AcDbLine
 10
286.7582774243558
 20
213.0788459838218
 30
0.0
 11
286.7582774243558
 21
226.2358459838218
 31
0.0
  0
LINE
  5
34F
330
6C
100
AcDbEntity
  8
0
100
AcDbLine
 10
269.4177874343518
 20
200.4073459838219
 30
0.0
 11
269.4177874343518
 21
238.9073459838218
 31
0.0
  0
LINE
  5
350
330
6C
100
AcDbEntity
  8
0
100
AcDbLine
 10
264.7582774243558
 20
238.9073459838218
 30
0.0
 11
269.4177874343518
 21
238.9073459838218
 31
0.0
  0
LINE
  5
351
330
6C
100
AcDbEntity
  8
0
100
AcDbLine
 10
264.7582774243558
 20
200.4073459838219
 30
0.0
 11
269.4177874343518
 21
200.4073459838219
 31
0.0
  0
LINE
  5
352
330
6C
100
AcDbEntity
  8
0
100
AcDbLine
 10
274.2168632647708
 20
208.7195891514835
 30
0.0
 11
269.4177874343518
 21
200.4073459838219
 31
0.0
  0
LINE
  5
353
330
6C
100
AcDbEntity
  8
0
100
AcDbLine
 10
274.2167225610748
 20
230.5953465221106
 30
0.0
 11
269.4177874343518
 21
238.9073459838218
 31
0.0
  0
LINE
  5
354
102
{ACAD_REACTORS
330
20CF
102
}
330
6C
100
AcDbEntity
  8
LINIE
100
AcDbLine
 10
274.7582774243558
 20
213.0788459838218
 30
0.0
 11
286.7582774243558
 21
213.0788459838218
 31
0.0
  0
LINE
  5
355
102
{ACAD_REACTORS
330
20CF
102
}
330
6C
100
AcDbEntity
  8
0
100
AcDbLine
 10
274.7582774243558
 20
213.0788459838218
 30
0.0
 11
274.7582774243558
 21
226.2358459838218
 31
0.0
  0
LINE
  5
356
102
{ACAD_REACTORS
330
20CF
102
}
330
6C
100
AcDbEntity
  8
LINIE
100
AcDbLine
 10
286.7582774243559
 20
226.2358459838218
 30
0.0
 11
274.7582774243558
 21
226.2358459838218
 31
0.0
  0
LINE
  5
357
330
6C
100
AcDbEntity
  8
0
100
AcDbLine
 10
264.7582774243558
 20
200.1573459838222
 30
0.0
 11
264.7582774243558
 21
239.1573459838221
 31
0.0
  0
LINE
  5
358
330
6C
100
AcDbEntity
  8
0
100
AcDbLine
 10
156.2582774243562
 20
200.1573459838221
 30
0.0
 11
156.2582774243562
 21
239.1573459838221
 31
0.0
  0
LINE
  5
359
330
6C
100
AcDbEntity
  8
0
100
AcDbLine
 10
156.2582774243562
 20
239.1573459838221
 30
0.0
 11
264.7582774243558
 21
239.1573459838222
 31
0.0
  0
LINE
  5
35A
330
6C
100
AcDbEntity
  8
0
100
AcDbLine
 10
156.2582774243562
 20
200.1573459838221
 30
0.0
 11
264.7582774243558
 21
200.1573459838222
 31
0.0
  0
LINE
  5
35B
330
6C
100
AcDbEntity
  8
0
100
AcDbLine
 10
139.6757017304207
 20
215.7843626376147
 30
0.0
 11
138.2582774243561
 21
215.7843626376147
 31
0.0
  0
LINE
  5
35C
330
6C
100
AcDbEntity
  8
0
100
AcDbLine
 10
138.2582774243561
 20
223.5303293300295
 30
0.0
 11
139.6757017283798
 21
223.5303293300295
 31
0.0
  0
LINE
  5
35D
330
6C
100
AcDbEntity
  8
0
100
AcDbLine
 10
138.2582774243561
 20
215.7843626376147
 30
0.0
 11
138.2582774243562
 21
223.5303293300295
 31
0.0
  0
LINE
  5
35E
330
6C
100
AcDbEntity
  8
0
100
AcDbLine
 10
138.2582774243561
 20
215.1573459838221
 30
0.0
 11
138.2582774243561
 21
215.7843626376147
 31
0.0
  0
LINE
  5
35F
330
6C
100
AcDbEntity
  8
0
100
AcDbLine
 10
138.2582774243562
 20
223.5303293300295
 30
0.0
 11
138.2582774243562
 21
224.1573459838221
 31
0.0
  0
ARC
  5
360
330
6C
100
AcDbEntity
  8
0
100
AcDbCircle
 10
144.2582774243561
 20
219.6573459850295
 30
0.0
 40
6.0
100
AcDbArc
 50
131.4096221092703
 51
228.5903778907285
  0
ELLIPSE
  5
361
330
6C
100
AcDbEntity
  8
LINIE
100
AcDbEllipse
 10
143.6076243526998
 20
220.6781547694124
 30
0.0
 11
0.1795518853467416
 21
0.2133282371772672
 31
0.0
210
0.0
220
0.0
230
1.0
 40
0.9884519215740063
 41
3.408554271100443
 42
4.079128085712815
  0
ELLIPSE
  5
362
330
6C
100
AcDbEntity
  8
LINIE
100
AcDbEllipse
 10
144.9089304960125
 20
218.6365372006466
 30
0.0
 11
-0.1795518853467426
 21
-0.2133282371772672
 31
0.0
210
0.0
220
0.0
230
1.0
 40
0.988451921574004
 41
3.408554271100445
 42
4.079128085712818
  0
ELLIPSE
  5
363
330
6C
100
AcDbEntity
  8
LINIE
100
AcDbEllipse
 10
143.2374686399733
 20
220.3079990566858
 30
0.0
 11
0.2133282371772676
 21
0.1795518853467424
 31
0.0
210
0.0
220
0.0
230
1.0
 40
0.988451921574004
 41
5.345649875056562
 42
6.016223689668992
  0
ELLIPSE
  5
364
330
6C
100
AcDbEntity
  8
LINIE
100
AcDbEllipse
 10
145.279086208739
 20
219.0066929133731
 30
0.0
 11
-0.2133282371772668
 21
-0.1795518853467421
 31
0.0
210
0.0
220
0.0
230
1.0
 40
0.9884519215740061
 41
5.345649875056577
 42
6.016223689668875
  0
ELLIPSE
  5
365
330
6C
100
AcDbEntity
  8
LINIE
100
AcDbEllipse
 10
143.2374686399733
 20
219.0066929133731
 30
0.0
 11
-0.2133282371772677
 21
0.1795518853467423
 31
0.0
210
0.0
220
0.0
230
1.0
 40
0.9884519215740038
 41
3.408554271100503
 42
4.079128085712817
  0
ELLIPSE
  5
366
330
6C
100
AcDbEntity
  8
LINIE
100
AcDbEllipse
 10
143.6076243526998
 20
218.6365372006466
 30
0.0
 11
-0.1795518853467416
 21
0.2133282371772675
 31
0.0
210
0.0
220
0.0
230
1.0
 40
0.9884519215740048
 41
5.345649875056501
 42
6.016223689668935
  0
ELLIPSE
  5
367
330
6C
100
AcDbEntity
  8
LINIE
100
AcDbEllipse
 10
145.279086208739
 20
220.3079990566858
 30
0.0
 11
0.2133282371772666
 21
-0.1795518853467419
 31
0.0
210
0.0
220
0.0
230
1.0
 40
0.9884519215740061
 41
3.408554271100387
 42
4.079128085712817
  0
ELLIPSE
  5
368
330
6C
100
AcDbEntity
  8
LINIE
100
AcDbEllipse
 10
144.9089304960125
 20
220.6781547694124
 30
0.0
 11
0.1795518853467426
 21
-0.2133282371772675
 31
0.0
210
0.0
220
0.0
230
0.9999999999999998
 40
0.9884519215740027
 41
5.345649875056561
 42
6.016223689668879
  0
LINE
  5
369
330
6C
100
AcDbEntity
  8
LINIE
100
AcDbLine
 10
143.4900592348782
 20
220.4255641745074
 30
0.0
 11
143.6881354159919
 21
220.2274879933937
 31
0.0
  0
POLYLINE
  5
36A
330
6C
100
AcDbEntity
  8
LINIE
100
AcDb2dPolyline
 66
     1
 10
0.0
 20
0.0
 30
0.0
 70
   128
  0
VERTEX
  5
36B
330
36A
100
AcDbEntity
  8
LINIE
100
AcDbVertex
100
AcDb2dVertex
 10
144.0986314124671
 20
220.7883947835906
 30
0.0
  0
VERTEX
  5
36C
330
36A
100
AcDbEntity
  8
LINIE
100
AcDbVertex
100
AcDb2dVertex
 10
144.1039806685654
 20
220.7592416302903
 30
0.0
  0
VERTEX
  5
36E
330
36A
100
AcDbEntity
  8
LINIE
100
AcDbVertex
100
AcDb2dVertex
 10
144.1074716939835
 20
220.7297559575779
 30
0.0
  0
VERTEX
  5
36F
330
36A
100
AcDbEntity
  8
LINIE
100
AcDbVertex
100
AcDb2dVertex
 10
144.109109303659
 20
220.6992169962866
 30
0.0
  0
VERTEX
  5
370
330
36A
100
AcDbEntity
  8
LINIE
100
AcDbVertex
100
AcDb2dVertex
 10
144.1087791218666
 20
220.6679500387652
 30
0.0
  0
VERTEX
  5
371
330
36A
100
AcDbEntity
  8
LINIE
100
AcDbVertex
100
AcDb2dVertex
 10
144.1063647705374
 20
220.6363054113133
 30
0.0
  0
VERTEX
  5
372
330
36A
100
AcDbEntity
  8
LINIE
100
AcDbVertex
100
AcDb2dVertex
 10
144.1017511009482
 20
220.6046329931958
 30
0.0
  0
VERTEX
  5
373
330
36A
100
AcDbEntity
  8
LINIE
100
AcDbVertex
100
AcDb2dVertex
 10
144.0949166647402
 20
220.5732662724002
 30
0.0
  0
VERTEX
  5
374
330
36A
100
AcDbEntity
  8
LINIE
100
AcDbVertex
100
AcDb2dVertex
 10
144.0859991020767
 20
220.542516459678
 30
0.0
  0
VERTEX
  5
375
330
36A
100
AcDbEntity
  8
LINIE
100
AcDbVertex
100
AcDb2dVertex
 10
144.0751514665095
 20
220.5126936481936
 30
0.0
  0
VERTEX
  5
376
330
36A
100
AcDbEntity
  8
LINIE
100
AcDbVertex
100
AcDb2dVertex
 10
144.0625268115906
 20
220.4841076330884
 30
0.0
  0
VERTEX
  5
377
330
36A
100
AcDbEntity
  8
LINIE
100
AcDbVertex
100
AcDb2dVertex
 10
144.0479373081831
 20
220.4564320044263
 30
0.0
  0
VERTEX
  5
378
330
36A
100
AcDbEntity
  8
LINIE
100
AcDbVertex
100
AcDb2dVertex
 10
144.0307561389414
 20
220.4286901401026
 30
0.0
  0
VERTEX
  5
379
330
36A
100
AcDbEntity
  8
LINIE
100
AcDbVertex
100
AcDb2dVertex
 10
144.0110700845031
 20
220.401387189482
 30
0.0
  0
VERTEX
  5
37A
330
36A
100
AcDbEntity
  8
LINIE
100
AcDbVertex
100
AcDb2dVertex
 10
143.9889935485331
 20
220.3750826911671
 30
0.0
  0
VERTEX
  5
37B
330
36A
100
AcDbEntity
  8
LINIE
100
AcDbVertex
100
AcDb2dVertex
 10
143.9646730466989
 20
220.3503077970488
 30
0.0
  0
VERTEX
  5
37C
330
36A
100
AcDbEntity
  8
LINIE
100
AcDbVertex
100
AcDb2dVertex
 10
143.9385047636239
 20
220.3274310128434
 30
0.0
  0
VERTEX
  5
37D
330
36A
100
AcDbEntity
  8
LINIE
100
AcDbVertex
100
AcDb2dVertex
 10
143.9109917066304
 20
220.3067634002907
 30
0.0
  0
VERTEX
  5
37E
330
36A
100
AcDbEntity
  8
LINIE
100
AcDbVertex
100
AcDb2dVertex
 10
143.8826347223727
 20
220.2886148290379
 30
0.0
  0
VERTEX
  5
37F
330
36A
100
AcDbEntity
  8
LINIE
100
AcDbVertex
100
AcDb2dVertex
 10
143.8528820953576
 20
220.2726666004999
 30
0.0
  0
VERTEX
  5
380
330
36A
100
AcDbEntity
  8
LINIE
100
AcDbVertex
100
AcDb2dVertex
 10
143.8213762349693
 20
220.2586977304561
 30
0.0
  0
VERTEX
  5
381
330
36A
100
AcDbEntity
  8
LINIE
100
AcDbVertex
100
AcDb2dVertex
 10
143.7886318645684
 20
220.2469996856196
 30
0.0
  0
VERTEX
  5
382
330
36A
100
AcDbEntity
  8
LINIE
100
AcDbVertex
100
AcDb2dVertex
 10
143.7551635585038
 20
220.237861362253
 30
0.0
  0
VERTEX
  5
383
330
36A
100
AcDbEntity
  8
LINIE
100
AcDbVertex
100
AcDb2dVertex
 10
143.7214844010083
 20
220.2313868822201
 30
0.0
  0
VERTEX
  5
384
330
36A
100
AcDbEntity
  8
LINIE
100
AcDbVertex
100
AcDb2dVertex
 10
143.6881354159919
 20
220.2274879933937
 30
0.0
  0
SEQEND
  5
36D
330
36A
100
AcDbEntity
  8
LINIE
  0
ARC
  5
385
330
6C
100
AcDbEntity
  8
LINIE
100
AcDbCircle
 10
143.6348327135872
 20
220.7104814233675
 30
0.0
 40
0.303837227277025
100
AcDbArc
 50
276.9025612440322
 51
9.536059001156722
  0
LINE
  5
386
330
6C
100
AcDbEntity
  8
LINIE
100
AcDbLine
 10
145.026495613834
 20
218.8891277955516
 30
0.0
 11
144.8284194327203
 21
219.0872039766653
 31
0.0
  0
POLYLINE
  5
387
330
6C
100
AcDbEntity
  8
LINIE
100
AcDb2dPolyline
 66
     1
 10
0.0
 20
0.0
 30
0.0
 70
   128
  0
VERTEX
  5
388
330
387
100
AcDbEntity
  8
LINIE
100
AcDbVertex
100
AcDb2dVertex
 10
144.4179234362451
 20
218.5262971864684
 30
0.0
  0
VERTEX
  5
389
330
387
100
AcDbEntity
  8
LINIE
100
AcDbVertex
100
AcDb2dVertex
 10
144.4125741801468
 20
218.5554503397687
 30
0.0
  0
VERTEX
  5
38B
330
387
100
AcDbEntity
  8
LINIE
100
AcDbVertex
100
AcDb2dVertex
 10
144.4090831547288
 20
218.584936012481
 30
0.0
  0
VERTEX
  5
38C
330
387
100
AcDbEntity
  8
LINIE
100
AcDbVertex
100
AcDb2dVertex
 10
144.4074455450533
 20
218.6154749737723
 30
0.0
  0
VERTEX
  5
38D
330
387
100
AcDbEntity
  8
LINIE
100
AcDbVertex
100
AcDb2dVertex
 10
144.4077757268456
 20
218.6467419312938
 30
0.0
  0
VERTEX
  5
38E
330
387
100
AcDbEntity
  8
LINIE
100
AcDbVertex
100
AcDb2dVertex
 10
144.4101900781749
 20
218.6783865587456
 30
0.0
  0
VERTEX
  5
38F
330
387
100
AcDbEntity
  8
LINIE
100
AcDbVertex
100
AcDb2dVertex
 10
144.414803747764
 20
218.7100589768632
 30
0.0
  0
VERTEX
  5
390
330
387
100
AcDbEntity
  8
LINIE
100
AcDbVertex
100
AcDb2dVertex
 10
144.421638183972
 20
218.7414256976588
 30
0.0
  0
VERTEX
  5
391
330
387
100
AcDbEntity
  8
LINIE
100
AcDbVertex
100
AcDb2dVertex
 10
144.4305557466356
 20
218.772175510381
 30
0.0
  0
VERTEX
  5
392
330
387
100
AcDbEntity
  8
LINIE
100
AcDbVertex
100
AcDb2dVertex
 10
144.4414033822028
 20
218.8019983218653
 30
0.0
  0
VERTEX
  5
393
330
387
100
AcDbEntity
  8
LINIE
100
AcDbVertex
100
AcDb2dVertex
 10
144.4540280371217
 20
218.8305843369706
 30
0.0
  0
VERTEX
  5
394
330
387
100
AcDbEntity
  8
LINIE
100
AcDbVertex
100
AcDb2dVertex
 10
144.4686175405291
 20
218.8582599656327
 30
0.0
  0
VERTEX
  5
395
330
387
100
AcDbEntity
  8
LINIE
100
AcDbVertex
100
AcDb2dVertex
 10
144.4857987097708
 20
218.8860018299563
 30
0.0
  0
VERTEX
  5
396
330
387
100
AcDbEntity
  8
LINIE
100
AcDbVertex
100
AcDb2dVertex
 10
144.5054847642092
 20
218.913304780577
 30
0.0
  0
VERTEX
  5
397
330
387
100
AcDbEntity
  8
LINIE
100
AcDbVertex
100
AcDb2dVertex
 10
144.5275613001792
 20
218.9396092788918
 30
0.0
  0
VERTEX
  5
398
330
387
100
AcDbEntity
  8
LINIE
100
AcDbVertex
100
AcDb2dVertex
 10
144.5518818020133
 20
218.9643841730101
 30
0.0
  0
VERTEX
  5
399
330
387
100
AcDbEntity
  8
LINIE
100
AcDbVertex
100
AcDb2dVertex
 10
144.5780500850884
 20
218.9872609572156
 30
0.0
  0
VERTEX
  5
39A
330
387
100
AcDbEntity
  8
LINIE
100
AcDbVertex
100
AcDb2dVertex
 10
144.6055631420819
 20
219.0079285697682
 30
0.0
  0
VERTEX
  5
39B
330
387
100
AcDbEntity
  8
LINIE
100
AcDbVertex
100
AcDb2dVertex
 10
144.6339201263396
 20
219.026077141021
 30
0.0
  0
VERTEX
  5
39C
330
387
100
AcDbEntity
  8
LINIE
100
AcDbVertex
100
AcDb2dVertex
 10
144.6636727533547
 20
219.0420253695591
 30
0.0
  0
VERTEX
  5
39D
330
387
100
AcDbEntity
  8
LINIE
100
AcDbVertex
100
AcDb2dVertex
 10
144.695178613743
 20
219.0559942396028
 30
0.0
  0
VERTEX
  5
39E
330
387
100
AcDbEntity
  8
LINIE
100
AcDbVertex
100
AcDb2dVertex
 10
144.7279229841439
 20
219.0676922844394
 30
0.0
  0
VERTEX
  5
39F
330
387
100
AcDbEntity
  8
LINIE
100
AcDbVertex
100
AcDb2dVertex
 10
144.7613912902085
 20
219.076830607806
 30
0.0
  0
VERTEX
  5
3A0
330
387
100
AcDbEntity
  8
LINIE
100
AcDbVertex
100
AcDb2dVertex
 10
144.795070447704
 20
219.0833050878389
 30
0.0
  0
VERTEX
  5
3A1
330
387
100
AcDbEntity
  8
LINIE
100
AcDbVertex
100
AcDb2dVertex
 10
144.8284194327203
 20
219.0872039766653
 30
0.0
  0
SEQEND
  5
38A
330
387
100
AcDbEntity
  8
LINIE
  0
ARC
  5
3A2
330
6C
100
AcDbEntity
  8
LINIE
100
AcDbCircle
 10
144.8817221351251
 20
218.6042105466915
 30
0.0
 40
0.303837227277025
100
AcDbArc
 50
96.90256124403889
 51
189.5360590011567
  0
POLYLINE
  5
3A3
330
6C
100
AcDbEntity
  8
LINIE
100
AcDb2dPolyline
 66
     1
 10
0.0
 20
0.0
 30
0.0
 70
   128
  0
VERTEX
  5
3A4
330
3A3
100
AcDbEntity
  8
LINIE
100
AcDbVertex
100
AcDb2dVertex
 10
142.0706401846615
 20
219.1615321607931
 30
0.0
  0
VERTEX
  5
3A5
330
3A3
100
AcDbEntity
  8
LINIE
100
AcDbVertex
100
AcDb2dVertex
 10
142.1105888567177
 20
219.1757330419166
 30
0.0
  0
VERTEX
  5
3A7
330
3A3
100
AcDbEntity
  8
LINIE
100
AcDbVertex
100
AcDb2dVertex
 10
142.1497348032204
 20
219.1896464796407
 30
0.0
  0
VERTEX
  5
3A8
330
3A3
100
AcDbEntity
  8
LINIE
100
AcDbVertex
100
AcDb2dVertex
 10
142.188102462074
 20
219.2032810421331
 30
0.0
  0
VERTEX
  5
3A9
330
3A3
100
AcDbEntity
  8
LINIE
100
AcDbVertex
100
AcDb2dVertex
 10
142.2257150790898
 20
219.2166451112969
 30
0.0
  0
VERTEX
  5
3AA
330
3A3
100
AcDbEntity
  8
LINIE
100
AcDbVertex
100
AcDb2dVertex
 10
142.2625948569981
 20
219.2297465847476
 30
0.0
  0
VERTEX
  5
3AB
330
3A3
100
AcDbEntity
  8
LINIE
100
AcDbVertex
100
AcDb2dVertex
 10
142.2987637005059
 20
219.242593173836
 30
0.0
  0
VERTEX
  5
3AC
330
3A3
100
AcDbEntity
  8
LINIE
100
AcDbVertex
100
AcDb2dVertex
 10
142.3342420242039
 20
219.2551922173841
 30
0.0
  0
VERTEX
  5
3AD
330
3A3
100
AcDbEntity
  8
LINIE
100
AcDbVertex
100
AcDb2dVertex
 10
142.3690497956482
 20
219.2675508306964
 30
0.0
  0
VERTEX
  5
3AE
330
3A3
100
AcDbEntity
  8
LINIE
100
AcDbVertex
100
AcDb2dVertex
 10
142.4032062373368
 20
219.2796757565482
 30
0.0
  0
VERTEX
  5
3AF
330
3A3
100
AcDbEntity
  8
LINIE
100
AcDbVertex
100
AcDb2dVertex
 10
142.436729975721
 20
219.2915736632092
 30
0.0
  0
VERTEX
  5
3B0
330
3A3
100
AcDbEntity
  8
LINIE
100
AcDbVertex
100
AcDb2dVertex
 10
142.4696384451596
 20
219.3032507346614
 30
0.0
  0
VERTEX
  5
3B1
330
3A3
100
AcDbEntity
  8
LINIE
100
AcDbVertex
100
AcDb2dVertex
 10
142.5019492290227
 20
219.3147131921394
 30
0.0
  0
VERTEX
  5
3B2
330
3A3
100
AcDbEntity
  8
LINIE
100
AcDbVertex
100
AcDb2dVertex
 10
142.5336784205643
 20
219.3259667725904
 30
0.0
  0
VERTEX
  5
3B3
330
3A3
100
AcDbEntity
  8
LINIE
100
AcDbVertex
100
AcDb2dVertex
 10
142.5648424110619
 20
219.3370172129615
 30
0.0
  0
VERTEX
  5
3B4
330
3A3
100
AcDbEntity
  8
LINIE
100
AcDbVertex
100
AcDb2dVertex
 10
142.5954561016766
 20
219.3478699521763
 30
0.0
  0
VERTEX
  5
3B5
330
3A3
100
AcDbEntity
  8
LINIE
100
AcDbVertex
100
AcDb2dVertex
 10
142.6255346915928
 20
219.3585302056415
 30
0.0
  0
VERTEX
  5
3B6
330
3A3
100
AcDbEntity
  8
LINIE
100
AcDbVertex
100
AcDb2dVertex
 10
142.6550923369137
 20
219.3690030770047
 30
0.0
  0
VERTEX
  5
3B7
330
3A3
100
AcDbEntity
  8
LINIE
100
AcDbVertex
100
AcDb2dVertex
 10
142.6841427467076
 20
219.3792934463961
 30
0.0
  0
VERTEX
  5
3B8
330
3A3
100
AcDbEntity
  8
LINIE
100
AcDbVertex
100
AcDb2dVertex
 10
142.7126996300427
 20
219.3894060449345
 30
0.0
  0
VERTEX
  5
3B9
330
3A3
100
AcDbEntity
  8
LINIE
100
AcDbVertex
100
AcDb2dVertex
 10
142.7407756529061
 20
219.3993454361005
 30
0.0
  0
VERTEX
  5
3BA
330
3A3
100
AcDbEntity
  8
LINIE
100
AcDbVertex
100
AcDb2dVertex
 10
142.7683833322731
 20
219.4091160157366
 30
0.0
  0
VERTEX
  5
3BB
330
3A3
100
AcDbEntity
  8
LINIE
100
AcDbVertex
100
AcDb2dVertex
 10
142.7955348870961
 20
219.4187220493002
 30
0.0
  0
VERTEX
  5
3BC
330
3A3
100
AcDbEntity
  8
LINIE
100
AcDbVertex
100
AcDb2dVertex
 10
142.822241791269
 20
219.4281676718636
 30
0.0
  0
VERTEX
  5
3BD
330
3A3
100
AcDbEntity
  8
LINIE
100
AcDbVertex
100
AcDb2dVertex
 10
142.848515518686
 20
219.4374568322344
 30
0.0
  0
SEQEND
  5
3A6
330
3A3
100
AcDbEntity
  8
LINIE
  0
POLYLINE
  5
3BE
330
6C
100
AcDbEntity
  8
LINIE
100
AcDb2dPolyline
 66
     1
 10
0.0
 20
0.0
 30
0.0
 70
   128
  0
VERTEX
  5
3BF
330
3BE
100
AcDbEntity
  8
LINIE
100
AcDbVertex
100
AcDb2dVertex
 10
142.848515518686
 20
219.8772351378246
 30
0.0
  0
VERTEX
  5
3C0
330
3BE
100
AcDbEntity
  8
LINIE
100
AcDbVertex
100
AcDb2dVertex
 10
142.822241791269
 20
219.8865242981954
 30
0.0
  0
VERTEX
  5
3C2
330
3BE
100
AcDbEntity
  8
LINIE
100
AcDbVertex
100
AcDb2dVertex
 10
142.7955348870961
 20
219.8959699207588
 30
0.0
  0
VERTEX
  5
3C3
330
3BE
100
AcDbEntity
  8
LINIE
100
AcDbVertex
100
AcDb2dVertex
 10
142.7683833322731
 20
219.9055759543224
 30
0.0
  0
VERTEX
  5
3C4
330
3BE
100
AcDbEntity
  8
LINIE
100
AcDbVertex
100
AcDb2dVertex
 10
142.7407756529061
 20
219.9153465339585
 30
0.0
  0
VERTEX
  5
3C5
330
3BE
100
AcDbEntity
  8
LINIE
100
AcDbVertex
100
AcDb2dVertex
 10
142.7126996300427
 20
219.9252859251244
 30
0.0
  0
VERTEX
  5
3C6
330
3BE
100
AcDbEntity
  8
LINIE
100
AcDbVertex
100
AcDb2dVertex
 10
142.6841427467076
 20
219.9353985236628
 30
0.0
  0
VERTEX
  5
3C7
330
3BE
100
AcDbEntity
  8
LINIE
100
AcDbVertex
100
AcDb2dVertex
 10
142.6550923369137
 20
219.9456888930543
 30
0.0
  0
VERTEX
  5
3C8
330
3BE
100
AcDbEntity
  8
LINIE
100
AcDbVertex
100
AcDb2dVertex
 10
142.6255346915928
 20
219.9561617644175
 30
0.0
  0
VERTEX
  5
3C9
330
3BE
100
AcDbEntity
  8
LINIE
100
AcDbVertex
100
AcDb2dVertex
 10
142.5954561016766
 20
219.9668220178826
 30
0.0
  0
VERTEX
  5
3CA
330
3BE
100
AcDbEntity
  8
LINIE
100
AcDbVertex
100
AcDb2dVertex
 10
142.5648424110619
 20
219.9776747570975
 30
0.0
  0
VERTEX
  5
3CB
330
3BE
100
AcDbEntity
  8
LINIE
100
AcDbVertex
100
AcDb2dVertex
 10
142.5336784205643
 20
219.9887251974685
 30
0.0
  0
VERTEX
  5
3CC
330
3BE
100
AcDbEntity
  8
LINIE
100
AcDbVertex
100
AcDb2dVertex
 10
142.5019492290227
 20
219.9999787779196
 30
0.0
  0
VERTEX
  5
3CD
330
3BE
100
AcDbEntity
  8
LINIE
100
AcDbVertex
100
AcDb2dVertex
 10
142.4696384451596
 20
220.0114412353976
 30
0.0
  0
VERTEX
  5
3CE
330
3BE
100
AcDbEntity
  8
LINIE
100
AcDbVertex
100
AcDb2dVertex
 10
142.436729975721
 20
220.0231183068497
 30
0.0
  0
VERTEX
  5
3CF
330
3BE
100
AcDbEntity
  8
LINIE
100
AcDbVertex
100
AcDb2dVertex
 10
142.4032062373368
 20
220.0350162135108
 30
0.0
  0
VERTEX
  5
3D0
330
3BE
100
AcDbEntity
  8
LINIE
100
AcDbVertex
100
AcDb2dVertex
 10
142.3690497956482
 20
220.0471411393626
 30
0.0
  0
VERTEX
  5
3D1
330
3BE
100
AcDbEntity
  8
LINIE
100
AcDbVertex
100
AcDb2dVertex
 10
142.3342420242039
 20
220.0594997526748
 30
0.0
  0
VERTEX
  5
3D2
330
3BE
100
AcDbEntity
  8
LINIE
100
AcDbVertex
100
AcDb2dVertex
 10
142.2987637005059
 20
220.0720987962229
 30
0.0
  0
VERTEX
  5
3D3
330
3BE
100
AcDbEntity
  8
LINIE
100
AcDbVertex
100
AcDb2dVertex
 10
142.2625948569981
 20
220.0849453853114
 30
0.0
  0
VERTEX
  5
3D4
330
3BE
100
AcDbEntity
  8
LINIE
100
AcDbVertex
100
AcDb2dVertex
 10
142.2257150790898
 20
220.0980468587621
 30
0.0
  0
VERTEX
  5
3D5
330
3BE
100
AcDbEntity
  8
LINIE
100
AcDbVertex
100
AcDb2dVertex
 10
142.188102462074
 20
220.1114109279258
 30
0.0
  0
VERTEX
  5
3D6
330
3BE
100
AcDbEntity
  8
LINIE
100
AcDbVertex
100
AcDb2dVertex
 10
142.1497348032204
 20
220.1250454904182
 30
0.0
  0
VERTEX
  5
3D7
330
3BE
100
AcDbEntity
  8
LINIE
100
AcDbVertex
100
AcDb2dVertex
 10
142.1105888567177
 20
220.1389589281423
 30
0.0
  0
VERTEX
  5
3D8
330
3BE
100
AcDbEntity
  8
LINIE
100
AcDbVertex
100
AcDb2dVertex
 10
142.0706401846615
 20
220.1531598092659
 30
0.0
  0
SEQEND
  5
3C1
330
3BE
100
AcDbEntity
  8
LINIE
  0
POLYLINE
  5
3D9
330
6C
100
AcDbEntity
  8
LINIE
100
AcDb2dPolyline
 66
     1
 10
0.0
 20
0.0
 30
0.0
 70
   128
  0
VERTEX
  5
3DA
330
3D9
100
AcDbEntity
  8
LINIE
100
AcDbVertex
100
AcDb2dVertex
 10
144.7540912485925
 20
217.4697087453349
 30
0.0
  0
VERTEX
  5
3DB
330
3D9
100
AcDbEntity
  8
LINIE
100
AcDbVertex
100
AcDb2dVertex
 10
144.739890367469
 20
217.5096574173911
 30
0.0
  0
VERTEX
  5
3DD
330
3D9
100
AcDbEntity
  8
LINIE
100
AcDbVertex
100
AcDb2dVertex
 10
144.7259769297449
 20
217.5488033638938
 30
0.0
  0
VERTEX
  5
3DE
330
3D9
100
AcDbEntity
  8
LINIE
100
AcDbVertex
100
AcDb2dVertex
 10
144.7123423672525
 20
217.5871710227473
 30
0.0
  0
VERTEX
  5
3DF
330
3D9
100
AcDbEntity
  8
LINIE
100
AcDbVertex
100
AcDb2dVertex
 10
144.6989782980887
 20
217.6247836397632
 30
0.0
  0
VERTEX
  5
3E0
330
3D9
100
AcDbEntity
  8
LINIE
100
AcDbVertex
100
AcDb2dVertex
 10
144.685876824638
 20
217.6616634176715
 30
0.0
  0
VERTEX
  5
3E1
330
3D9
100
AcDbEntity
  8
LINIE
100
AcDbVertex
100
AcDb2dVertex
 10
144.6730302355496
 20
217.6978322611792
 30
0.0
  0
VERTEX
  5
3E2
330
3D9
100
AcDbEntity
  8
LINIE
100
AcDbVertex
100
AcDb2dVertex
 10
144.6604311920015
 20
217.7333105848773
 30
0.0
  0
VERTEX
  5
3E3
330
3D9
100
AcDbEntity
  8
LINIE
100
AcDbVertex
100
AcDb2dVertex
 10
144.6480725786893
 20
217.7681183563216
 30
0.0
  0
VERTEX
  5
3E4
330
3D9
100
AcDbEntity
  8
LINIE
100
AcDbVertex
100
AcDb2dVertex
 10
144.6359476528374
 20
217.8022747980101
 30
0.0
  0
VERTEX
  5
3E5
330
3D9
100
AcDbEntity
  8
LINIE
100
AcDbVertex
100
AcDb2dVertex
 10
144.6240497461764
 20
217.8357985363944
 30
0.0
  0
VERTEX
  5
3E6
330
3D9
100
AcDbEntity
  8
LINIE
100
AcDbVertex
100
AcDb2dVertex
 10
144.6123726747242
 20
217.8687070058329
 30
0.0
  0
VERTEX
  5
3E7
330
3D9
100
AcDbEntity
  8
LINIE
100
AcDbVertex
100
AcDb2dVertex
 10
144.6009102172462
 20
217.901017789696
 30
0.0
  0
VERTEX
  5
3E8
330
3D9
100
AcDbEntity
  8
LINIE
100
AcDbVertex
100
AcDb2dVertex
 10
144.5896566367952
 20
217.9327469812377
 30
0.0
  0
VERTEX
  5
3E9
330
3D9
100
AcDbEntity
  8
LINIE
100
AcDbVertex
100
AcDb2dVertex
 10
144.5786061964241
 20
217.9639109717353
 30
0.0
  0
VERTEX
  5
3EA
330
3D9
100
AcDbEntity
  8
LINIE
100
AcDbVertex
100
AcDb2dVertex
 10
144.5677534572093
 20
217.99452466235
 30
0.0
  0
VERTEX
  5
3EB
330
3D9
100
AcDbEntity
  8
LINIE
100
AcDbVertex
100
AcDb2dVertex
 10
144.5570932037441
 20
218.0246032522662
 30
0.0
  0
VERTEX
  5
3EC
330
3D9
100
AcDbEntity
  8
LINIE
100
AcDbVertex
100
AcDb2dVertex
 10
144.5466203323809
 20
218.0541608975871
 30
0.0
  0
VERTEX
  5
3ED
330
3D9
100
AcDbEntity
  8
LINIE
100
AcDbVertex
100
AcDb2dVertex
 10
144.5363299629895
 20
218.0832113073809
 30
0.0
  0
VERTEX
  5
3EE
330
3D9
100
AcDbEntity
  8
LINIE
100
AcDbVertex
100
AcDb2dVertex
 10
144.5262173644511
 20
218.111768190716
 30
0.0
  0
VERTEX
  5
3EF
330
3D9
100
AcDbEntity
  8
LINIE
100
AcDbVertex
100
AcDb2dVertex
 10
144.5162779732851
 20
218.1398442135794
 30
0.0
  0
VERTEX
  5
3F0
330
3D9
100
AcDbEntity
  8
LINIE
100
AcDbVertex
100
AcDb2dVertex
 10
144.506507393649
 20
218.1674518929465
 30
0.0
  0
VERTEX
  5
3F1
330
3D9
100
AcDbEntity
  8
LINIE
100
AcDbVertex
100
AcDb2dVertex
 10
144.4969013600854
 20
218.1946034477694
 30
0.0
  0
VERTEX
  5
3F2
330
3D9
100
AcDbEntity
  8
LINIE
100
AcDbVertex
100
AcDb2dVertex
 10
144.487455737522
 20
218.2213103519423
 30
0.0
  0
VERTEX
  5
3F3
330
3D9
100
AcDbEntity
  8
LINIE
100
AcDbVertex
100
AcDb2dVertex
 10
144.4781665771512
 20
218.2475840793593
 30
0.0
  0
SEQEND
  5
3DC
330
3D9
100
AcDbEntity
  8
LINIE
  0
POLYLINE
  5
3F4
330
6C
100
AcDbEntity
  8
LINIE
100
AcDb2dPolyline
 66
     1
 10
0.0
 20
0.0
 30
0.0
 70
   128
  0
VERTEX
  5
3F5
330
3F4
100
AcDbEntity
  8
LINIE
100
AcDbVertex
100
AcDb2dVertex
 10
144.0383882715611
 20
218.2475840793593
 30
0.0
  0
VERTEX
  5
3F6
330
3F4
100
AcDbEntity
  8
LINIE
100
AcDbVertex
100
AcDb2dVertex
 10
144.0290991111902
 20
218.2213103519423
 30
0.0
  0
VERTEX
  5
3F8
330
3F4
100
AcDbEntity
  8
LINIE
100
AcDbVertex
100
AcDb2dVertex
 10
144.0196534886269
 20
218.1946034477694
 30
0.0
  0
VERTEX
  5
3F9
330
3F4
100
AcDbEntity
  8
LINIE
100
AcDbVertex
100
AcDb2dVertex
 10
144.0100474550632
 20
218.1674518929465
 30
0.0
  0
VERTEX
  5
3FA
330
3F4
100
AcDbEntity
  8
LINIE
100
AcDbVertex
100
AcDb2dVertex
 10
144.0002768754272
 20
218.1398442135794
 30
0.0
  0
VERTEX
  5
3FB
330
3F4
100
AcDbEntity
  8
LINIE
100
AcDbVertex
100
AcDb2dVertex
 10
143.9903374842612
 20
218.111768190716
 30
0.0
  0
VERTEX
  5
3FC
330
3F4
100
AcDbEntity
  8
LINIE
100
AcDbVertex
100
AcDb2dVertex
 10
143.9802248857228
 20
218.0832113073809
 30
0.0
  0
VERTEX
  5
3FD
330
3F4
100
AcDbEntity
  8
LINIE
100
AcDbVertex
100
AcDb2dVertex
 10
143.9699345163313
 20
218.0541608975871
 30
0.0
  0
VERTEX
  5
3FE
330
3F4
100
AcDbEntity
  8
LINIE
100
AcDbVertex
100
AcDb2dVertex
 10
143.9594616449682
 20
218.0246032522662
 30
0.0
  0
VERTEX
  5
3FF
330
3F4
100
AcDbEntity
  8
LINIE
100
AcDbVertex
100
AcDb2dVertex
 10
143.948801391503
 20
217.99452466235
 30
0.0
  0
VERTEX
  5
400
330
3F4
100
AcDbEntity
  8
LINIE
100
AcDbVertex
100
AcDb2dVertex
 10
143.9379486522881
 20
217.9639109717353
 30
0.0
  0
VERTEX
  5
401
330
3F4
100
AcDbEntity
  8
LINIE
100
AcDbVertex
100
AcDb2dVertex
 10
143.9268982119171
 20
217.9327469812377
 30
0.0
  0
VERTEX
  5
402
330
3F4
100
AcDbEntity
  8
LINIE
100
AcDbVertex
100
AcDb2dVertex
 10
143.9156446314661
 20
217.901017789696
 30
0.0
  0
VERTEX
  5
403
330
3F4
100
AcDbEntity
  8
LINIE
100
AcDbVertex
100
AcDb2dVertex
 10
143.904182173988
 20
217.8687070058329
 30
0.0
  0
VERTEX
  5
404
330
3F4
100
AcDbEntity
  8
LINIE
100
AcDbVertex
100
AcDb2dVertex
 10
143.8925051025359
 20
217.8357985363944
 30
0.0
  0
VERTEX
  5
405
330
3F4
100
AcDbEntity
  8
LINIE
100
AcDbVertex
100
AcDb2dVertex
 10
143.8806071958748
 20
217.8022747980101
 30
0.0
  0
VERTEX
  5
406
330
3F4
100
AcDbEntity
  8
LINIE
100
AcDbVertex
100
AcDb2dVertex
 10
143.868482270023
 20
217.7681183563216
 30
0.0
  0
VERTEX
  5
407
330
3F4
100
AcDbEntity
  8
LINIE
100
AcDbVertex
100
AcDb2dVertex
 10
143.8561236567108
 20
217.7333105848773
 30
0.0
  0
VERTEX
  5
408
330
3F4
100
AcDbEntity
  8
LINIE
100
AcDbVertex
100
AcDb2dVertex
 10
143.8435246131627
 20
217.6978322611792
 30
0.0
  0
VERTEX
  5
409
330
3F4
100
AcDbEntity
  8
LINIE
100
AcDbVertex
100
AcDb2dVertex
 10
143.8306780240742
 20
217.6616634176715
 30
0.0
  0
VERTEX
  5
40A
330
3F4
100
AcDbEntity
  8
LINIE
100
AcDbVertex
100
AcDb2dVertex
 10
143.8175765506236
 20
217.6247836397632
 30
0.0
  0
VERTEX
  5
40B
330
3F4
100
AcDbEntity
  8
LINIE
100
AcDbVertex
100
AcDb2dVertex
 10
143.8042124814598
 20
217.5871710227473
 30
0.0
  0
VERTEX
  5
40C
330
3F4
100
AcDbEntity
  8
LINIE
100
AcDbVertex
100
AcDb2dVertex
 10
143.7905779189674
 20
217.5488033638938
 30
0.0
  0
VERTEX
  5
40D
330
3F4
100
AcDbEntity
  8
LINIE
100
AcDbVertex
100
AcDb2dVertex
 10
143.7766644812433
 20
217.5096574173911
 30
0.0
  0
VERTEX
  5
40E
330
3F4
100
AcDbEntity
  8
LINIE
100
AcDbVertex
100
AcDb2dVertex
 10
143.7624636001197
 20
217.4697087453349
 30
0.0
  0
SEQEND
  5
3F7
330
3F4
100
AcDbEntity
  8
LINIE
  0
POLYLINE
  5
40F
330
6C
100
AcDbEntity
  8
LINIE
100
AcDb2dPolyline
 66
     1
 10
0.0
 20
0.0
 30
0.0
 70
   128
  0
VERTEX
  5
410
330
40F
100
AcDbEntity
  8
LINIE
100
AcDbVertex
100
AcDb2dVertex
 10
146.4459146640507
 20
220.1531598092659
 30
0.0
  0
VERTEX
  5
411
330
40F
100
AcDbEntity
  8
LINIE
100
AcDbVertex
100
AcDb2dVertex
 10
146.4059659919945
 20
220.1389589281423
 30
0.0
  0
VERTEX
  5
413
330
40F
100
AcDbEntity
  8
LINIE
100
AcDbVertex
100
AcDb2dVertex
 10
146.3668200454918
 20
220.1250454904182
 30
0.0
  0
VERTEX
  5
414
330
40F
100
AcDbEntity
  8
LINIE
100
AcDbVertex
100
AcDb2dVertex
 10
146.3284523866383
 20
220.1114109279258
 30
0.0
  0
VERTEX
  5
415
330
40F
100
AcDbEntity
  8
LINIE
100
AcDbVertex
100
AcDb2dVertex
 10
146.2908397696225
 20
220.0980468587621
 30
0.0
  0
VERTEX
  5
416
330
40F
100
AcDbEntity
  8
LINIE
100
AcDbVertex
100
AcDb2dVertex
 10
146.2539599917142
 20
220.0849453853114
 30
0.0
  0
VERTEX
  5
417
330
40F
100
AcDbEntity
  8
LINIE
100
AcDbVertex
100
AcDb2dVertex
 10
146.2177911482064
 20
220.0720987962229
 30
0.0
  0
VERTEX
  5
418
330
40F
100
AcDbEntity
  8
LINIE
100
AcDbVertex
100
AcDb2dVertex
 10
146.1823128245083
 20
220.0594997526748
 30
0.0
  0
VERTEX
  5
419
330
40F
100
AcDbEntity
  8
LINIE
100
AcDbVertex
100
AcDb2dVertex
 10
146.147505053064
 20
220.0471411393626
 30
0.0
  0
VERTEX
  5
41A
330
40F
100
AcDbEntity
  8
LINIE
100
AcDbVertex
100
AcDb2dVertex
 10
146.1133486113755
 20
220.0350162135108
 30
0.0
  0
VERTEX
  5
41B
330
40F
100
AcDbEntity
  8
LINIE
100
AcDbVertex
100
AcDb2dVertex
 10
146.0798248729912
 20
220.0231183068497
 30
0.0
  0
VERTEX
  5
41C
330
40F
100
AcDbEntity
  8
LINIE
100
AcDbVertex
100
AcDb2dVertex
 10
146.0469164035527
 20
220.0114412353976
 30
0.0
  0
VERTEX
  5
41D
330
40F
100
AcDbEntity
  8
LINIE
100
AcDbVertex
100
AcDb2dVertex
 10
146.0146056196896
 20
219.9999787779196
 30
0.0
  0
VERTEX
  5
41E
330
40F
100
AcDbEntity
  8
LINIE
100
AcDbVertex
100
AcDb2dVertex
 10
145.9828764281479
 20
219.9887251974685
 30
0.0
  0
VERTEX
  5
41F
330
40F
100
AcDbEntity
  8
LINIE
100
AcDbVertex
100
AcDb2dVertex
 10
145.9517124376503
 20
219.9776747570975
 30
0.0
  0
VERTEX
  5
420
330
40F
100
AcDbEntity
  8
LINIE
100
AcDbVertex
100
AcDb2dVertex
 10
145.9210987470356
 20
219.9668220178826
 30
0.0
  0
VERTEX
  5
421
330
40F
100
AcDbEntity
  8
LINIE
100
AcDbVertex
100
AcDb2dVertex
 10
145.8910201571194
 20
219.9561617644175
 30
0.0
  0
VERTEX
  5
422
330
40F
100
AcDbEntity
  8
LINIE
100
AcDbVertex
100
AcDb2dVertex
 10
145.8614625117985
 20
219.9456888930543
 30
0.0
  0
VERTEX
  5
423
330
40F
100
AcDbEntity
  8
LINIE
100
AcDbVertex
100
AcDb2dVertex
 10
145.8324121020047
 20
219.9353985236628
 30
0.0
  0
VERTEX
  5
424
330
40F
100
AcDbEntity
  8
LINIE
100
AcDbVertex
100
AcDb2dVertex
 10
145.8038552186696
 20
219.9252859251244
 30
0.0
  0
VERTEX
  5
425
330
40F
100
AcDbEntity
  8
LINIE
100
AcDbVertex
100
AcDb2dVertex
 10
145.7757791958062
 20
219.9153465339585
 30
0.0
  0
VERTEX
  5
426
330
40F
100
AcDbEntity
  8
LINIE
100
AcDbVertex
100
AcDb2dVertex
 10
145.7481715164391
 20
219.9055759543224
 30
0.0
  0
VERTEX
  5
427
330
40F
100
AcDbEntity
  8
LINIE
100
AcDbVertex
100
AcDb2dVertex
 10
145.7210199616162
 20
219.8959699207588
 30
0.0
  0
VERTEX
  5
428
330
40F
100
AcDbEntity
  8
LINIE
100
AcDbVertex
100
AcDb2dVertex
 10
145.6943130574433
 20
219.8865242981954
 30
0.0
  0
VERTEX
  5
429
330
40F
100
AcDbEntity
  8
LINIE
100
AcDbVertex
100
AcDb2dVertex
 10
145.6680393300263
 20
219.8772351378246
 30
0.0
  0
SEQEND
  5
412
330
40F
100
AcDbEntity
  8
LINIE
  0
POLYLINE
  5
42A
330
6C
100
AcDbEntity
  8
LINIE
100
AcDb2dPolyline
 66
     1
 10
0.0
 20
0.0
 30
0.0
 70
   128
  0
VERTEX
  5
42B
330
42A
100
AcDbEntity
  8
LINIE
100
AcDbVertex
100
AcDb2dVertex
 10
145.6680393300263
 20
219.4374568322344
 30
0.0
  0
VERTEX
  5
42C
330
42A
100
AcDbEntity
  8
LINIE
100
AcDbVertex
100
AcDb2dVertex
 10
145.6943130574433
 20
219.4281676718636
 30
0.0
  0
VERTEX
  5
42E
330
42A
100
AcDbEntity
  8
LINIE
100
AcDbVertex
100
AcDb2dVertex
 10
145.7210199616162
 20
219.4187220493002
 30
0.0
  0
VERTEX
  5
42F
330
42A
100
AcDbEntity
  8
LINIE
100
AcDbVertex
100
AcDb2dVertex
 10
145.7481715164391
 20
219.4091160157366
 30
0.0
  0
VERTEX
  5
430
330
42A
100
AcDbEntity
  8
LINIE
100
AcDbVertex
100
AcDb2dVertex
 10
145.7757791958062
 20
219.3993454361005
 30
0.0
  0
VERTEX
  5
431
330
42A
100
AcDbEntity
  8
LINIE
100
AcDbVertex
100
AcDb2dVertex
 10
145.8038552186696
 20
219.3894060449345
 30
0.0
  0
VERTEX
  5
432
330
42A
100
AcDbEntity
  8
LINIE
100
AcDbVertex
100
AcDb2dVertex
 10
145.8324121020047
 20
219.3792934463961
 30
0.0
  0
VERTEX
  5
433
330
42A
100
AcDbEntity
  8
LINIE
100
AcDbVertex
100
AcDb2dVertex
 10
145.8614625117985
 20
219.3690030770047
 30
0.0
  0
VERTEX
  5
434
330
42A
100
AcDbEntity
  8
LINIE
100
AcDbVertex
100
AcDb2dVertex
 10
145.8910201571194
 20
219.3585302056415
 30
0.0
  0
VERTEX
  5
435
330
42A
100
AcDbEntity
  8
LINIE
100
AcDbVertex
100
AcDb2dVertex
 10
145.9210987470356
 20
219.3478699521763
 30
0.0
  0
VERTEX
  5
436
330
42A
100
AcDbEntity
  8
LINIE
100
AcDbVertex
100
AcDb2dVertex
 10
145.9517124376503
 20
219.3370172129615
 30
0.0
  0
VERTEX
  5
437
330
42A
100
AcDbEntity
  8
LINIE
100
AcDbVertex
100
AcDb2dVertex
 10
145.9828764281479
 20
219.3259667725904
 30
0.0
  0
VERTEX
  5
438
330
42A
100
AcDbEntity
  8
LINIE
100
AcDbVertex
100
AcDb2dVertex
 10
146.0146056196896
 20
219.3147131921394
 30
0.0
  0
VERTEX
  5
439
330
42A
100
AcDbEntity
  8
LINIE
100
AcDbVertex
100
AcDb2dVertex
 10
146.0469164035527
 20
219.3032507346614
 30
0.0
  0
VERTEX
  5
43A
330
42A
100
AcDbEntity
  8
LINIE
100
AcDbVertex
100
AcDb2dVertex
 10
146.0798248729912
 20
219.2915736632092
 30
0.0
  0
VERTEX
  5
43B
330
42A
100
AcDbEntity
  8
LINIE
100
AcDbVertex
100
AcDb2dVertex
 10
146.1133486113755
 20
219.2796757565482
 30
0.0
  0
VERTEX
  5
43C
330
42A
100
AcDbEntity
  8
LINIE
100
AcDbVertex
100
AcDb2dVertex
 10
146.147505053064
 20
219.2675508306964
 30
0.0
  0
VERTEX
  5
43D
330
42A
100
AcDbEntity
  8
LINIE
100
AcDbVertex
100
AcDb2dVertex
 10
146.1823128245083
 20
219.2551922173841
 30
0.0
  0
VERTEX
  5
43E
330
42A
100
AcDbEntity
  8
LINIE
100
AcDbVertex
100
AcDb2dVertex
 10
146.2177911482064
 20
219.242593173836
 30
0.0
  0
VERTEX
  5
43F
330
42A
100
AcDbEntity
  8
LINIE
100
AcDbVertex
100
AcDb2dVertex
 10
146.2539599917142
 20
219.2297465847476
 30
0.0
  0
VERTEX
  5
440
330
42A
100
AcDbEntity
  8
LINIE
100
AcDbVertex
100
AcDb2dVertex
 10
146.2908397696225
 20
219.2166451112969
 30
0.0
  0
VERTEX
  5
441
330
42A
100
AcDbEntity
  8
LINIE
100
AcDbVertex
100
AcDb2dVertex
 10
146.3284523866383
 20
219.2032810421331
 30
0.0
  0
VERTEX
  5
442
330
42A
100
AcDbEntity
  8
LINIE
100
AcDbVertex
100
AcDb2dVertex
 10
146.3668200454918
 20
219.1896464796407
 30
0.0
  0
VERTEX
  5
443
330
42A
100
AcDbEntity
  8
LINIE
100
AcDbVertex
100
AcDb2dVertex
 10
146.4059659919945
 20
219.1757330419166
 30
0.0
  0
VERTEX
  5
444
330
42A
100
AcDbEntity
  8
LINIE
100
AcDbVertex
100
AcDb2dVertex
 10
146.4459146640507
 20
219.1615321607931
 30
0.0
  0
SEQEND
  5
42D
330
42A
100
AcDbEntity
  8
LINIE
  0
POLYLINE
  5
445
330
6C
100
AcDbEntity
  8
LINIE
100
AcDb2dPolyline
 66
     1
 10
0.0
 20
0.0
 30
0.0
 70
   128
  0
VERTEX
  5
446
330
445
100
AcDbEntity
  8
LINIE
100
AcDbVertex
100
AcDb2dVertex
 10
143.7624636001197
 20
221.8449832247241
 30
0.0
  0
VERTEX
  5
447
330
445
100
AcDbEntity
  8
LINIE
100
AcDbVertex
100
AcDb2dVertex
 10
143.7766644812433
 20
221.8050345526679
 30
0.0
  0
VERTEX
  5
449
330
445
100
AcDbEntity
  8
LINIE
100
AcDbVertex
100
AcDb2dVertex
 10
143.7905779189674
 20
221.7658886061652
 30
0.0
  0
VERTEX
  5
44A
330
445
100
AcDbEntity
  8
LINIE
100
AcDbVertex
100
AcDb2dVertex
 10
143.8042124814598
 20
221.7275209473116
 30
0.0
  0
VERTEX
  5
44B
330
445
100
AcDbEntity
  8
LINIE
100
AcDbVertex
100
AcDb2dVertex
 10
143.8175765506236
 20
221.6899083302958
 30
0.0
  0
VERTEX
  5
44C
330
445
100
AcDbEntity
  8
LINIE
100
AcDbVertex
100
AcDb2dVertex
 10
143.8306780240742
 20
221.6530285523875
 30
0.0
  0
VERTEX
  5
44D
330
445
100
AcDbEntity
  8
LINIE
100
AcDbVertex
100
AcDb2dVertex
 10
143.8435246131627
 20
221.6168597088797
 30
0.0
  0
VERTEX
  5
44E
330
445
100
AcDbEntity
  8
LINIE
100
AcDbVertex
100
AcDb2dVertex
 10
143.8561236567108
 20
221.5813813851817
 30
0.0
  0
VERTEX
  5
44F
330
445
100
AcDbEntity
  8
LINIE
100
AcDbVertex
100
AcDb2dVertex
 10
143.868482270023
 20
221.5465736137374
 30
0.0
  0
VERTEX
  5
450
330
445
100
AcDbEntity
  8
LINIE
100
AcDbVertex
100
AcDb2dVertex
 10
143.8806071958748
 20
221.5124171720488
 30
0.0
  0
VERTEX
  5
451
330
445
100
AcDbEntity
  8
LINIE
100
AcDbVertex
100
AcDb2dVertex
 10
143.8925051025359
 20
221.4788934336646
 30
0.0
  0
VERTEX
  5
452
330
445
100
AcDbEntity
  8
LINIE
100
AcDbVertex
100
AcDb2dVertex
 10
143.904182173988
 20
221.445984964226
 30
0.0
  0
VERTEX
  5
453
330
445
100
AcDbEntity
  8
LINIE
100
AcDbVertex
100
AcDb2dVertex
 10
143.9156446314661
 20
221.4136741803629
 30
0.0
  0
VERTEX
  5
454
330
445
100
AcDbEntity
  8
LINIE
100
AcDbVertex
100
AcDb2dVertex
 10
143.9268982119171
 20
221.3819449888213
 30
0.0
  0
VERTEX
  5
455
330
445
100
AcDbEntity
  8
LINIE
100
AcDbVertex
100
AcDb2dVertex
 10
143.9379486522881
 20
221.3507809983237
 30
0.0
  0
VERTEX
  5
456
330
445
100
AcDbEntity
  8
LINIE
100
AcDbVertex
100
AcDb2dVertex
 10
143.948801391503
 20
221.320167307709
 30
0.0
  0
VERTEX
  5
457
330
445
100
AcDbEntity
  8
LINIE
100
AcDbVertex
100
AcDb2dVertex
 10
143.9594616449682
 20
221.2900887177928
 30
0.0
  0
VERTEX
  5
458
330
445
100
AcDbEntity
  8
LINIE
100
AcDbVertex
100
AcDb2dVertex
 10
143.9699345163313
 20
221.2605310724719
 30
0.0
  0
VERTEX
  5
459
330
445
100
AcDbEntity
  8
LINIE
100
AcDbVertex
100
AcDb2dVertex
 10
143.9802248857228
 20
221.231480662678
 30
0.0
  0
VERTEX
  5
45A
330
445
100
AcDbEntity
  8
LINIE
100
AcDbVertex
100
AcDb2dVertex
 10
143.9903374842612
 20
221.2029237793429
 30
0.0
  0
VERTEX
  5
45B
330
445
100
AcDbEntity
  8
LINIE
100
AcDbVertex
100
AcDb2dVertex
 10
144.0002768754272
 20
221.1748477564795
 30
0.0
  0
VERTEX
  5
45C
330
445
100
AcDbEntity
  8
LINIE
100
AcDbVertex
100
AcDb2dVertex
 10
144.0100474550632
 20
221.1472400771125
 30
0.0
  0
VERTEX
  5
45D
330
445
100
AcDbEntity
  8
LINIE
100
AcDbVertex
100
AcDb2dVertex
 10
144.0196534886269
 20
221.1200885222895
 30
0.0
  0
VERTEX
  5
45E
330
445
100
AcDbEntity
  8
LINIE
100
AcDbVertex
100
AcDb2dVertex
 10
144.0290991111902
 20
221.0933816181166
 30
0.0
  0
VERTEX
  5
45F
330
445
100
AcDbEntity
  8
LINIE
100
AcDbVertex
100
AcDb2dVertex
 10
144.0383882715611
 20
221.0671078906996
 30
0.0
  0
SEQEND
  5
448
330
445
100
AcDbEntity
  8
LINIE
  0
POLYLINE
  5
460
330
6C
100
AcDbEntity
  8
LINIE
100
AcDb2dPolyline
 66
     1
 10
0.0
 20
0.0
 30
0.0
 70
   128
  0
VERTEX
  5
461
330
460
100
AcDbEntity
  8
LINIE
100
AcDbVertex
100
AcDb2dVertex
 10
144.4781665771512
 20
221.0671078906996
 30
0.0
  0
VERTEX
  5
462
330
460
100
AcDbEntity
  8
LINIE
100
AcDbVertex
100
AcDb2dVertex
 10
144.487455737522
 20
221.0933816181166
 30
0.0
  0
VERTEX
  5
464
330
460
100
AcDbEntity
  8
LINIE
100
AcDbVertex
100
AcDb2dVertex
 10
144.4969013600854
 20
221.1200885222895
 30
0.0
  0
VERTEX
  5
465
330
460
100
AcDbEntity
  8
LINIE
100
AcDbVertex
100
AcDb2dVertex
 10
144.506507393649
 20
221.1472400771125
 30
0.0
  0
VERTEX
  5
466
330
460
100
AcDbEntity
  8
LINIE
100
AcDbVertex
100
AcDb2dVertex
 10
144.5162779732851
 20
221.1748477564795
 30
0.0
  0
VERTEX
  5
467
330
460
100
AcDbEntity
  8
LINIE
100
AcDbVertex
100
AcDb2dVertex
 10
144.5262173644511
 20
221.2029237793429
 30
0.0
  0
VERTEX
  5
468
330
460
100
AcDbEntity
  8
LINIE
100
AcDbVertex
100
AcDb2dVertex
 10
144.5363299629895
 20
221.231480662678
 30
0.0
  0
VERTEX
  5
469
330
460
100
AcDbEntity
  8
LINIE
100
AcDbVertex
100
AcDb2dVertex
 10
144.5466203323809
 20
221.2605310724719
 30
0.0
  0
VERTEX
  5
46A
330
460
100
AcDbEntity
  8
LINIE
100
AcDbVertex
100
AcDb2dVertex
 10
144.5570932037441
 20
221.2900887177928
 30
0.0
  0
VERTEX
  5
46B
330
460
100
AcDbEntity
  8
LINIE
100
AcDbVertex
100
AcDb2dVertex
 10
144.5677534572093
 20
221.320167307709
 30
0.0
  0
VERTEX
  5
46C
330
460
100
AcDbEntity
  8
LINIE
100
AcDbVertex
100
AcDb2dVertex
 10
144.5786061964241
 20
221.3507809983237
 30
0.0
  0
VERTEX
  5
46D
330
460
100
AcDbEntity
  8
LINIE
100
AcDbVertex
100
AcDb2dVertex
 10
144.5896566367952
 20
221.3819449888213
 30
0.0
  0
VERTEX
  5
46E
330
460
100
AcDbEntity
  8
LINIE
100
AcDbVertex
100
AcDb2dVertex
 10
144.6009102172462
 20
221.4136741803629
 30
0.0
  0
VERTEX
  5
46F
330
460
100
AcDbEntity
  8
LINIE
100
AcDbVertex
100
AcDb2dVertex
 10
144.6123726747242
 20
221.445984964226
 30
0.0
  0
VERTEX
  5
470
330
460
100
AcDbEntity
  8
LINIE
100
AcDbVertex
100
AcDb2dVertex
 10
144.6240497461764
 20
221.4788934336646
 30
0.0
  0
VERTEX
  5
471
330
460
100
AcDbEntity
  8
LINIE
100
AcDbVertex
100
AcDb2dVertex
 10
144.6359476528374
 20
221.5124171720488
 30
0.0
  0
VERTEX
  5
472
330
460
100
AcDbEntity
  8
LINIE
100
AcDbVertex
100
AcDb2dVertex
 10
144.6480725786893
 20
221.5465736137374
 30
0.0
  0
VERTEX
  5
473
330
460
100
AcDbEntity
  8
LINIE
100
AcDbVertex
100
AcDb2dVertex
 10
144.6604311920015
 20
221.5813813851817
 30
0.0
  0
VERTEX
  5
474
330
460
100
AcDbEntity
  8
LINIE
100
AcDbVertex
100
AcDb2dVertex
 10
144.6730302355496
 20
221.6168597088797
 30
0.0
  0
VERTEX
  5
475
330
460
100
AcDbEntity
  8
LINIE
100
AcDbVertex
100
AcDb2dVertex
 10
144.685876824638
 20
221.6530285523875
 30
0.0
  0
VERTEX
  5
476
330
460
100
AcDbEntity
  8
LINIE
100
AcDbVertex
100
AcDb2dVertex
 10
144.6989782980887
 20
221.6899083302958
 30
0.0
  0
VERTEX
  5
477
330
460
100
AcDbEntity
  8
LINIE
100
AcDbVertex
100
AcDb2dVertex
 10
144.7123423672525
 20
221.7275209473116
 30
0.0
  0
VERTEX
  5
478
330
460
100
AcDbEntity
  8
LINIE
100
AcDbVertex
100
AcDb2dVertex
 10
144.7259769297449
 20
221.7658886061652
 30
0.0
  0
VERTEX
  5
479
330
460
100
AcDbEntity
  8
LINIE
100
AcDbVertex
100
AcDb2dVertex
 10
144.739890367469
 20
221.8050345526679
 30
0.0
  0
VERTEX
  5
47A
330
460
100
AcDbEntity
  8
LINIE
100
AcDbVertex
100
AcDb2dVertex
 10
144.7540912485925
 20
221.8449832247241
 30
0.0
  0
SEQEND
  5
463
330
460
100
AcDbEntity
  8
LINIE
  0
LINE
  5
47B
330
6C
100
AcDbEntity
  8
LINIE
100
AcDbLine
 10
145.026495613834
 20
220.4255641745074
 30
0.0
 11
144.8284194327203
 21
220.2274879933937
 31
0.0
  0
POLYLINE
  5
47C
330
6C
100
AcDbEntity
  8
LINIE
100
AcDb2dPolyline
 66
     1
 10
0.0
 20
0.0
 30
0.0
 70
   128
  0
VERTEX
  5
47D
330
47C
100
AcDbEntity
  8
LINIE
100
AcDbVertex
100
AcDb2dVertex
 10
145.3893262229172
 20
219.8169919969185
 30
0.0
  0
VERTEX
  5
47E
330
47C
100
AcDbEntity
  8
LINIE
100
AcDbVertex
100
AcDb2dVertex
 10
145.3601730696169
 20
219.8116427408202
 30
0.0
  0
VERTEX
  5
480
330
47C
100
AcDbEntity
  8
LINIE
100
AcDbVertex
100
AcDb2dVertex
 10
145.3306873969046
 20
219.8081517154022
 30
0.0
  0
VERTEX
  5
481
330
47C
100
AcDbEntity
  8
LINIE
100
AcDbVertex
100
AcDb2dVertex
 10
145.3001484356133
 20
219.8065141057266
 30
0.0
  0
VERTEX
  5
482
330
47C
100
AcDbEntity
  8
LINIE
100
AcDbVertex
100
AcDb2dVertex
 10
145.2688814780919
 20
219.806844287519
 30
0.0
  0
VERTEX
  5
483
330
47C
100
AcDbEntity
  8
LINIE
100
AcDbVertex
100
AcDb2dVertex
 10
145.23723685064
 20
219.8092586388482
 30
0.0
  0
VERTEX
  5
484
330
47C
100
AcDbEntity
  8
LINIE
100
AcDbVertex
100
AcDb2dVertex
 10
145.2055644325224
 20
219.8138723084374
 30
0.0
  0
VERTEX
  5
485
330
47C
100
AcDbEntity
  8
LINIE
100
AcDbVertex
100
AcDb2dVertex
 10
145.1741977117268
 20
219.8207067446454
 30
0.0
  0
VERTEX
  5
486
330
47C
100
AcDbEntity
  8
LINIE
100
AcDbVertex
100
AcDb2dVertex
 10
145.1434478990046
 20
219.8296243073089
 30
0.0
  0
VERTEX
  5
487
330
47C
100
AcDbEntity
  8
LINIE
100
AcDbVertex
100
AcDb2dVertex
 10
145.1136250875203
 20
219.8404719428761
 30
0.0
  0
VERTEX
  5
488
330
47C
100
AcDbEntity
  8
LINIE
100
AcDbVertex
100
AcDb2dVertex
 10
145.085039072415
 20
219.853096597795
 30
0.0
  0
VERTEX
  5
489
330
47C
100
AcDbEntity
  8
LINIE
100
AcDbVertex
100
AcDb2dVertex
 10
145.0573634437529
 20
219.8676861012025
 30
0.0
  0
VERTEX
  5
48A
330
47C
100
AcDbEntity
  8
LINIE
100
AcDbVertex
100
AcDb2dVertex
 10
145.0296215794293
 20
219.8848672704442
 30
0.0
  0
VERTEX
  5
48B
330
47C
100
AcDbEntity
  8
LINIE
100
AcDbVertex
100
AcDb2dVertex
 10
145.0023186288087
 20
219.9045533248825
 30
0.0
  0
VERTEX
  5
48C
330
47C
100
AcDbEntity
  8
LINIE
100
AcDbVertex
100
AcDb2dVertex
 10
144.9760141304938
 20
219.9266298608525
 30
0.0
  0
VERTEX
  5
48D
330
47C
100
AcDbEntity
  8
LINIE
100
AcDbVertex
100
AcDb2dVertex
 10
144.9512392363755
 20
219.9509503626867
 30
0.0
  0
VERTEX
  5
48E
330
47C
100
AcDbEntity
  8
LINIE
100
AcDbVertex
100
AcDb2dVertex
 10
144.92836245217
 20
219.9771186457617
 30
0.0
  0
VERTEX
  5
48F
330
47C
100
AcDbEntity
  8
LINIE
100
AcDbVertex
100
AcDb2dVertex
 10
144.9076948396174
 20
220.0046317027553
 30
0.0
  0
VERTEX
  5
490
330
47C
100
AcDbEntity
  8
LINIE
100
AcDbVertex
100
AcDb2dVertex
 10
144.8895462683646
 20
220.0329886870129
 30
0.0
  0
VERTEX
  5
491
330
47C
100
AcDbEntity
  8
LINIE
100
AcDbVertex
100
AcDb2dVertex
 10
144.8735980398265
 20
220.062741314028
 30
0.0
  0
VERTEX
  5
492
330
47C
100
AcDbEntity
  8
LINIE
100
AcDbVertex
100
AcDb2dVertex
 10
144.8596291697828
 20
220.0942471744163
 30
0.0
  0
VERTEX
  5
493
330
47C
100
AcDbEntity
  8
LINIE
100
AcDbVertex
100
AcDb2dVertex
 10
144.8479311249463
 20
220.1269915448172
 30
0.0
  0
VERTEX
  5
494
330
47C
100
AcDbEntity
  8
LINIE
100
AcDbVertex
100
AcDb2dVertex
 10
144.8387928015796
 20
220.1604598508819
 30
0.0
  0
VERTEX
  5
495
330
47C
100
AcDbEntity
  8
LINIE
100
AcDbVertex
100
AcDb2dVertex
 10
144.8323183215467
 20
220.1941390083773
 30
0.0
  0
VERTEX
  5
496
330
47C
100
AcDbEntity
  8
LINIE
100
AcDbVertex
100
AcDb2dVertex
 10
144.8284194327203
 20
220.2274879933937
 30
0.0
  0
SEQEND
  5
47F
330
47C
100
AcDbEntity
  8
LINIE
  0
ARC
  5
497
330
6C
100
AcDbEntity
  8
LINIE
100
AcDbCircle
 10
145.3114128626941
 20
220.2807906957985
 30
0.0
 40
0.3038372272770248
100
AcDbArc
 50
186.9025612440392
 51
279.5360590011561
  0
ARC
  5
498
330
6C
100
AcDbEntity
  8
LINIE
100
AcDbCircle
 10
144.8817221351251
 20
220.7104814233675
 30
0.0
 40
0.3038372272770249
100
AcDbArc
 50
170.4639409988438
 51
263.0974387559611
  0
POLYLINE
  5
499
330
6C
100
AcDbEntity
  8
LINIE
100
AcDb2dPolyline
 66
     1
 10
0.0
 20
0.0
 30
0.0
 70
   128
  0
VERTEX
  5
49A
330
499
100
AcDbEntity
  8
LINIE
100
AcDbVertex
100
AcDb2dVertex
 10
144.8284194327203
 20
220.2274879933937
 30
0.0
  0
VERTEX
  5
49B
330
499
100
AcDbEntity
  8
LINIE
100
AcDbVertex
100
AcDb2dVertex
 10
144.795070447704
 20
220.2313868822201
 30
0.0
  0
VERTEX
  5
49D
330
499
100
AcDbEntity
  8
LINIE
100
AcDbVertex
100
AcDb2dVertex
 10
144.7613912902085
 20
220.237861362253
 30
0.0
  0
VERTEX
  5
49E
330
499
100
AcDbEntity
  8
LINIE
100
AcDbVertex
100
AcDb2dVertex
 10
144.7279229841439
 20
220.2469996856196
 30
0.0
  0
VERTEX
  5
49F
330
499
100
AcDbEntity
  8
LINIE
100
AcDbVertex
100
AcDb2dVertex
 10
144.695178613743
 20
220.2586977304561
 30
0.0
  0
VERTEX
  5
4A0
330
499
100
AcDbEntity
  8
LINIE
100
AcDbVertex
100
AcDb2dVertex
 10
144.6636727533547
 20
220.2726666004999
 30
0.0
  0
VERTEX
  5
4A1
330
499
100
AcDbEntity
  8
LINIE
100
AcDbVertex
100
AcDb2dVertex
 10
144.6339201263396
 20
220.2886148290379
 30
0.0
  0
VERTEX
  5
4A2
330
499
100
AcDbEntity
  8
LINIE
100
AcDbVertex
100
AcDb2dVertex
 10
144.6055631420819
 20
220.3067634002907
 30
0.0
  0
VERTEX
  5
4A3
330
499
100
AcDbEntity
  8
LINIE
100
AcDbVertex
100
AcDb2dVertex
 10
144.5780500850884
 20
220.3274310128434
 30
0.0
  0
VERTEX
  5
4A4
330
499
100
AcDbEntity
  8
LINIE
100
AcDbVertex
100
AcDb2dVertex
 10
144.5518818020133
 20
220.3503077970488
 30
0.0
  0
VERTEX
  5
4A5
330
499
100
AcDbEntity
  8
LINIE
100
AcDbVertex
100
AcDb2dVertex
 10
144.5275613001792
 20
220.3750826911671
 30
0.0
  0
VERTEX
  5
4A6
330
499
100
AcDbEntity
  8
LINIE
100
AcDbVertex
100
AcDb2dVertex
 10
144.5054847642092
 20
220.401387189482
 30
0.0
  0
VERTEX
  5
4A7
330
499
100
AcDbEntity
  8
LINIE
100
AcDbVertex
100
AcDb2dVertex
 10
144.4857987097708
 20
220.4286901401026
 30
0.0
  0
VERTEX
  5
4A8
330
499
100
AcDbEntity
  8
LINIE
100
AcDbVertex
100
AcDb2dVertex
 10
144.4686175405291
 20
220.4564320044263
 30
0.0
  0
VERTEX
  5
4A9
330
499
100
AcDbEntity
  8
LINIE
100
AcDbVertex
100
AcDb2dVertex
 10
144.4540280371217
 20
220.4841076330884
 30
0.0
  0
VERTEX
  5
4AA
330
499
100
AcDbEntity
  8
LINIE
100
AcDbVertex
100
AcDb2dVertex
 10
144.4414033822028
 20
220.5126936481936
 30
0.0
  0
VERTEX
  5
4AB
330
499
100
AcDbEntity
  8
LINIE
100
AcDbVertex
100
AcDb2dVertex
 10
144.4305557466356
 20
220.542516459678
 30
0.0
  0
VERTEX
  5
4AC
330
499
100
AcDbEntity
  8
LINIE
100
AcDbVertex
100
AcDb2dVertex
 10
144.421638183972
 20
220.5732662724002
 30
0.0
  0
VERTEX
  5
4AD
330
499
100
AcDbEntity
  8
LINIE
100
AcDbVertex
100
AcDb2dVertex
 10
144.414803747764
 20
220.6046329931958
 30
0.0
  0
VERTEX
  5
4AE
330
499
100
AcDbEntity
  8
LINIE
100
AcDbVertex
100
AcDb2dVertex
 10
144.4101900781749
 20
220.6363054113133
 30
0.0
  0
VERTEX
  5
4AF
330
499
100
AcDbEntity
  8
LINIE
100
AcDbVertex
100
AcDb2dVertex
 10
144.4077757268456
 20
220.6679500387652
 30
0.0
  0
VERTEX
  5
4B0
330
499
100
AcDbEntity
  8
LINIE
100
AcDbVertex
100
AcDb2dVertex
 10
144.4074455450533
 20
220.6992169962866
 30
0.0
  0
VERTEX
  5
4B1
330
499
100
AcDbEntity
  8
LINIE
100
AcDbVertex
100
AcDb2dVertex
 10
144.4090831547288
 20
220.7297559575779
 30
0.0
  0
VERTEX
  5
4B2
330
499
100
AcDbEntity
  8
LINIE
100
AcDbVertex
100
AcDb2dVertex
 10
144.4125741801468
 20
220.7592416302903
 30
0.0
  0
VERTEX
  5
4B3
330
499
100
AcDbEntity
  8
LINIE
100
AcDbVertex
100
AcDb2dVertex
 10
144.4179234362451
 20
220.7883947835906
 30
0.0
  0
SEQEND
  5
49C
330
499
100
AcDbEntity
  8
LINIE
  0
ARC
  5
4B4
330
6C
100
AcDbEntity
  8
LINIE
100
AcDbCircle
 10
145.3114128626941
 20
219.0339012742605
 30
0.0
 40
0.3038372272770248
100
AcDbArc
 50
80.46394099884386
 51
173.0974387559678
  0
POLYLINE
  5
4B5
330
6C
100
AcDbEntity
  8
LINIE
100
AcDb2dPolyline
 66
     1
 10
0.0
 20
0.0
 30
0.0
 70
   128
  0
VERTEX
  5
4B6
330
4B5
100
AcDbEntity
  8
LINIE
100
AcDbVertex
100
AcDb2dVertex
 10
144.8284194327203
 20
219.0872039766653
 30
0.0
  0
VERTEX
  5
4B7
330
4B5
100
AcDbEntity
  8
LINIE
100
AcDbVertex
100
AcDb2dVertex
 10
144.8323183215467
 20
219.1205529616816
 30
0.0
  0
VERTEX
  5
4B9
330
4B5
100
AcDbEntity
  8
LINIE
100
AcDbVertex
100
AcDb2dVertex
 10
144.8387928015796
 20
219.1542321191771
 30
0.0
  0
VERTEX
  5
4BA
330
4B5
100
AcDbEntity
  8
LINIE
100
AcDbVertex
100
AcDb2dVertex
 10
144.8479311249463
 20
219.1877004252417
 30
0.0
  0
VERTEX
  5
4BB
330
4B5
100
AcDbEntity
  8
LINIE
100
AcDbVertex
100
AcDb2dVertex
 10
144.8596291697828
 20
219.2204447956426
 30
0.0
  0
VERTEX
  5
4BC
330
4B5
100
AcDbEntity
  8
LINIE
100
AcDbVertex
100
AcDb2dVertex
 10
144.8735980398265
 20
219.2519506560309
 30
0.0
  0
VERTEX
  5
4BD
330
4B5
100
AcDbEntity
  8
LINIE
100
AcDbVertex
100
AcDb2dVertex
 10
144.8895462683646
 20
219.281703283046
 30
0.0
  0
VERTEX
  5
4BE
330
4B5
100
AcDbEntity
  8
LINIE
100
AcDbVertex
100
AcDb2dVertex
 10
144.9076948396174
 20
219.3100602673037
 30
0.0
  0
VERTEX
  5
4BF
330
4B5
100
AcDbEntity
  8
LINIE
100
AcDbVertex
100
AcDb2dVertex
 10
144.92836245217
 20
219.3375733242972
 30
0.0
  0
VERTEX
  5
4C0
330
4B5
100
AcDbEntity
  8
LINIE
100
AcDbVertex
100
AcDb2dVertex
 10
144.9512392363755
 20
219.3637416073723
 30
0.0
  0
VERTEX
  5
4C1
330
4B5
100
AcDbEntity
  8
LINIE
100
AcDbVertex
100
AcDb2dVertex
 10
144.9760141304938
 20
219.3880621092064
 30
0.0
  0
VERTEX
  5
4C2
330
4B5
100
AcDbEntity
  8
LINIE
100
AcDbVertex
100
AcDb2dVertex
 10
145.0023186288087
 20
219.4101386451764
 30
0.0
  0
VERTEX
  5
4C3
330
4B5
100
AcDbEntity
  8
LINIE
100
AcDbVertex
100
AcDb2dVertex
 10
145.0296215794293
 20
219.4298246996148
 30
0.0
  0
VERTEX
  5
4C4
330
4B5
100
AcDbEntity
  8
LINIE
100
AcDbVertex
100
AcDb2dVertex
 10
145.0573634437529
 20
219.4470058688565
 30
0.0
  0
VERTEX
  5
4C5
330
4B5
100
AcDbEntity
  8
LINIE
100
AcDbVertex
100
AcDb2dVertex
 10
145.085039072415
 20
219.4615953722639
 30
0.0
  0
VERTEX
  5
4C6
330
4B5
100
AcDbEntity
  8
LINIE
100
AcDbVertex
100
AcDb2dVertex
 10
145.1136250875203
 20
219.4742200271829
 30
0.0
  0
VERTEX
  5
4C7
330
4B5
100
AcDbEntity
  8
LINIE
100
AcDbVertex
100
AcDb2dVertex
 10
145.1434478990046
 20
219.48506766275
 30
0.0
  0
VERTEX
  5
4C8
330
4B5
100
AcDbEntity
  8
LINIE
100
AcDbVertex
100
AcDb2dVertex
 10
145.1741977117268
 20
219.4939852254136
 30
0.0
  0
VERTEX
  5
4C9
330
4B5
100
AcDbEntity
  8
LINIE
100
AcDbVertex
100
AcDb2dVertex
 10
145.2055644325224
 20
219.5008196616216
 30
0.0
  0
VERTEX
  5
4CA
330
4B5
100
AcDbEntity
  8
LINIE
100
AcDbVertex
100
AcDb2dVertex
 10
145.23723685064
 20
219.5054333312107
 30
0.0
  0
VERTEX
  5
4CB
330
4B5
100
AcDbEntity
  8
LINIE
100
AcDbVertex
100
AcDb2dVertex
 10
145.2688814780919
 20
219.50784768254
 30
0.0
  0
VERTEX
  5
4CC
330
4B5
100
AcDbEntity
  8
LINIE
100
AcDbVertex
100
AcDb2dVertex
 10
145.3001484356133
 20
219.5081778643324
 30
0.0
  0
VERTEX
  5
4CD
330
4B5
100
AcDbEntity
  8
LINIE
100
AcDbVertex
100
AcDb2dVertex
 10
145.3306873969046
 20
219.5065402546568
 30
0.0
  0
VERTEX
  5
4CE
330
4B5
100
AcDbEntity
  8
LINIE
100
AcDbVertex
100
AcDb2dVertex
 10
145.3601730696169
 20
219.5030492292388
 30
0.0
  0
VERTEX
  5
4CF
330
4B5
100
AcDbEntity
  8
LINIE
100
AcDbVertex
100
AcDb2dVertex
 10
145.3893262229172
 20
219.4976999731405
 30
0.0
  0
SEQEND
  5
4B8
330
4B5
100
AcDbEntity
  8
LINIE
  0
LINE
  5
4D0
330
6C
100
AcDbEntity
  8
LINIE
100
AcDbLine
 10
143.4900592348782
 20
218.8891277955516
 30
0.0
 11
143.6881354159919
 21
219.0872039766653
 31
0.0
  0
POLYLINE
  5
4D1
330
6C
100
AcDbEntity
  8
LINIE
100
AcDb2dPolyline
 66
     1
 10
0.0
 20
0.0
 30
0.0
 70
   128
  0
VERTEX
  5
4D2
330
4D1
100
AcDbEntity
  8
LINIE
100
AcDbVertex
100
AcDb2dVertex
 10
143.127228625795
 20
219.4976999731405
 30
0.0
  0
VERTEX
  5
4D3
330
4D1
100
AcDbEntity
  8
LINIE
100
AcDbVertex
100
AcDb2dVertex
 10
143.1563817790953
 20
219.5030492292388
 30
0.0
  0
VERTEX
  5
4D5
330
4D1
100
AcDbEntity
  8
LINIE
100
AcDbVertex
100
AcDb2dVertex
 10
143.1858674518077
 20
219.5065402546568
 30
0.0
  0
VERTEX
  5
4D6
330
4D1
100
AcDbEntity
  8
LINIE
100
AcDbVertex
100
AcDb2dVertex
 10
143.216406413099
 20
219.5081778643324
 30
0.0
  0
VERTEX
  5
4D7
330
4D1
100
AcDbEntity
  8
LINIE
100
AcDbVertex
100
AcDb2dVertex
 10
143.2476733706204
 20
219.50784768254
 30
0.0
  0
VERTEX
  5
4D8
330
4D1
100
AcDbEntity
  8
LINIE
100
AcDbVertex
100
AcDb2dVertex
 10
143.2793179980723
 20
219.5054333312107
 30
0.0
  0
VERTEX
  5
4D9
330
4D1
100
AcDbEntity
  8
LINIE
100
AcDbVertex
100
AcDb2dVertex
 10
143.3109904161898
 20
219.5008196616216
 30
0.0
  0
VERTEX
  5
4DA
330
4D1
100
AcDbEntity
  8
LINIE
100
AcDbVertex
100
AcDb2dVertex
 10
143.3423571369854
 20
219.4939852254136
 30
0.0
  0
VERTEX
  5
4DB
330
4D1
100
AcDbEntity
  8
LINIE
100
AcDbVertex
100
AcDb2dVertex
 10
143.3731069497077
 20
219.48506766275
 30
0.0
  0
VERTEX
  5
4DC
330
4D1
100
AcDbEntity
  8
LINIE
100
AcDbVertex
100
AcDb2dVertex
 10
143.402929761192
 20
219.4742200271829
 30
0.0
  0
VERTEX
  5
4DD
330
4D1
100
AcDbEntity
  8
LINIE
100
AcDbVertex
100
AcDb2dVertex
 10
143.4315157762972
 20
219.4615953722639
 30
0.0
  0
VERTEX
  5
4DE
330
4D1
100
AcDbEntity
  8
LINIE
100
AcDbVertex
100
AcDb2dVertex
 10
143.4591914049593
 20
219.4470058688565
 30
0.0
  0
VERTEX
  5
4DF
330
4D1
100
AcDbEntity
  8
LINIE
100
AcDbVertex
100
AcDb2dVertex
 10
143.486933269283
 20
219.4298246996148
 30
0.0
  0
VERTEX
  5
4E0
330
4D1
100
AcDbEntity
  8
LINIE
100
AcDbVertex
100
AcDb2dVertex
 10
143.5142362199036
 20
219.4101386451764
 30
0.0
  0
VERTEX
  5
4E1
330
4D1
100
AcDbEntity
  8
LINIE
100
AcDbVertex
100
AcDb2dVertex
 10
143.5405407182185
 20
219.3880621092064
 30
0.0
  0
VERTEX
  5
4E2
330
4D1
100
AcDbEntity
  8
LINIE
100
AcDbVertex
100
AcDb2dVertex
 10
143.5653156123368
 20
219.3637416073723
 30
0.0
  0
VERTEX
  5
4E3
330
4D1
100
AcDbEntity
  8
LINIE
100
AcDbVertex
100
AcDb2dVertex
 10
143.5881923965422
 20
219.3375733242972
 30
0.0
  0
VERTEX
  5
4E4
330
4D1
100
AcDbEntity
  8
LINIE
100
AcDbVertex
100
AcDb2dVertex
 10
143.6088600090949
 20
219.3100602673037
 30
0.0
  0
VERTEX
  5
4E5
330
4D1
100
AcDbEntity
  8
LINIE
100
AcDbVertex
100
AcDb2dVertex
 10
143.6270085803477
 20
219.281703283046
 30
0.0
  0
VERTEX
  5
4E6
330
4D1
100
AcDbEntity
  8
LINIE
100
AcDbVertex
100
AcDb2dVertex
 10
143.6429568088857
 20
219.2519506560309
 30
0.0
  0
VERTEX
  5
4E7
330
4D1
100
AcDbEntity
  8
LINIE
100
AcDbVertex
100
AcDb2dVertex
 10
143.6569256789295
 20
219.2204447956426
 30
0.0
  0
VERTEX
  5
4E8
330
4D1
100
AcDbEntity
  8
LINIE
100
AcDbVertex
100
AcDb2dVertex
 10
143.668623723766
 20
219.1877004252417
 30
0.0
  0
VERTEX
  5
4E9
330
4D1
100
AcDbEntity
  8
LINIE
100
AcDbVertex
100
AcDb2dVertex
 10
143.6777620471326
 20
219.1542321191771
 30
0.0
  0
VERTEX
  5
4EA
330
4D1
100
AcDbEntity
  8
LINIE
100
AcDbVertex
100
AcDb2dVertex
 10
143.6842365271655
 20
219.1205529616816
 30
0.0
  0
VERTEX
  5
4EB
330
4D1
100
AcDbEntity
  8
LINIE
100
AcDbVertex
100
AcDb2dVertex
 10
143.6881354159919
 20
219.0872039766653
 30
0.0
  0
SEQEND
  5
4D4
330
4D1
100
AcDbEntity
  8
LINIE
  0
ARC
  5
4EC
330
6C
100
AcDbEntity
  8
LINIE
100
AcDbCircle
 10
143.2051419860182
 20
219.0339012742605
 30
0.0
 40
0.3038372272770248
100
AcDbArc
 50
6.902561244039265
 51
99.53605900115613
  0
ARC
  5
4ED
330
6C
100
AcDbEntity
  8
LINIE
100
AcDbCircle
 10
143.6348327135872
 20
218.6042105466915
 30
0.0
 40
0.3038372272770249
100
AcDbArc
 50
350.4639409988438
 51
83.0974387559611
  0
POLYLINE
  5
4EE
330
6C
100
AcDbEntity
  8
LINIE
100
AcDb2dPolyline
 66
     1
 10
0.0
 20
0.0
 30
0.0
 70
   128
  0
VERTEX
  5
4EF
330
4EE
100
AcDbEntity
  8
LINIE
100
AcDbVertex
100
AcDb2dVertex
 10
143.6881354159919
 20
219.0872039766653
 30
0.0
  0
VERTEX
  5
4F0
330
4EE
100
AcDbEntity
  8
LINIE
100
AcDbVertex
100
AcDb2dVertex
 10
143.7214844010083
 20
219.0833050878389
 30
0.0
  0
VERTEX
  5
4F2
330
4EE
100
AcDbEntity
  8
LINIE
100
AcDbVertex
100
AcDb2dVertex
 10
143.7551635585038
 20
219.076830607806
 30
0.0
  0
VERTEX
  5
4F3
330
4EE
100
AcDbEntity
  8
LINIE
100
AcDbVertex
100
AcDb2dVertex
 10
143.7886318645684
 20
219.0676922844394
 30
0.0
  0
VERTEX
  5
4F4
330
4EE
100
AcDbEntity
  8
LINIE
100
AcDbVertex
100
AcDb2dVertex
 10
143.8213762349693
 20
219.0559942396028
 30
0.0
  0
VERTEX
  5
4F5
330
4EE
100
AcDbEntity
  8
LINIE
100
AcDbVertex
100
AcDb2dVertex
 10
143.8528820953576
 20
219.0420253695591
 30
0.0
  0
VERTEX
  5
4F6
330
4EE
100
AcDbEntity
  8
LINIE
100
AcDbVertex
100
AcDb2dVertex
 10
143.8826347223727
 20
219.026077141021
 30
0.0
  0
VERTEX
  5
4F7
330
4EE
100
AcDbEntity
  8
LINIE
100
AcDbVertex
100
AcDb2dVertex
 10
143.9109917066304
 20
219.0079285697682
 30
0.0
  0
VERTEX
  5
4F8
330
4EE
100
AcDbEntity
  8
LINIE
100
AcDbVertex
100
AcDb2dVertex
 10
143.9385047636239
 20
218.9872609572156
 30
0.0
  0
VERTEX
  5
4F9
330
4EE
100
AcDbEntity
  8
LINIE
100
AcDbVertex
100
AcDb2dVertex
 10
143.9646730466989
 20
218.9643841730101
 30
0.0
  0
VERTEX
  5
4FA
330
4EE
100
AcDbEntity
  8
LINIE
100
AcDbVertex
100
AcDb2dVertex
 10
143.9889935485331
 20
218.9396092788918
 30
0.0
  0
VERTEX
  5
4FB
330
4EE
100
AcDbEntity
  8
LINIE
100
AcDbVertex
100
AcDb2dVertex
 10
144.0110700845031
 20
218.913304780577
 30
0.0
  0
VERTEX
  5
4FC
330
4EE
100
AcDbEntity
  8
LINIE
100
AcDbVertex
100
AcDb2dVertex
 10
144.0307561389414
 20
218.8860018299563
 30
0.0
  0
VERTEX
  5
4FD
330
4EE
100
AcDbEntity
  8
LINIE
100
AcDbVertex
100
AcDb2dVertex
 10
144.0479373081831
 20
218.8582599656327
 30
0.0
  0
VERTEX
  5
4FE
330
4EE
100
AcDbEntity
  8
LINIE
100
AcDbVertex
100
AcDb2dVertex
 10
144.0625268115906
 20
218.8305843369706
 30
0.0
  0
VERTEX
  5
4FF
330
4EE
100
AcDbEntity
  8
LINIE
100
AcDbVertex
100
AcDb2dVertex
 10
144.0751514665095
 20
218.8019983218653
 30
0.0
  0
VERTEX
  5
500
330
4EE
100
AcDbEntity
  8
LINIE
100
AcDbVertex
100
AcDb2dVertex
 10
144.0859991020767
 20
218.772175510381
 30
0.0
  0
VERTEX
  5
501
330
4EE
100
AcDbEntity
  8
LINIE
100
AcDbVertex
100
AcDb2dVertex
 10
144.0949166647402
 20
218.7414256976588
 30
0.0
  0
VERTEX
  5
502
330
4EE
100
AcDbEntity
  8
LINIE
100
AcDbVertex
100
AcDb2dVertex
 10
144.1017511009482
 20
218.7100589768632
 30
0.0
  0
VERTEX
  5
503
330
4EE
100
AcDbEntity
  8
LINIE
100
AcDbVertex
100
AcDb2dVertex
 10
144.1063647705374
 20
218.6783865587456
 30
0.0
  0
VERTEX
  5
504
330
4EE
100
AcDbEntity
  8
LINIE
100
AcDbVertex
100
AcDb2dVertex
 10
144.1087791218666
 20
218.6467419312938
 30
0.0
  0
VERTEX
  5
505
330
4EE
100
AcDbEntity
  8
LINIE
100
AcDbVertex
100
AcDb2dVertex
 10
144.109109303659
 20
218.6154749737723
 30
0.0
  0
VERTEX
  5
506
330
4EE
100
AcDbEntity
  8
LINIE
100
AcDbVertex
100
AcDb2dVertex
 10
144.1074716939835
 20
218.584936012481
 30
0.0
  0
VERTEX
  5
507
330
4EE
100
AcDbEntity
  8
LINIE
100
AcDbVertex
100
AcDb2dVertex
 10
144.1039806685654
 20
218.5554503397687
 30
0.0
  0
VERTEX
  5
508
330
4EE
100
AcDbEntity
  8
LINIE
100
AcDbVertex
100
AcDb2dVertex
 10
144.0986314124671
 20
218.5262971864684
 30
0.0
  0
SEQEND
  5
4F1
330
4EE
100
AcDbEntity
  8
LINIE
  0
ARC
  5
509
330
6C
100
AcDbEntity
  8
LINIE
100
AcDbCircle
 10
143.2051419860182
 20
220.2807906957985
 30
0.0
 40
0.3038372272770251
100
AcDbArc
 50
260.4639409988438
 51
353.0974387559678
  0
POLYLINE
  5
50A
330
6C
100
AcDbEntity
  8
LINIE
100
AcDb2dPolyline
 66
     1
 10
0.0
 20
0.0
 30
0.0
 70
   128
  0
VERTEX
  5
50B
330
50A
100
AcDbEntity
  8
LINIE
100
AcDbVertex
100
AcDb2dVertex
 10
143.6881354159919
 20
220.2274879933937
 30
0.0
  0
VERTEX
  5
50C
330
50A
100
AcDbEntity
  8
LINIE
100
AcDbVertex
100
AcDb2dVertex
 10
143.6842365271655
 20
220.1941390083773
 30
0.0
  0
VERTEX
  5
50E
330
50A
100
AcDbEntity
  8
LINIE
100
AcDbVertex
100
AcDb2dVertex
 10
143.6777620471326
 20
220.1604598508819
 30
0.0
  0
VERTEX
  5
50F
330
50A
100
AcDbEntity
  8
LINIE
100
AcDbVertex
100
AcDb2dVertex
 10
143.668623723766
 20
220.1269915448172
 30
0.0
  0
VERTEX
  5
510
330
50A
100
AcDbEntity
  8
LINIE
100
AcDbVertex
100
AcDb2dVertex
 10
143.6569256789295
 20
220.0942471744163
 30
0.0
  0
VERTEX
  5
511
330
50A
100
AcDbEntity
  8
LINIE
100
AcDbVertex
100
AcDb2dVertex
 10
143.6429568088857
 20
220.062741314028
 30
0.0
  0
VERTEX
  5
512
330
50A
100
AcDbEntity
  8
LINIE
100
AcDbVertex
100
AcDb2dVertex
 10
143.6270085803477
 20
220.0329886870129
 30
0.0
  0
VERTEX
  5
513
330
50A
100
AcDbEntity
  8
LINIE
100
AcDbVertex
100
AcDb2dVertex
 10
143.6088600090949
 20
220.0046317027553
 30
0.0
  0
VERTEX
  5
514
330
50A
100
AcDbEntity
  8
LINIE
100
AcDbVertex
100
AcDb2dVertex
 10
143.5881923965422
 20
219.9771186457617
 30
0.0
  0
VERTEX
  5
515
330
50A
100
AcDbEntity
  8
LINIE
100
AcDbVertex
100
AcDb2dVertex
 10
143.5653156123368
 20
219.9509503626867
 30
0.0
  0
VERTEX
  5
516
330
50A
100
AcDbEntity
  8
LINIE
100
AcDbVertex
100
AcDb2dVertex
 10
143.5405407182185
 20
219.9266298608525
 30
0.0
  0
VERTEX
  5
517
330
50A
100
AcDbEntity
  8
LINIE
100
AcDbVertex
100
AcDb2dVertex
 10
143.5142362199036
 20
219.9045533248825
 30
0.0
  0
VERTEX
  5
518
330
50A
100
AcDbEntity
  8
LINIE
100
AcDbVertex
100
AcDb2dVertex
 10
143.486933269283
 20
219.8848672704442
 30
0.0
  0
VERTEX
  5
519
330
50A
100
AcDbEntity
  8
LINIE
100
AcDbVertex
100
AcDb2dVertex
 10
143.4591914049593
 20
219.8676861012025
 30
0.0
  0
VERTEX
  5
51A
330
50A
100
AcDbEntity
  8
LINIE
100
AcDbVertex
100
AcDb2dVertex
 10
143.4315157762972
 20
219.853096597795
 30
0.0
  0
VERTEX
  5
51B
330
50A
100
AcDbEntity
  8
LINIE
100
AcDbVertex
100
AcDb2dVertex
 10
143.402929761192
 20
219.8404719428761
 30
0.0
  0
VERTEX
  5
51C
330
50A
100
AcDbEntity
  8
LINIE
100
AcDbVertex
100
AcDb2dVertex
 10
143.3731069497077
 20
219.8296243073089
 30
0.0
  0
VERTEX
  5
51D
330
50A
100
AcDbEntity
  8
LINIE
100
AcDbVertex
100
AcDb2dVertex
 10
143.3423571369854
 20
219.8207067446454
 30
0.0
  0
VERTEX
  5
51E
330
50A
100
AcDbEntity
  8
LINIE
100
AcDbVertex
100
AcDb2dVertex
 10
143.3109904161898
 20
219.8138723084374
 30
0.0
  0
VERTEX
  5
51F
330
50A
100
AcDbEntity
  8
LINIE
100
AcDbVertex
100
AcDb2dVertex
 10
143.2793179980723
 20
219.8092586388482
 30
0.0
  0
VERTEX
  5
520
330
50A
100
AcDbEntity
  8
LINIE
100
AcDbVertex
100
AcDb2dVertex
 10
143.2476733706204
 20
219.806844287519
 30
0.0
  0
VERTEX
  5
521
330
50A
100
AcDbEntity
  8
LINIE
100
AcDbVertex
100
AcDb2dVertex
 10
143.216406413099
 20
219.8065141057266
 30
0.0
  0
VERTEX
  5
522
330
50A
100
AcDbEntity
  8
LINIE
100
AcDbVertex
100
AcDb2dVertex
 10
143.1858674518077
 20
219.8081517154022
 30
0.0
  0
VERTEX
  5
523
330
50A
100
AcDbEntity
  8
LINIE
100
AcDbVertex
100
AcDb2dVertex
 10
143.1563817790953
 20
219.8116427408202
 30
0.0
  0
VERTEX
  5
524
330
50A
100
AcDbEntity
  8
LINIE
100
AcDbVertex
100
AcDb2dVertex
 10
143.127228625795
 20
219.8169919969185
 30
0.0
  0
SEQEND
  5
50D
330
50A
100
AcDbEntity
  8
LINIE
  0
LINE
  5
525
330
6C
100
AcDbEntity
  8
LINIE
100
AcDbLine
 10
144.4179234362451
 20
220.7883947835906
 30
0.0
 11
144.4781665771512
 21
221.0671078906996
 31
0.0
  0
LINE
  5
526
330
6C
100
AcDbEntity
  8
LINIE
100
AcDbLine
 10
144.7944316044882
 20
222.0248724724908
 30
0.0
 11
144.5820834723062
 21
220.7608176173386
 31
0.0
  0
LINE
  5
527
330
6C
100
AcDbEntity
  8
LINIE
100
AcDbLine
 10
145.3893262229172
 20
219.4976999731405
 30
0.0
 11
145.6680393300263
 21
219.4374568322344
 31
0.0
  0
LINE
  5
528
330
6C
100
AcDbEntity
  8
LINIE
100
AcDbLine
 10
146.6258039118175
 20
219.1211918048974
 30
0.0
 11
145.3617490566653
 21
219.3335399370794
 31
0.0
  0
LINE
  5
529
330
6C
100
AcDbEntity
  8
LINIE
100
AcDbLine
 10
143.127228625795
 20
219.8169919969185
 30
0.0
 11
142.848515518686
 21
219.8772351378246
 31
0.0
  0
LINE
  5
52A
330
6C
100
AcDbEntity
  8
LINIE
100
AcDbLine
 10
141.8907509368948
 20
220.1935001651616
 30
0.0
 11
143.154805792047
 21
219.9811520329796
 31
0.0
  0
LINE
  5
52B
330
6C
100
AcDbEntity
  8
LINIE
100
AcDbLine
 10
144.0986314124671
 20
218.5262971864684
 30
0.0
 11
144.0383882715611
 21
218.2475840793593
 31
0.0
  0
LINE
  5
52C
330
6C
100
AcDbEntity
  8
LINIE
100
AcDbLine
 10
143.722123244224
 20
217.2898194975681
 30
0.0
 11
143.934471376406
 21
218.5538743527204
 31
0.0
  0
LINE
  5
52D
330
6C
100
AcDbEntity
  8
LINIE
100
AcDbLine
 10
146.6258039118175
 20
220.1935001651616
 30
0.0
 11
145.3617490566653
 21
219.9811520329796
 31
0.0
  0
LINE
  5
52E
330
6C
100
AcDbEntity
  8
LINIE
100
AcDbLine
 10
145.6680393300263
 20
219.8772351378246
 30
0.0
 11
145.3893262229172
 21
219.8169919969185
 31
0.0
  0
LINE
  5
52F
330
6C
100
AcDbEntity
  8
LINIE
100
AcDbLine
 10
143.722123244224
 20
222.0248724724908
 30
0.0
 11
143.934471376406
 21
220.7608176173386
 31
0.0
  0
LINE
  5
530
330
6C
100
AcDbEntity
  8
LINIE
100
AcDbLine
 10
144.0383882715611
 20
221.0671078906996
 30
0.0
 11
144.0986314124671
 21
220.7883947835906
 31
0.0
  0
LINE
  5
531
330
6C
100
AcDbEntity
  8
LINIE
100
AcDbLine
 10
144.7944316044882
 20
217.2898194975681
 30
0.0
 11
144.5820834723062
 21
218.5538743527204
 31
0.0
  0
LINE
  5
532
330
6C
100
AcDbEntity
  8
LINIE
100
AcDbLine
 10
144.4781665771512
 20
218.2475840793593
 30
0.0
 11
144.4179234362451
 21
218.5262971864684
 31
0.0
  0
LINE
  5
533
330
6C
100
AcDbEntity
  8
LINIE
100
AcDbLine
 10
141.8907509368948
 20
219.1211918048974
 30
0.0
 11
143.154805792047
 21
219.3335399370794
 31
0.0
  0
LINE
  5
534
330
6C
100
AcDbEntity
  8
LINIE
100
AcDbLine
 10
142.848515518686
 20
219.4374568322344
 30
0.0
 11
143.127228625795
 21
219.4976999731405
 31
0.0
  0
LINE
  5
535
330
6C
100
AcDbEntity
  8
LINIE
100
AcDbLine
 10
142.6319318276271
 20
221.2836915817586
 30
0.0
 11
143.6713482413597
 21
220.4088464172576
 31
0.0
  0
LINE
  5
536
330
6C
100
AcDbEntity
  8
LINIE
100
AcDbLine
 10
142.6319318276271
 20
221.2836915817586
 30
0.0
 11
143.4900592667967
 21
220.425564142589
 31
0.0
  0
LINE
  5
537
330
6C
100
AcDbEntity
  8
LINIE
100
AcDbLine
 10
145.8846230210852
 20
218.0310003883004
 30
0.0
 11
144.8452066073526
 21
218.9058455528013
 31
0.0
  0
LINE
  5
538
330
6C
100
AcDbEntity
  8
LINIE
100
AcDbLine
 10
145.8846230210852
 20
218.0310003883004
 30
0.0
 11
145.0264955819156
 21
218.88912782747
 31
0.0
  0
LINE
  5
539
330
6C
100
AcDbEntity
  8
LINIE
100
AcDbLine
 10
143.506776992128
 20
220.2442751680259
 30
0.0
 11
142.6319318276271
 21
221.2836915817586
 31
0.0
  0
LINE
  5
53A
330
6C
100
AcDbEntity
  8
LINIE
100
AcDbLine
 10
145.0097778565842
 20
219.070416802033
 30
0.0
 11
145.8846230210852
 21
218.0310003883004
 31
0.0
  0
LINE
  5
53B
330
6C
100
AcDbEntity
  8
LINIE
100
AcDbLine
 10
142.6319318276271
 20
218.0310003883004
 30
0.0
 11
143.506776992128
 21
219.070416802033
 31
0.0
  0
LINE
  5
53C
330
6C
100
AcDbEntity
  8
LINIE
100
AcDbLine
 10
142.6319318276271
 20
218.0310003883004
 30
0.0
 11
143.4900592667967
 21
218.88912782747
 31
0.0
  0
LINE
  5
53D
330
6C
100
AcDbEntity
  8
LINIE
100
AcDbLine
 10
143.6713482413597
 20
218.9058455528013
 30
0.0
 11
142.6319318276271
 21
218.0310003883004
 31
0.0
  0
LINE
  5
53E
330
6C
100
AcDbEntity
  8
LINIE
100
AcDbLine
 10
145.8846230210852
 20
221.2836915817586
 30
0.0
 11
145.0097778565842
 21
220.2442751680259
 31
0.0
  0
LINE
  5
53F
330
6C
100
AcDbEntity
  8
LINIE
100
AcDbLine
 10
145.8846230210852
 20
221.2836915817586
 30
0.0
 11
145.0264955819156
 21
220.425564142589
 31
0.0
  0
LINE
  5
540
330
6C
100
AcDbEntity
  8
LINIE
100
AcDbLine
 10
144.8452066073526
 20
220.4088464172576
 30
0.0
 11
145.8846230210852
 21
221.2836915817586
 31
0.0
  0
POLYLINE
  5
541
330
6C
100
AcDbEntity
  8
LINIE
100
AcDb2dPolyline
 66
     1
 10
0.0
 20
0.0
 30
0.0
 70
   128
  0
VERTEX
  5
542
330
541
100
AcDbEntity
  8
LINIE
100
AcDbVertex
100
AcDb2dVertex
 10
142.070565529844
 20
219.161522996579
 30
0.0
  0
VERTEX
  5
543
330
541
100
AcDbEntity
  8
LINIE
100
AcDbVertex
100
AcDb2dVertex
 10
142.0662623725144
 20
219.1600560145123
 30
0.0
  0
VERTEX
  5
545
330
541
100
AcDbEntity
  8
LINIE
100
AcDbVertex
100
AcDb2dVertex
 10
142.0615191838948
 20
219.1585216046913
 30
0.0
  0
VERTEX
  5
546
330
541
100
AcDbEntity
  8
LINIE
100
AcDbVertex
100
AcDb2dVertex
 10
142.0563939295021
 20
219.156937387739
 30
0.0
  0
VERTEX
  5
547
330
541
100
AcDbEntity
  8
LINIE
100
AcDbVertex
100
AcDb2dVertex
 10
142.0509436807839
 20
219.1553209842785
 30
0.0
  0
VERTEX
  5
548
330
541
100
AcDbEntity
  8
LINIE
100
AcDbVertex
100
AcDb2dVertex
 10
142.0452259562222
 20
219.1536900149329
 30
0.0
  0
VERTEX
  5
549
330
541
100
AcDbEntity
  8
LINIE
100
AcDbVertex
100
AcDb2dVertex
 10
142.0392984233109
 20
219.1520621748312
 30
0.0
  0
VERTEX
  5
54A
330
541
100
AcDbEntity
  8
LINIE
100
AcDbVertex
100
AcDb2dVertex
 10
142.0332180044858
 20
219.1504550100906
 30
0.0
  0
VERTEX
  5
54B
330
541
100
AcDbEntity
  8
LINIE
100
AcDbVertex
100
AcDb2dVertex
 10
142.0267790637223
 20
219.1488168136819
 30
0.0
  0
VERTEX
  5
54C
330
541
100
AcDbEntity
  8
LINIE
100
AcDbVertex
100
AcDb2dVertex
 10
142.0198243937699
 20
219.1471050055368
 30
0.0
  0
VERTEX
  5
54D
330
541
100
AcDbEntity
  8
LINIE
100
AcDbVertex
100
AcDb2dVertex
 10
142.0124422095028
 20
219.145339739476
 30
0.0
  0
VERTEX
  5
54E
330
541
100
AcDbEntity
  8
LINIE
100
AcDbVertex
100
AcDb2dVertex
 10
142.0047204277722
 20
219.1435411693199
 30
0.0
  0
VERTEX
  5
54F
330
541
100
AcDbEntity
  8
LINIE
100
AcDbVertex
100
AcDb2dVertex
 10
141.9967471144406
 20
219.1417293743832
 30
0.0
  0
VERTEX
  5
550
330
541
100
AcDbEntity
  8
LINIE
100
AcDbVertex
100
AcDb2dVertex
 10
141.9886103353707
 20
219.1399245457394
 30
0.0
  0
VERTEX
  5
551
330
541
100
AcDbEntity
  8
LINIE
100
AcDbVertex
100
AcDb2dVertex
 10
141.9803980074135
 20
219.1381467627032
 30
0.0
  0
VERTEX
  5
552
330
541
100
AcDbEntity
  8
LINIE
100
AcDbVertex
100
AcDb2dVertex
 10
141.9721981964318
 20
219.136416216348
 30
0.0
  0
VERTEX
  5
553
330
541
100
AcDbEntity
  8
LINIE
100
AcDbVertex
100
AcDb2dVertex
 10
141.9640080712048
 20
219.1347342477782
 30
0.0
  0
VERTEX
  5
554
330
541
100
AcDbEntity
  8
LINIE
100
AcDbVertex
100
AcDb2dVertex
 10
141.9554197869507
 20
219.1330169634564
 30
0.0
  0
VERTEX
  5
555
330
541
100
AcDbEntity
  8
LINIE
100
AcDbVertex
100
AcDb2dVertex
 10
141.9464601657597
 20
219.1312678651555
 30
0.0
  0
VERTEX
  5
556
330
541
100
AcDbEntity
  8
LINIE
100
AcDbVertex
100
AcDb2dVertex
 10
141.9372335157601
 20
219.1295063988908
 30
0.0
  0
VERTEX
  5
557
330
541
100
AcDbEntity
  8
LINIE
100
AcDbVertex
100
AcDb2dVertex
 10
141.9278444431035
 20
219.1277518989189
 30
0.0
  0
VERTEX
  5
558
330
541
100
AcDbEntity
  8
LINIE
100
AcDbVertex
100
AcDb2dVertex
 10
141.9183971069066
 20
219.1260238112552
 30
0.0
  0
VERTEX
  5
559
330
541
100
AcDbEntity
  8
LINIE
100
AcDbVertex
100
AcDb2dVertex
 10
141.9089962623326
 20
219.1243414701565
 30
0.0
  0
VERTEX
  5
55A
330
541
100
AcDbEntity
  8
LINIE
100
AcDbVertex
100
AcDb2dVertex
 10
141.8997460684983
 20
219.1227243588908
 30
0.0
  0
VERTEX
  5
55B
330
541
100
AcDbEntity
  8
LINIE
100
AcDbVertex
100
AcDb2dVertex
 10
141.8907509825436
 20
219.1211918117149
 30
0.0
  0
SEQEND
  5
544
330
541
100
AcDbEntity
  8
LINIE
  0
POLYLINE
  5
55C
330
6C
100
AcDbEntity
  8
LINIE
100
AcDb2dPolyline
 66
     1
 10
0.0
 20
0.0
 30
0.0
 70
   128
  0
VERTEX
  5
55D
330
55C
100
AcDbEntity
  8
LINIE
100
AcDbVertex
100
AcDb2dVertex
 10
141.8907509825436
 20
220.1935001583441
 30
0.0
  0
VERTEX
  5
55E
330
55C
100
AcDbEntity
  8
LINIE
100
AcDbVertex
100
AcDb2dVertex
 10
141.8997460684983
 20
220.1919676111682
 30
0.0
  0
VERTEX
  5
560
330
55C
100
AcDbEntity
  8
LINIE
100
AcDbVertex
100
AcDb2dVertex
 10
141.9089962623326
 20
220.1903504999025
 30
0.0
  0
VERTEX
  5
561
330
55C
100
AcDbEntity
  8
LINIE
100
AcDbVertex
100
AcDb2dVertex
 10
141.9183971069066
 20
220.1886681588037
 30
0.0
  0
VERTEX
  5
562
330
55C
100
AcDbEntity
  8
LINIE
100
AcDbVertex
100
AcDb2dVertex
 10
141.9278444431035
 20
220.1869400711401
 30
0.0
  0
VERTEX
  5
563
330
55C
100
AcDbEntity
  8
LINIE
100
AcDbVertex
100
AcDb2dVertex
 10
141.9372335157601
 20
220.1851855711682
 30
0.0
  0
VERTEX
  5
564
330
55C
100
AcDbEntity
  8
LINIE
100
AcDbVertex
100
AcDb2dVertex
 10
141.9464601657597
 20
220.1834241049035
 30
0.0
  0
VERTEX
  5
565
330
55C
100
AcDbEntity
  8
LINIE
100
AcDbVertex
100
AcDb2dVertex
 10
141.9554197869507
 20
220.1816750066026
 30
0.0
  0
VERTEX
  5
566
330
55C
100
AcDbEntity
  8
LINIE
100
AcDbVertex
100
AcDb2dVertex
 10
141.9640080712048
 20
220.1799577222808
 30
0.0
  0
VERTEX
  5
567
330
55C
100
AcDbEntity
  8
LINIE
100
AcDbVertex
100
AcDb2dVertex
 10
141.9721981964318
 20
220.178275753711
 30
0.0
  0
VERTEX
  5
568
330
55C
100
AcDbEntity
  8
LINIE
100
AcDbVertex
100
AcDb2dVertex
 10
141.9803980074135
 20
220.1765452073558
 30
0.0
  0
VERTEX
  5
569
330
55C
100
AcDbEntity
  8
LINIE
100
AcDbVertex
100
AcDb2dVertex
 10
141.9886103353707
 20
220.1747674243195
 30
0.0
  0
VERTEX
  5
56A
330
55C
100
AcDbEntity
  8
LINIE
100
AcDbVertex
100
AcDb2dVertex
 10
141.9967471144406
 20
220.1729625956757
 30
0.0
  0
VERTEX
  5
56B
330
55C
100
AcDbEntity
  8
LINIE
100
AcDbVertex
100
AcDb2dVertex
 10
142.0047204277722
 20
220.1711508007391
 30
0.0
  0
VERTEX
  5
56C
330
55C
100
AcDbEntity
  8
LINIE
100
AcDbVertex
100
AcDb2dVertex
 10
142.0124422095028
 20
220.169352230583
 30
0.0
  0
VERTEX
  5
56D
330
55C
100
AcDbEntity
  8
LINIE
100
AcDbVertex
100
AcDb2dVertex
 10
142.0198243937699
 20
220.1675869645221
 30
0.0
  0
VERTEX
  5
56E
330
55C
100
AcDbEntity
  8
LINIE
100
AcDbVertex
100
AcDb2dVertex
 10
142.0267790637223
 20
220.1658751563771
 30
0.0
  0
VERTEX
  5
56F
330
55C
100
AcDbEntity
  8
LINIE
100
AcDbVertex
100
AcDb2dVertex
 10
142.0332180044858
 20
220.1642369599683
 30
0.0
  0
VERTEX
  5
570
330
55C
100
AcDbEntity
  8
LINIE
100
AcDbVertex
100
AcDb2dVertex
 10
142.0392984233109
 20
220.1626297952278
 30
0.0
  0
VERTEX
  5
571
330
55C
100
AcDbEntity
  8
LINIE
100
AcDbVertex
100
AcDb2dVertex
 10
142.0452259562222
 20
220.1610019551261
 30
0.0
  0
VERTEX
  5
572
330
55C
100
AcDbEntity
  8
LINIE
100
AcDbVertex
100
AcDb2dVertex
 10
142.0509436807839
 20
220.1593709857805
 30
0.0
  0
VERTEX
  5
573
330
55C
100
AcDbEntity
  8
LINIE
100
AcDbVertex
100
AcDb2dVertex
 10
142.0563939295021
 20
220.15775458232
 30
0.0
  0
VERTEX
  5
574
330
55C
100
AcDbEntity
  8
LINIE
100
AcDbVertex
100
AcDb2dVertex
 10
142.0615191838948
 20
220.1561703653677
 30
0.0
  0
VERTEX
  5
575
330
55C
100
AcDbEntity
  8
LINIE
100
AcDbVertex
100
AcDb2dVertex
 10
142.0662623725144
 20
220.1546359555466
 30
0.0
  0
VERTEX
  5
576
330
55C
100
AcDbEntity
  8
LINIE
100
AcDbVertex
100
AcDb2dVertex
 10
142.070565529844
 20
220.15316897348
 30
0.0
  0
SEQEND
  5
55F
330
55C
100
AcDbEntity
  8
LINIE
  0
POLYLINE
  5
577
330
6C
100
AcDbEntity
  8
LINIE
100
AcDb2dPolyline
 66
     1
 10
0.0
 20
0.0
 30
0.0
 70
   128
  0
VERTEX
  5
578
330
577
100
AcDbEntity
  8
LINIE
100
AcDbVertex
100
AcDb2dVertex
 10
144.7541004128066
 20
217.4696340905173
 30
0.0
  0
VERTEX
  5
579
330
577
100
AcDbEntity
  8
LINIE
100
AcDbVertex
100
AcDb2dVertex
 10
144.7555673948733
 20
217.4653309331878
 30
0.0
  0
VERTEX
  5
57B
330
577
100
AcDbEntity
  8
LINIE
100
AcDbVertex
100
AcDb2dVertex
 10
144.7571018046943
 20
217.4605877445682
 30
0.0
  0
VERTEX
  5
57C
330
577
100
AcDbEntity
  8
LINIE
100
AcDbVertex
100
AcDb2dVertex
 10
144.7586860216467
 20
217.4554624901755
 30
0.0
  0
VERTEX
  5
57D
330
577
100
AcDbEntity
  8
LINIE
100
AcDbVertex
100
AcDb2dVertex
 10
144.7603024251072
 20
217.4500122414572
 30
0.0
  0
VERTEX
  5
57E
330
577
100
AcDbEntity
  8
LINIE
100
AcDbVertex
100
AcDb2dVertex
 10
144.7619333944527
 20
217.4442945168955
 30
0.0
  0
VERTEX
  5
57F
330
577
100
AcDbEntity
  8
LINIE
100
AcDbVertex
100
AcDb2dVertex
 10
144.7635612345544
 20
217.4383669839842
 30
0.0
  0
VERTEX
  5
580
330
577
100
AcDbEntity
  8
LINIE
100
AcDbVertex
100
AcDb2dVertex
 10
144.765168399295
 20
217.4322865651591
 30
0.0
  0
VERTEX
  5
581
330
577
100
AcDbEntity
  8
LINIE
100
AcDbVertex
100
AcDb2dVertex
 10
144.7668065957038
 20
217.4258476243956
 30
0.0
  0
VERTEX
  5
582
330
577
100
AcDbEntity
  8
LINIE
100
AcDbVertex
100
AcDb2dVertex
 10
144.7685184038488
 20
217.4188929544432
 30
0.0
  0
VERTEX
  5
583
330
577
100
AcDbEntity
  8
LINIE
100
AcDbVertex
100
AcDb2dVertex
 10
144.7702836699096
 20
217.4115107701762
 30
0.0
  0
VERTEX
  5
584
330
577
100
AcDbEntity
  8
LINIE
100
AcDbVertex
100
AcDb2dVertex
 10
144.7720822400657
 20
217.4037889884456
 30
0.0
  0
VERTEX
  5
585
330
577
100
AcDbEntity
  8
LINIE
100
AcDbVertex
100
AcDb2dVertex
 10
144.7738940350024
 20
217.3958156751139
 30
0.0
  0
VERTEX
  5
586
330
577
100
AcDbEntity
  8
LINIE
100
AcDbVertex
100
AcDb2dVertex
 10
144.7756988636462
 20
217.387678896044
 30
0.0
  0
VERTEX
  5
587
330
577
100
AcDbEntity
  8
LINIE
100
AcDbVertex
100
AcDb2dVertex
 10
144.7774766466824
 20
217.3794665680869
 30
0.0
  0
VERTEX
  5
588
330
577
100
AcDbEntity
  8
LINIE
100
AcDbVertex
100
AcDb2dVertex
 10
144.7792071930376
 20
217.3712667571051
 30
0.0
  0
VERTEX
  5
589
330
577
100
AcDbEntity
  8
LINIE
100
AcDbVertex
100
AcDb2dVertex
 10
144.7808891616074
 20
217.3630766318781
 30
0.0
  0
VERTEX
  5
58A
330
577
100
AcDbEntity
  8
LINIE
100
AcDbVertex
100
AcDb2dVertex
 10
144.7826064459292
 20
217.3544883476241
 30
0.0
  0
VERTEX
  5
58B
330
577
100
AcDbEntity
  8
LINIE
100
AcDbVertex
100
AcDb2dVertex
 10
144.7843555442301
 20
217.3455287264331
 30
0.0
  0
VERTEX
  5
58C
330
577
100
AcDbEntity
  8
LINIE
100
AcDbVertex
100
AcDb2dVertex
 10
144.7861170104949
 20
217.3363020764334
 30
0.0
  0
VERTEX
  5
58D
330
577
100
AcDbEntity
  8
LINIE
100
AcDbVertex
100
AcDb2dVertex
 10
144.7878715104667
 20
217.3269130037768
 30
0.0
  0
VERTEX
  5
58E
330
577
100
AcDbEntity
  8
LINIE
100
AcDbVertex
100
AcDb2dVertex
 10
144.7895995981304
 20
217.3174656675799
 30
0.0
  0
VERTEX
  5
58F
330
577
100
AcDbEntity
  8
LINIE
100
AcDbVertex
100
AcDb2dVertex
 10
144.7912819392292
 20
217.3080648230059
 30
0.0
  0
VERTEX
  5
590
330
577
100
AcDbEntity
  8
LINIE
100
AcDbVertex
100
AcDb2dVertex
 10
144.7928990504948
 20
217.2988146291716
 30
0.0
  0
VERTEX
  5
591
330
577
100
AcDbEntity
  8
LINIE
100
AcDbVertex
100
AcDb2dVertex
 10
144.7944315976707
 20
217.2898195432169
 30
0.0
  0
SEQEND
  5
57A
330
577
100
AcDbEntity
  8
LINIE
  0
POLYLINE
  5
592
330
6C
100
AcDbEntity
  8
LINIE
100
AcDb2dPolyline
 66
     1
 10
0.0
 20
0.0
 30
0.0
 70
   128
  0
VERTEX
  5
593
330
592
100
AcDbEntity
  8
LINIE
100
AcDbVertex
100
AcDb2dVertex
 10
143.7221232510416
 20
217.2898195432169
 30
0.0
  0
VERTEX
  5
594
330
592
100
AcDbEntity
  8
LINIE
100
AcDbVertex
100
AcDb2dVertex
 10
143.7236557982174
 20
217.2988146291716
 30
0.0
  0
VERTEX
  5
596
330
592
100
AcDbEntity
  8
LINIE
100
AcDbVertex
100
AcDb2dVertex
 10
143.7252729094831
 20
217.3080648230059
 30
0.0
  0
VERTEX
  5
597
330
592
100
AcDbEntity
  8
LINIE
100
AcDbVertex
100
AcDb2dVertex
 10
143.7269552505819
 20
217.3174656675799
 30
0.0
  0
VERTEX
  5
598
330
592
100
AcDbEntity
  8
LINIE
100
AcDbVertex
100
AcDb2dVertex
 10
143.7286833382455
 20
217.3269130037768
 30
0.0
  0
VERTEX
  5
599
330
592
100
AcDbEntity
  8
LINIE
100
AcDbVertex
100
AcDb2dVertex
 10
143.7304378382174
 20
217.3363020764334
 30
0.0
  0
VERTEX
  5
59A
330
592
100
AcDbEntity
  8
LINIE
100
AcDbVertex
100
AcDb2dVertex
 10
143.7321993044821
 20
217.3455287264331
 30
0.0
  0
VERTEX
  5
59B
330
592
100
AcDbEntity
  8
LINIE
100
AcDbVertex
100
AcDb2dVertex
 10
143.7339484027831
 20
217.3544883476241
 30
0.0
  0
VERTEX
  5
59C
330
592
100
AcDbEntity
  8
LINIE
100
AcDbVertex
100
AcDb2dVertex
 10
143.7356656871048
 20
217.3630766318781
 30
0.0
  0
VERTEX
  5
59D
330
592
100
AcDbEntity
  8
LINIE
100
AcDbVertex
100
AcDb2dVertex
 10
143.7373476556746
 20
217.3712667571051
 30
0.0
  0
VERTEX
  5
59E
330
592
100
AcDbEntity
  8
LINIE
100
AcDbVertex
100
AcDb2dVertex
 10
143.7390782020298
 20
217.3794665680869
 30
0.0
  0
VERTEX
  5
59F
330
592
100
AcDbEntity
  8
LINIE
100
AcDbVertex
100
AcDb2dVertex
 10
143.7408559850661
 20
217.387678896044
 30
0.0
  0
VERTEX
  5
5A0
330
592
100
AcDbEntity
  8
LINIE
100
AcDbVertex
100
AcDb2dVertex
 10
143.7426608137099
 20
217.3958156751139
 30
0.0
  0
VERTEX
  5
5A1
330
592
100
AcDbEntity
  8
LINIE
100
AcDbVertex
100
AcDb2dVertex
 10
143.7444726086465
 20
217.4037889884456
 30
0.0
  0
VERTEX
  5
5A2
330
592
100
AcDbEntity
  8
LINIE
100
AcDbVertex
100
AcDb2dVertex
 10
143.7462711788026
 20
217.4115107701762
 30
0.0
  0
VERTEX
  5
5A3
330
592
100
AcDbEntity
  8
LINIE
100
AcDbVertex
100
AcDb2dVertex
 10
143.7480364448635
 20
217.4188929544432
 30
0.0
  0
VERTEX
  5
5A4
330
592
100
AcDbEntity
  8
LINIE
100
AcDbVertex
100
AcDb2dVertex
 10
143.7497482530085
 20
217.4258476243956
 30
0.0
  0
VERTEX
  5
5A5
330
592
100
AcDbEntity
  8
LINIE
100
AcDbVertex
100
AcDb2dVertex
 10
143.7513864494173
 20
217.4322865651591
 30
0.0
  0
VERTEX
  5
5A6
330
592
100
AcDbEntity
  8
LINIE
100
AcDbVertex
100
AcDb2dVertex
 10
143.7529936141578
 20
217.4383669839842
 30
0.0
  0
VERTEX
  5
5A7
330
592
100
AcDbEntity
  8
LINIE
100
AcDbVertex
100
AcDb2dVertex
 10
143.7546214542595
 20
217.4442945168955
 30
0.0
  0
VERTEX
  5
5A8
330
592
100
AcDbEntity
  8
LINIE
100
AcDbVertex
100
AcDb2dVertex
 10
143.7562524236051
 20
217.4500122414572
 30
0.0
  0
VERTEX
  5
5A9
330
592
100
AcDbEntity
  8
LINIE
100
AcDbVertex
100
AcDb2dVertex
 10
143.7578688270656
 20
217.4554624901755
 30
0.0
  0
VERTEX
  5
5AA
330
592
100
AcDbEntity
  8
LINIE
100
AcDbVertex
100
AcDb2dVertex
 10
143.7594530440179
 20
217.4605877445682
 30
0.0
  0
VERTEX
  5
5AB
330
592
100
AcDbEntity
  8
LINIE
100
AcDbVertex
100
AcDb2dVertex
 10
143.760987453839
 20
217.4653309331878
 30
0.0
  0
VERTEX
  5
5AC
330
592
100
AcDbEntity
  8
LINIE
100
AcDbVertex
100
AcDb2dVertex
 10
143.7624544359056
 20
217.4696340905173
 30
0.0
  0
SEQEND
  5
595
330
592
100
AcDbEntity
  8
LINIE
  0
POLYLINE
  5
5AD
330
6C
100
AcDbEntity
  8
LINIE
100
AcDb2dPolyline
 66
     1
 10
0.0
 20
0.0
 30
0.0
 70
   128
  0
VERTEX
  5
5AE
330
5AD
100
AcDbEntity
  8
LINIE
100
AcDbVertex
100
AcDb2dVertex
 10
146.4459893188683
 20
220.15316897348
 30
0.0
  0
VERTEX
  5
5AF
330
5AD
100
AcDbEntity
  8
LINIE
100
AcDbVertex
100
AcDb2dVertex
 10
146.4502924761979
 20
220.1546359555466
 30
0.0
  0
VERTEX
  5
5B1
330
5AD
100
AcDbEntity
  8
LINIE
100
AcDbVertex
100
AcDb2dVertex
 10
146.4550356648175
 20
220.1561703653677
 30
0.0
  0
VERTEX
  5
5B2
330
5AD
100
AcDbEntity
  8
LINIE
100
AcDbVertex
100
AcDb2dVertex
 10
146.4601609192101
 20
220.15775458232
 30
0.0
  0
VERTEX
  5
5B3
330
5AD
100
AcDbEntity
  8
LINIE
100
AcDbVertex
100
AcDb2dVertex
 10
146.4656111679284
 20
220.1593709857805
 30
0.0
  0
VERTEX
  5
5B4
330
5AD
100
AcDbEntity
  8
LINIE
100
AcDbVertex
100
AcDb2dVertex
 10
146.4713288924901
 20
220.1610019551261
 30
0.0
  0
VERTEX
  5
5B5
330
5AD
100
AcDbEntity
  8
LINIE
100
AcDbVertex
100
AcDb2dVertex
 10
146.4772564254014
 20
220.1626297952278
 30
0.0
  0
VERTEX
  5
5B6
330
5AD
100
AcDbEntity
  8
LINIE
100
AcDbVertex
100
AcDb2dVertex
 10
146.4833368442265
 20
220.1642369599683
 30
0.0
  0
VERTEX
  5
5B7
330
5AD
100
AcDbEntity
  8
LINIE
100
AcDbVertex
100
AcDb2dVertex
 10
146.48977578499
 20
220.1658751563771
 30
0.0
  0
VERTEX
  5
5B8
330
5AD
100
AcDbEntity
  8
LINIE
100
AcDbVertex
100
AcDb2dVertex
 10
146.4967304549424
 20
220.1675869645221
 30
0.0
  0
VERTEX
  5
5B9
330
5AD
100
AcDbEntity
  8
LINIE
100
AcDbVertex
100
AcDb2dVertex
 10
146.5041126392094
 20
220.169352230583
 30
0.0
  0
VERTEX
  5
5BA
330
5AD
100
AcDbEntity
  8
LINIE
100
AcDbVertex
100
AcDb2dVertex
 10
146.5118344209401
 20
220.1711508007391
 30
0.0
  0
VERTEX
  5
5BB
330
5AD
100
AcDbEntity
  8
LINIE
100
AcDbVertex
100
AcDb2dVertex
 10
146.5198077342717
 20
220.1729625956757
 30
0.0
  0
VERTEX
  5
5BC
330
5AD
100
AcDbEntity
  8
LINIE
100
AcDbVertex
100
AcDb2dVertex
 10
146.5279445133416
 20
220.1747674243195
 30
0.0
  0
VERTEX
  5
5BD
330
5AD
100
AcDbEntity
  8
LINIE
100
AcDbVertex
100
AcDb2dVertex
 10
146.5361568412987
 20
220.1765452073558
 30
0.0
  0
VERTEX
  5
5BE
330
5AD
100
AcDbEntity
  8
LINIE
100
AcDbVertex
100
AcDb2dVertex
 10
146.5443566522805
 20
220.178275753711
 30
0.0
  0
VERTEX
  5
5BF
330
5AD
100
AcDbEntity
  8
LINIE
100
AcDbVertex
100
AcDb2dVertex
 10
146.5525467775075
 20
220.1799577222808
 30
0.0
  0
VERTEX
  5
5C0
330
5AD
100
AcDbEntity
  8
LINIE
100
AcDbVertex
100
AcDb2dVertex
 10
146.5611350617615
 20
220.1816750066026
 30
0.0
  0
VERTEX
  5
5C1
330
5AD
100
AcDbEntity
  8
LINIE
100
AcDbVertex
100
AcDb2dVertex
 10
146.5700946829525
 20
220.1834241049035
 30
0.0
  0
VERTEX
  5
5C2
330
5AD
100
AcDbEntity
  8
LINIE
100
AcDbVertex
100
AcDb2dVertex
 10
146.5793213329522
 20
220.1851855711682
 30
0.0
  0
VERTEX
  5
5C3
330
5AD
100
AcDbEntity
  8
LINIE
100
AcDbVertex
100
AcDb2dVertex
 10
146.5887104056088
 20
220.1869400711401
 30
0.0
  0
VERTEX
  5
5C4
330
5AD
100
AcDbEntity
  8
LINIE
100
AcDbVertex
100
AcDb2dVertex
 10
146.5981577418057
 20
220.1886681588037
 30
0.0
  0
VERTEX
  5
5C5
330
5AD
100
AcDbEntity
  8
LINIE
100
AcDbVertex
100
AcDb2dVertex
 10
146.6075585863797
 20
220.1903504999025
 30
0.0
  0
VERTEX
  5
5C6
330
5AD
100
AcDbEntity
  8
LINIE
100
AcDbVertex
100
AcDb2dVertex
 10
146.616808780214
 20
220.1919676111682
 30
0.0
  0
VERTEX
  5
5C7
330
5AD
100
AcDbEntity
  8
LINIE
100
AcDbVertex
100
AcDb2dVertex
 10
146.6258038661687
 20
220.1935001583441
 30
0.0
  0
SEQEND
  5
5B0
330
5AD
100
AcDbEntity
  8
LINIE
  0
POLYLINE
  5
5C8
330
6C
100
AcDbEntity
  8
LINIE
100
AcDb2dPolyline
 66
     1
 10
0.0
 20
0.0
 30
0.0
 70
   128
  0
VERTEX
  5
5C9
330
5C8
100
AcDbEntity
  8
LINIE
100
AcDbVertex
100
AcDb2dVertex
 10
146.6258038661687
 20
219.1211918117149
 30
0.0
  0
VERTEX
  5
5CA
330
5C8
100
AcDbEntity
  8
LINIE
100
AcDbVertex
100
AcDb2dVertex
 10
146.616808780214
 20
219.1227243588908
 30
0.0
  0
VERTEX
  5
5CC
330
5C8
100
AcDbEntity
  8
LINIE
100
AcDbVertex
100
AcDb2dVertex
 10
146.6075585863797
 20
219.1243414701565
 30
0.0
  0
VERTEX
  5
5CD
330
5C8
100
AcDbEntity
  8
LINIE
100
AcDbVertex
100
AcDb2dVertex
 10
146.5981577418057
 20
219.1260238112552
 30
0.0
  0
VERTEX
  5
5CE
330
5C8
100
AcDbEntity
  8
LINIE
100
AcDbVertex
100
AcDb2dVertex
 10
146.5887104056088
 20
219.1277518989189
 30
0.0
  0
VERTEX
  5
5CF
330
5C8
100
AcDbEntity
  8
LINIE
100
AcDbVertex
100
AcDb2dVertex
 10
146.5793213329522
 20
219.1295063988908
 30
0.0
  0
VERTEX
  5
5D0
330
5C8
100
AcDbEntity
  8
LINIE
100
AcDbVertex
100
AcDb2dVertex
 10
146.5700946829525
 20
219.1312678651555
 30
0.0
  0
VERTEX
  5
5D1
330
5C8
100
AcDbEntity
  8
LINIE
100
AcDbVertex
100
AcDb2dVertex
 10
146.5611350617615
 20
219.1330169634564
 30
0.0
  0
VERTEX
  5
5D2
330
5C8
100
AcDbEntity
  8
LINIE
100
AcDbVertex
100
AcDb2dVertex
 10
146.5525467775075
 20
219.1347342477782
 30
0.0
  0
VERTEX
  5
5D3
330
5C8
100
AcDbEntity
  8
LINIE
100
AcDbVertex
100
AcDb2dVertex
 10
146.5443566522805
 20
219.136416216348
 30
0.0
  0
VERTEX
  5
5D4
330
5C8
100
AcDbEntity
  8
LINIE
100
AcDbVertex
100
AcDb2dVertex
 10
146.5361568412987
 20
219.1381467627032
 30
0.0
  0
VERTEX
  5
5D5
330
5C8
100
AcDbEntity
  8
LINIE
100
AcDbVertex
100
AcDb2dVertex
 10
146.5279445133416
 20
219.1399245457394
 30
0.0
  0
VERTEX
  5
5D6
330
5C8
100
AcDbEntity
  8
LINIE
100
AcDbVertex
100
AcDb2dVertex
 10
146.5198077342717
 20
219.1417293743832
 30
0.0
  0
VERTEX
  5
5D7
330
5C8
100
AcDbEntity
  8
LINIE
100
AcDbVertex
100
AcDb2dVertex
 10
146.5118344209401
 20
219.1435411693199
 30
0.0
  0
VERTEX
  5
5D8
330
5C8
100
AcDbEntity
  8
LINIE
100
AcDbVertex
100
AcDb2dVertex
 10
146.5041126392094
 20
219.145339739476
 30
0.0
  0
VERTEX
  5
5D9
330
5C8
100
AcDbEntity
  8
LINIE
100
AcDbVertex
100
AcDb2dVertex
 10
146.4967304549424
 20
219.1471050055368
 30
0.0
  0
VERTEX
  5
5DA
330
5C8
100
AcDbEntity
  8
LINIE
100
AcDbVertex
100
AcDb2dVertex
 10
146.48977578499
 20
219.1488168136819
 30
0.0
  0
VERTEX
  5
5DB
330
5C8
100
AcDbEntity
  8
LINIE
100
AcDbVertex
100
AcDb2dVertex
 10
146.4833368442265
 20
219.1504550100906
 30
0.0
  0
VERTEX
  5
5DC
330
5C8
100
AcDbEntity
  8
LINIE
100
AcDbVertex
100
AcDb2dVertex
 10
146.4772564254014
 20
219.1520621748312
 30
0.0
  0
VERTEX
  5
5DD
330
5C8
100
AcDbEntity
  8
LINIE
100
AcDbVertex
100
AcDb2dVertex
 10
146.4713288924901
 20
219.1536900149329
 30
0.0
  0
VERTEX
  5
5DE
330
5C8
100
AcDbEntity
  8
LINIE
100
AcDbVertex
100
AcDb2dVertex
 10
146.4656111679284
 20
219.1553209842785
 30
0.0
  0
VERTEX
  5
5DF
330
5C8
100
AcDbEntity
  8
LINIE
100
AcDbVertex
100
AcDb2dVertex
 10
146.4601609192101
 20
219.156937387739
 30
0.0
  0
VERTEX
  5
5E0
330
5C8
100
AcDbEntity
  8
LINIE
100
AcDbVertex
100
AcDb2dVertex
 10
146.4550356648175
 20
219.1585216046913
 30
0.0
  0
VERTEX
  5
5E1
330
5C8
100
AcDbEntity
  8
LINIE
100
AcDbVertex
100
AcDb2dVertex
 10
146.4502924761979
 20
219.1600560145123
 30
0.0
  0
VERTEX
  5
5E2
330
5C8
100
AcDbEntity
  8
LINIE
100
AcDbVertex
100
AcDb2dVertex
 10
146.4459893188683
 20
219.161522996579
 30
0.0
  0
SEQEND
  5
5CB
330
5C8
100
AcDbEntity
  8
LINIE
  0
POLYLINE
  5
5E3
330
6C
100
AcDbEntity
  8
LINIE
100
AcDb2dPolyline
 66
     1
 10
0.0
 20
0.0
 30
0.0
 70
   128
  0
VERTEX
  5
5E4
330
5E3
100
AcDbEntity
  8
LINIE
100
AcDbVertex
100
AcDb2dVertex
 10
143.7624544359056
 20
221.8450578795417
 30
0.0
  0
VERTEX
  5
5E5
330
5E3
100
AcDbEntity
  8
LINIE
100
AcDbVertex
100
AcDb2dVertex
 10
143.760987453839
 20
221.8493610368712
 30
0.0
  0
VERTEX
  5
5E7
330
5E3
100
AcDbEntity
  8
LINIE
100
AcDbVertex
100
AcDb2dVertex
 10
143.7594530440179
 20
221.8541042254909
 30
0.0
  0
VERTEX
  5
5E8
330
5E3
100
AcDbEntity
  8
LINIE
100
AcDbVertex
100
AcDb2dVertex
 10
143.7578688270656
 20
221.8592294798835
 30
0.0
  0
VERTEX
  5
5E9
330
5E3
100
AcDbEntity
  8
LINIE
100
AcDbVertex
100
AcDb2dVertex
 10
143.7562524236051
 20
221.8646797286017
 30
0.0
  0
VERTEX
  5
5EA
330
5E3
100
AcDbEntity
  8
LINIE
100
AcDbVertex
100
AcDb2dVertex
 10
143.7546214542595
 20
221.8703974531634
 30
0.0
  0
VERTEX
  5
5EB
330
5E3
100
AcDbEntity
  8
LINIE
100
AcDbVertex
100
AcDb2dVertex
 10
143.7529936141578
 20
221.8763249860747
 30
0.0
  0
VERTEX
  5
5EC
330
5E3
100
AcDbEntity
  8
LINIE
100
AcDbVertex
100
AcDb2dVertex
 10
143.7513864494173
 20
221.8824054048999
 30
0.0
  0
VERTEX
  5
5ED
330
5E3
100
AcDbEntity
  8
LINIE
100
AcDbVertex
100
AcDb2dVertex
 10
143.7497482530085
 20
221.8888443456633
 30
0.0
  0
VERTEX
  5
5EE
330
5E3
100
AcDbEntity
  8
LINIE
100
AcDbVertex
100
AcDb2dVertex
 10
143.7480364448635
 20
221.8957990156157
 30
0.0
  0
VERTEX
  5
5EF
330
5E3
100
AcDbEntity
  8
LINIE
100
AcDbVertex
100
AcDb2dVertex
 10
143.7462711788026
 20
221.9031811998828
 30
0.0
  0
VERTEX
  5
5F0
330
5E3
100
AcDbEntity
  8
LINIE
100
AcDbVertex
100
AcDb2dVertex
 10
143.7444726086465
 20
221.9109029816134
 30
0.0
  0
VERTEX
  5
5F1
330
5E3
100
AcDbEntity
  8
LINIE
100
AcDbVertex
100
AcDb2dVertex
 10
143.7426608137099
 20
221.918876294945
 30
0.0
  0
VERTEX
  5
5F2
330
5E3
100
AcDbEntity
  8
LINIE
100
AcDbVertex
100
AcDb2dVertex
 10
143.7408559850661
 20
221.9270130740149
 30
0.0
  0
VERTEX
  5
5F3
330
5E3
100
AcDbEntity
  8
LINIE
100
AcDbVertex
100
AcDb2dVertex
 10
143.7390782020298
 20
221.9352254019721
 30
0.0
  0
VERTEX
  5
5F4
330
5E3
100
AcDbEntity
  8
LINIE
100
AcDbVertex
100
AcDb2dVertex
 10
143.7373476556746
 20
221.9434252129538
 30
0.0
  0
VERTEX
  5
5F5
330
5E3
100
AcDbEntity
  8
LINIE
100
AcDbVertex
100
AcDb2dVertex
 10
143.7356656871048
 20
221.9516153381808
 30
0.0
  0
VERTEX
  5
5F6
330
5E3
100
AcDbEntity
  8
LINIE
100
AcDbVertex
100
AcDb2dVertex
 10
143.7339484027831
 20
221.9602036224349
 30
0.0
  0
VERTEX
  5
5F7
330
5E3
100
AcDbEntity
  8
LINIE
100
AcDbVertex
100
AcDb2dVertex
 10
143.7321993044821
 20
221.9691632436259
 30
0.0
  0
VERTEX
  5
5F8
330
5E3
100
AcDbEntity
  8
LINIE
100
AcDbVertex
100
AcDb2dVertex
 10
143.7304378382174
 20
221.9783898936255
 30
0.0
  0
VERTEX
  5
5F9
330
5E3
100
AcDbEntity
  8
LINIE
100
AcDbVertex
100
AcDb2dVertex
 10
143.7286833382455
 20
221.9877789662822
 30
0.0
  0
VERTEX
  5
5FA
330
5E3
100
AcDbEntity
  8
LINIE
100
AcDbVertex
100
AcDb2dVertex
 10
143.7269552505819
 20
221.9972263024791
 30
0.0
  0
VERTEX
  5
5FB
330
5E3
100
AcDbEntity
  8
LINIE
100
AcDbVertex
100
AcDb2dVertex
 10
143.7252729094831
 20
222.006627147053
 30
0.0
  0
VERTEX
  5
5FC
330
5E3
100
AcDbEntity
  8
LINIE
100
AcDbVertex
100
AcDb2dVertex
 10
143.7236557982174
 20
222.0158773408873
 30
0.0
  0
VERTEX
  5
5FD
330
5E3
100
AcDbEntity
  8
LINIE
100
AcDbVertex
100
AcDb2dVertex
 10
143.7221232510416
 20
222.024872426842
 30
0.0
  0
SEQEND
  5
5E6
330
5E3
100
AcDbEntity
  8
LINIE
  0
POLYLINE
  5
5FE
330
6C
100
AcDbEntity
  8
LINIE
100
AcDb2dPolyline
 66
     1
 10
0.0
 20
0.0
 30
0.0
 70
   128
  0
VERTEX
  5
5FF
330
5FE
100
AcDbEntity
  8
LINIE
100
AcDbVertex
100
AcDb2dVertex
 10
144.7944315976707
 20
222.024872426842
 30
0.0
  0
VERTEX
  5
600
330
5FE
100
AcDbEntity
  8
LINIE
100
AcDbVertex
100
AcDb2dVertex
 10
144.7928990504948
 20
222.0158773408873
 30
0.0
  0
VERTEX
  5
602
330
5FE
100
AcDbEntity
  8
LINIE
100
AcDbVertex
100
AcDb2dVertex
 10
144.7912819392292
 20
222.006627147053
 30
0.0
  0
VERTEX
  5
603
330
5FE
100
AcDbEntity
  8
LINIE
100
AcDbVertex
100
AcDb2dVertex
 10
144.7895995981304
 20
221.9972263024791
 30
0.0
  0
VERTEX
  5
604
330
5FE
100
AcDbEntity
  8
LINIE
100
AcDbVertex
100
AcDb2dVertex
 10
144.7878715104667
 20
221.9877789662822
 30
0.0
  0
VERTEX
  5
605
330
5FE
100
AcDbEntity
  8
LINIE
100
AcDbVertex
100
AcDb2dVertex
 10
144.7861170104949
 20
221.9783898936255
 30
0.0
  0
VERTEX
  5
606
330
5FE
100
AcDbEntity
  8
LINIE
100
AcDbVertex
100
AcDb2dVertex
 10
144.7843555442301
 20
221.9691632436259
 30
0.0
  0
VERTEX
  5
607
330
5FE
100
AcDbEntity
  8
LINIE
100
AcDbVertex
100
AcDb2dVertex
 10
144.7826064459292
 20
221.9602036224349
 30
0.0
  0
VERTEX
  5
608
330
5FE
100
AcDbEntity
  8
LINIE
100
AcDbVertex
100
AcDb2dVertex
 10
144.7808891616074
 20
221.9516153381808
 30
0.0
  0
VERTEX
  5
609
330
5FE
100
AcDbEntity
  8
LINIE
100
AcDbVertex
100
AcDb2dVertex
 10
144.7792071930376
 20
221.9434252129538
 30
0.0
  0
VERTEX
  5
60A
330
5FE
100
AcDbEntity
  8
LINIE
100
AcDbVertex
100
AcDb2dVertex
 10
144.7774766466824
 20
221.9352254019721
 30
0.0
  0
VERTEX
  5
60B
330
5FE
100
AcDbEntity
  8
LINIE
100
AcDbVertex
100
AcDb2dVertex
 10
144.7756988636462
 20
221.9270130740149
 30
0.0
  0
VERTEX
  5
60C
330
5FE
100
AcDbEntity
  8
LINIE
100
AcDbVertex
100
AcDb2dVertex
 10
144.7738940350024
 20
221.918876294945
 30
0.0
  0
VERTEX
  5
60D
330
5FE
100
AcDbEntity
  8
LINIE
100
AcDbVertex
100
AcDb2dVertex
 10
144.7720822400657
 20
221.9109029816134
 30
0.0
  0
VERTEX
  5
60E
330
5FE
100
AcDbEntity
  8
LINIE
100
AcDbVertex
100
AcDb2dVertex
 10
144.7702836699096
 20
221.9031811998828
 30
0.0
  0
VERTEX
  5
60F
330
5FE
100
AcDbEntity
  8
LINIE
100
AcDbVertex
100
AcDb2dVertex
 10
144.7685184038488
 20
221.8957990156157
 30
0.0
  0
VERTEX
  5
610
330
5FE
100
AcDbEntity
  8
LINIE
100
AcDbVertex
100
AcDb2dVertex
 10
144.7668065957038
 20
221.8888443456633
 30
0.0
  0
VERTEX
  5
611
330
5FE
100
AcDbEntity
  8
LINIE
100
AcDbVertex
100
AcDb2dVertex
 10
144.765168399295
 20
221.8824054048999
 30
0.0
  0
VERTEX
  5
612
330
5FE
100
AcDbEntity
  8
LINIE
100
AcDbVertex
100
AcDb2dVertex
 10
144.7635612345544
 20
221.8763249860747
 30
0.0
  0
VERTEX
  5
613
330
5FE
100
AcDbEntity
  8
LINIE
100
AcDbVertex
100
AcDb2dVertex
 10
144.7619333944527
 20
221.8703974531634
 30
0.0
  0
VERTEX
  5
614
330
5FE
100
AcDbEntity
  8
LINIE
100
AcDbVertex
100
AcDb2dVertex
 10
144.7603024251072
 20
221.8646797286017
 30
0.0
  0
VERTEX
  5
615
330
5FE
100
AcDbEntity
  8
LINIE
100
AcDbVertex
100
AcDb2dVertex
 10
144.7586860216467
 20
221.8592294798835
 30
0.0
  0
VERTEX
  5
616
330
5FE
100
AcDbEntity
  8
LINIE
100
AcDbVertex
100
AcDb2dVertex
 10
144.7571018046943
 20
221.8541042254909
 30
0.0
  0
VERTEX
  5
617
330
5FE
100
AcDbEntity
  8
LINIE
100
AcDbVertex
100
AcDb2dVertex
 10
144.7555673948733
 20
221.8493610368712
 30
0.0
  0
VERTEX
  5
618
330
5FE
100
AcDbEntity
  8
LINIE
100
AcDbVertex
100
AcDb2dVertex
 10
144.7541004128066
 20
221.8450578795417
 30
0.0
  0
SEQEND
  5
601
330
5FE
100
AcDbEntity
  8
LINIE
  0
ARC
  5
619
330
6C
100
AcDbEntity
  8
LINIE
100
AcDbCircle
 10
144.2582774243561
 20
219.6573459850295
 30
0.0
 40
1.426807646198902
100
AcDbArc
 50
171.1346618969197
 51
188.8653381030789
  0
ARC
  5
61A
330
6C
100
AcDbEntity
  8
LINIE
100
AcDbCircle
 10
144.2582774243561
 20
219.6573459850295
 30
0.0
 40
1.426807646198902
100
AcDbArc
 50
261.1346618969204
 51
278.8653381030796
  0
ARC
  5
61B
330
6C
100
AcDbEntity
  8
LINIE
100
AcDbCircle
 10
144.2582774243561
 20
219.6573459850295
 30
0.0
 40
1.426807646198896
100
AcDbArc
 50
351.1346618969196
 51
8.865338103078856
  0
ARC
  5
61C
330
6C
100
AcDbEntity
  8
LINIE
100
AcDbCircle
 10
144.2582774243561
 20
219.6573459850295
 30
0.0
 40
1.426807646198903
100
AcDbArc
 50
81.13466189692038
 51
98.86533810307961
  0
CIRCLE
  5
61D
330
6C
100
AcDbEntity
  8
0
100
AcDbCircle
 10
144.2582774243561
 20
219.6573459850295
 30
0.0
 40
4.200000000000002
  0
LINE
  5
61E
330
6C
100
AcDbEntity
  8
0
100
AcDbLine
 10
123.5984797558991
 20
224.1573458646128
 30
0.0
 11
145.7582779011933
 21
224.1573458646128
 31
0.0
  0
LINE
  5
61F
330
6C
100
AcDbEntity
  8
0
100
AcDbLine
 10
122.2582764706819
 20
224.1573458646128
 30
0.0
 11
123.5984797558991
 21
224.1573458646128
 31
0.0
  0
POLYLINE
  5
620
330
6C
100
AcDbEntity
  8
0
100
AcDb2dPolyline
 66
     1
 10
0.0
 20
0.0
 30
0.0
 70
   128
  0
VERTEX
  5
621
330
620
100
AcDbEntity
  8
0
100
AcDbVertex
100
AcDb2dVertex
 10
150.2582771859376
 20
219.6573459838221
 30
0.0
  0
VERTEX
  5
622
330
620
100
AcDbEntity
  8
0
100
AcDbVertex
100
AcDb2dVertex
 10
150.2485485158173
 20
219.3675851371775
 30
0.0
  0
VERTEX
  5
624
330
620
100
AcDbEntity
  8
0
100
AcDbVertex
100
AcDb2dVertex
 10
150.2193970761506
 20
219.0748017017433
 30
0.0
  0
VERTEX
  5
625
330
620
100
AcDbEntity
  8
0
100
AcDbVertex
100
AcDb2dVertex
 10
150.1708729348389
 20
218.7813462798188
 30
0.0
  0
VERTEX
  5
626
330
620
100
AcDbEntity
  8
0
100
AcDbVertex
100
AcDb2dVertex
 10
150.1030249676911
 20
218.4895694737027
 30
0.0
  0
VERTEX
  5
627
330
620
100
AcDbEntity
  8
0
100
AcDbVertex
100
AcDb2dVertex
 10
150.0159044347016
 20
218.2018220160792
 30
0.0
  0
VERTEX
  5
628
330
620
100
AcDbEntity
  8
0
100
AcDbVertex
100
AcDb2dVertex
 10
149.9095602116792
 20
217.920454416115
 30
0.0
  0
VERTEX
  5
629
330
620
100
AcDbEntity
  8
0
100
AcDbVertex
100
AcDb2dVertex
 10
149.7842700562684
 20
217.6476856802294
 30
0.0
  0
VERTEX
  5
62A
330
620
100
AcDbEntity
  8
0
100
AcDbVertex
100
AcDb2dVertex
 10
149.6414692483155
 20
217.3851388428996
 30
0.0
  0
VERTEX
  5
62B
330
620
100
AcDbEntity
  8
0
100
AcDbVertex
100
AcDb2dVertex
 10
149.4829626164643
 20
217.1342757080386
 30
0.0
  0
VERTEX
  5
62C
330
620
100
AcDbEntity
  8
0
100
AcDbVertex
100
AcDb2dVertex
 10
149.3105526051728
 20
216.8965580795596
 30
0.0
  0
VERTEX
  5
62D
330
620
100
AcDbEntity
  8
0
100
AcDbVertex
100
AcDb2dVertex
 10
149.1260440430848
 20
216.6734483574221
 30
0.0
  0
VERTEX
  5
62E
330
620
100
AcDbEntity
  8
0
100
AcDbVertex
100
AcDb2dVertex
 10
148.9312417588441
 20
216.4664080475161
 30
0.0
  0
VERTEX
  5
62F
330
620
100
AcDbEntity
  8
0
100
AcDbVertex
100
AcDb2dVertex
 10
148.7252266488282
 20
216.2742706869433
 30
0.0
  0
VERTEX
  5
630
330
620
100
AcDbEntity
  8
0
100
AcDbVertex
100
AcDb2dVertex
 10
148.5035891614167
 20
216.092754278023
 30
0.0
  0
VERTEX
  5
631
330
620
100
AcDbEntity
  8
0
100
AcDbVertex
100
AcDb2dVertex
 10
148.2675750336854
 20
215.9232610200236
 30
0.0
  0
VERTEX
  5
632
330
620
100
AcDbEntity
  8
0
100
AcDbVertex
100
AcDb2dVertex
 10
148.0186421952454
 20
215.7674053047488
 30
0.0
  0
VERTEX
  5
633
330
620
100
AcDbEntity
  8
0
100
AcDbVertex
100
AcDb2dVertex
 10
147.7582509598939
 20
215.6268027160952
 30
0.0
  0
VERTEX
  5
634
330
620
100
AcDbEntity
  8
0
100
AcDbVertex
100
AcDb2dVertex
 10
147.4878628335206
 20
215.5030679438898
 30
0.0
  0
VERTEX
  5
635
330
620
100
AcDbEntity
  8
0
100
AcDbVertex
100
AcDb2dVertex
 10
147.2089488587586
 20
215.3977259729693
 30
0.0
  0
VERTEX
  5
636
330
620
100
AcDbEntity
  8
0
100
AcDbVertex
100
AcDb2dVertex
 10
146.9233543954102
 20
215.3113761280367
 30
0.0
  0
VERTEX
  5
637
330
620
100
AcDbEntity
  8
0
100
AcDbVertex
100
AcDb2dVertex
 10
146.6332788548676
 20
215.2440932129214
 30
0.0
  0
VERTEX
  5
638
330
620
100
AcDbEntity
  8
0
100
AcDbVertex
100
AcDb2dVertex
 10
146.340933569452
 20
215.1959469650576
 30
0.0
  0
VERTEX
  5
639
330
620
100
AcDbEntity
  8
0
100
AcDbVertex
100
AcDb2dVertex
 10
146.0485286793915
 20
215.1670080159495
 30
0.0
  0
VERTEX
  5
63A
330
620
100
AcDbEntity
  8
0
100
AcDbVertex
100
AcDb2dVertex
 10
145.7582779011933
 20
215.1573461030314
 30
0.0
  0
SEQEND
  5
623
330
620
100
AcDbEntity
  8
0
  0
POLYLINE
  5
63B
330
6C
100
AcDbEntity
  8
0
100
AcDb2dPolyline
 66
     1
 10
0.0
 20
0.0
 30
0.0
 70
   128
  0
VERTEX
  5
63C
330
63B
100
AcDbEntity
  8
0
100
AcDbVertex
100
AcDb2dVertex
 10
145.7582779011933
 20
224.1573458646128
 30
0.0
  0
VERTEX
  5
63D
330
63B
100
AcDbEntity
  8
0
100
AcDbVertex
100
AcDb2dVertex
 10
146.0485286793915
 20
224.1476839516947
 30
0.0
  0
VERTEX
  5
63F
330
63B
100
AcDbEntity
  8
0
100
AcDbVertex
100
AcDb2dVertex
 10
146.340933569452
 20
224.1187450025866
 30
0.0
  0
VERTEX
  5
640
330
63B
100
AcDbEntity
  8
0
100
AcDbVertex
100
AcDb2dVertex
 10
146.6332788548676
 20
224.0705987547228
 30
0.0
  0
VERTEX
  5
641
330
63B
100
AcDbEntity
  8
0
100
AcDbVertex
100
AcDb2dVertex
 10
146.9233543954102
 20
224.0033158396075
 30
0.0
  0
VERTEX
  5
642
330
63B
100
AcDbEntity
  8
0
100
AcDbVertex
100
AcDb2dVertex
 10
147.2089488587586
 20
223.9169659946749
 30
0.0
  0
VERTEX
  5
643
330
63B
100
AcDbEntity
  8
0
100
AcDbVertex
100
AcDb2dVertex
 10
147.4878628335206
 20
223.8116240237543
 30
0.0
  0
VERTEX
  5
644
330
63B
100
AcDbEntity
  8
0
100
AcDbVertex
100
AcDb2dVertex
 10
147.7582509598939
 20
223.687889251549
 30
0.0
  0
VERTEX
  5
645
330
63B
100
AcDbEntity
  8
0
100
AcDbVertex
100
AcDb2dVertex
 10
148.0186421952454
 20
223.5472866628954
 30
0.0
  0
VERTEX
  5
646
330
63B
100
AcDbEntity
  8
0
100
AcDbVertex
100
AcDb2dVertex
 10
148.2675750336854
 20
223.3914309476206
 30
0.0
  0
VERTEX
  5
647
330
63B
100
AcDbEntity
  8
0
100
AcDbVertex
100
AcDb2dVertex
 10
148.5035891614167
 20
223.2219376896212
 30
0.0
  0
VERTEX
  5
648
330
63B
100
AcDbEntity
  8
0
100
AcDbVertex
100
AcDb2dVertex
 10
148.7252266488282
 20
223.0404212807009
 30
0.0
  0
VERTEX
  5
649
330
63B
100
AcDbEntity
  8
0
100
AcDbVertex
100
AcDb2dVertex
 10
148.9312417588441
 20
222.8482839201281
 30
0.0
  0
VERTEX
  5
64A
330
63B
100
AcDbEntity
  8
0
100
AcDbVertex
100
AcDb2dVertex
 10
149.1260440430848
 20
222.6412436102221
 30
0.0
  0
VERTEX
  5
64B
330
63B
100
AcDbEntity
  8
0
100
AcDbVertex
100
AcDb2dVertex
 10
149.3105526051728
 20
222.4181338880846
 30
0.0
  0
VERTEX
  5
64C
330
63B
100
AcDbEntity
  8
0
100
AcDbVertex
100
AcDb2dVertex
 10
149.4829626164643
 20
222.1804162596056
 30
0.0
  0
VERTEX
  5
64D
330
63B
100
AcDbEntity
  8
0
100
AcDbVertex
100
AcDb2dVertex
 10
149.6414692483155
 20
221.9295531247446
 30
0.0
  0
VERTEX
  5
64E
330
63B
100
AcDbEntity
  8
0
100
AcDbVertex
100
AcDb2dVertex
 10
149.7842700562684
 20
221.6670062874148
 30
0.0
  0
VERTEX
  5
64F
330
63B
100
AcDbEntity
  8
0
100
AcDbVertex
100
AcDb2dVertex
 10
149.9095602116792
 20
221.3942375515292
 30
0.0
  0
VERTEX
  5
650
330
63B
100
AcDbEntity
  8
0
100
AcDbVertex
100
AcDb2dVertex
 10
150.0159044347016
 20
221.112869951565
 30
0.0
  0
VERTEX
  5
651
330
63B
100
AcDbEntity
  8
0
100
AcDbVertex
100
AcDb2dVertex
 10
150.1030249676911
 20
220.8251224939415
 30
0.0
  0
VERTEX
  5
652
330
63B
100
AcDbEntity
  8
0
100
AcDbVertex
100
AcDb2dVertex
 10
150.1708729348389
 20
220.5333456878254
 30
0.0
  0
VERTEX
  5
653
330
63B
100
AcDbEntity
  8
0
100
AcDbVertex
100
AcDb2dVertex
 10
150.2193970761506
 20
220.2398902659008
 30
0.0
  0
VERTEX
  5
654
330
63B
100
AcDbEntity
  8
0
100
AcDbVertex
100
AcDb2dVertex
 10
150.2485485158173
 20
219.9471068304667
 30
0.0
  0
VERTEX
  5
655
330
63B
100
AcDbEntity
  8
0
100
AcDbVertex
100
AcDb2dVertex
 10
150.2582771859376
 20
219.6573459838221
 30
0.0
  0
SEQEND
  5
63E
330
63B
100
AcDbEntity
  8
0
  0
LINE
  5
656
330
6C
100
AcDbEntity
  8
0
100
AcDbLine
 10
123.5984797558991
 20
215.1573461030314
 30
0.0
 11
122.2582764706819
 21
215.1573461030314
 31
0.0
  0
LINE
  5
657
330
6C
100
AcDbEntity
  8
0
100
AcDbLine
 10
145.7582779011933
 20
215.1573461030314
 30
0.0
 11
123.5984797558991
 21
215.1573461030314
 31
0.0
  0
LINE
  5
658
330
6C
100
AcDbEntity
  8
0
100
AcDbLine
 10
122.2582774243562
 20
230.3094751437869
 30
0.0
 11
122.2582774243561
 21
224.1573459838221
 31
0.0
  0
LINE
  5
659
330
6C
100
AcDbEntity
  8
0
100
AcDbLine
 10
150.2582774243562
 20
234.6573459838221
 30
0.0
 11
150.2582774243561
 21
219.6573459838221
 31
0.0
  0
LINE
  5
65A
330
6C
100
AcDbEntity
  8
0
100
AcDbLine
 10
150.2582774243561
 20
219.6573459838221
 30
0.0
 11
150.2582774243562
 21
204.6573459838221
 31
0.0
  0
LINE
  5
65B
330
6C
100
AcDbEntity
  8
0
100
AcDbLine
 10
156.2582774243562
 20
239.1573459838221
 30
0.0
 11
156.2582774243562
 21
200.1573459838221
 31
0.0
  0
LINE
  5
65C
330
6C
100
AcDbEntity
  8
0
100
AcDbLine
 10
122.2582774243561
 20
215.1573459838221
 30
0.0
 11
122.2582774243562
 21
209.0052168238573
 31
0.0
  0
LINE
  5
65D
330
6C
100
AcDbEntity
  8
0
100
AcDbLine
 10
123.5984777389048
 20
231.8009388746665
 30
0.0
 11
150.2582774243562
 21
234.6573459838221
 31
0.0
  0
ARC
  5
65E
330
6C
100
AcDbEntity
  8
0
100
AcDbCircle
 10
123.7582774243562
 20
230.3094751437869
 30
0.0
 40
1.499999999999993
100
AcDbArc
 50
96.11550356628514
 51
180.0
  0
LINE
  5
65F
330
6C
100
AcDbEntity
  8
0
100
AcDbLine
 10
150.2582774243561
 20
204.6573459838221
 30
0.0
 11
153.1098441564313
 21
200.3799958857095
 31
0.0
  0
LINE
  5
660
330
6C
100
AcDbEntity
  8
0
100
AcDbLine
 10
156.2582774243562
 20
200.1573459838221
 30
0.0
 11
153.5258693036001
 21
200.1573459838221
 31
0.0
  0
LINE
  5
661
330
6C
100
AcDbEntity
  8
0
100
AcDbLine
 10
156.2582774243562
 20
239.1573459838221
 30
0.0
 11
153.5258693036002
 21
239.1573459838221
 31
0.0
  0
ARC
  5
662
330
6C
100
AcDbEntity
  8
0
100
AcDbCircle
 10
153.5258693036001
 20
200.6573459838221
 30
0.0
 40
0.4999999999999919
100
AcDbArc
 50
213.6900675259775
 51
270.0
  0
ARC
  5
663
330
6C
100
AcDbEntity
  8
0
100
AcDbCircle
 10
153.5258693036002
 20
238.6573459838221
 30
0.0
 40
0.4999999999999919
100
AcDbArc
 50
90.00000000000202
 51
146.3099324740225
  0
LINE
  5
664
330
6C
100
AcDbEntity
  8
0
100
AcDbLine
 10
150.2582774243562
 20
234.6573459838221
 30
0.0
 11
153.1098441564313
 21
238.9346960819347
 31
0.0
  0
LINE
  5
665
330
6C
100
AcDbEntity
  8
0
100
AcDbLine
 10
123.5984777389048
 20
207.5137530929776
 30
0.0
 11
150.2582774243562
 21
204.6573459838221
 31
0.0
  0
ARC
  5
666
330
6C
100
AcDbEntity
  8
0
100
AcDbCircle
 10
123.7582774243562
 20
209.0052168238573
 30
0.0
 40
1.499999999999993
100
AcDbArc
 50
180.0
 51
263.8844964337148
  0
LINE
  5
667
330
6C
100
AcDbEntity
  8
0
100
AcDbLine
 10
155.2582774243561
 20
207.197410189445
 30
0.0
 11
155.2582774243561
 21
232.1172817781992
 31
0.0
  0
LINE
  5
668
330
6C
100
AcDbEntity
  8
0
100
AcDbLine
 10
153.5258693036001
 20
232.1172817781992
 30
0.0
 11
155.2582774243561
 21
232.1172817781992
 31
0.0
  0
POLYLINE
  5
669
330
6C
100
AcDbEntity
  8
0
100
AcDb2dPolyline
 66
     1
 10
0.0
 20
0.0
 30
0.0
 70
   128
  0
VERTEX
  5
66A
330
669
100
AcDbEntity
  8
0
100
AcDbVertex
100
AcDb2dVertex
 10
153.1098444543092
 20
231.7658650611231
 30
0.0
  0
VERTEX
  5
66B
330
669
100
AcDbEntity
  8
0
100
AcDbVertex
100
AcDb2dVertex
 10
153.1196744523255
 20
231.7884039614985
 30
0.0
  0
VERTEX
  5
66D
330
669
100
AcDbEntity
  8
0
100
AcDbVertex
100
AcDb2dVertex
 10
153.1302077851502
 20
231.810758087475
 30
0.0
  0
VERTEX
  5
66E
330
669
100
AcDbEntity
  8
0
100
AcDbVertex
100
AcDb2dVertex
 10
153.1413860402314
 20
231.8328034613917
 30
0.0
  0
VERTEX
  5
66F
330
669
100
AcDbEntity
  8
0
100
AcDbVertex
100
AcDb2dVertex
 10
153.1531508050172
 20
231.8544113372157
 30
0.0
  0
VERTEX
  5
670
330
669
100
AcDbEntity
  8
0
100
AcDbVertex
100
AcDb2dVertex
 10
153.1654424748627
 20
231.8754577372859
 30
0.0
  0
VERTEX
  5
671
330
669
100
AcDbEntity
  8
0
100
AcDbVertex
100
AcDb2dVertex
 10
153.1782014451234
 20
231.8958139155695
 30
0.0
  0
VERTEX
  5
672
330
669
100
AcDbEntity
  8
0
100
AcDbVertex
100
AcDb2dVertex
 10
153.1913716874329
 20
231.9153547023127
 30
0.0
  0
VERTEX
  5
673
330
669
100
AcDbEntity
  8
0
100
AcDbVertex
100
AcDb2dVertex
 10
153.2048935971467
 20
231.9339549277613
 30
0.0
  0
VERTEX
  5
674
330
669
100
AcDbEntity
  8
0
100
AcDbVertex
100
AcDb2dVertex
 10
153.2191832146851
 20
231.9520127509425
 30
0.0
  0
VERTEX
  5
675
330
669
100
AcDbEntity
  8
0
100
AcDbVertex
100
AcDb2dVertex
 10
153.2347030720917
 20
231.9699871276209
 30
0.0
  0
VERTEX
  5
676
330
669
100
AcDbEntity
  8
0
100
AcDbVertex
100
AcDb2dVertex
 10
153.2513053498475
 20
231.98766944154
 30
0.0
  0
VERTEX
  5
677
330
669
100
AcDbEntity
  8
0
100
AcDbVertex
100
AcDb2dVertex
 10
153.2688398442475
 20
232.0048475001643
 30
0.0
  0
VERTEX
  5
678
330
669
100
AcDbEntity
  8
0
100
AcDbVertex
100
AcDb2dVertex
 10
153.2871551594941
 20
232.0213091109583
 30
0.0
  0
VERTEX
  5
679
330
669
100
AcDbEntity
  8
0
100
AcDbVertex
100
AcDb2dVertex
 10
153.3061022839753
 20
232.0368432734797
 30
0.0
  0
VERTEX
  5
67A
330
669
100
AcDbEntity
  8
0
100
AcDbVertex
100
AcDb2dVertex
 10
153.3255310139863
 20
232.0512366031
 30
0.0
  0
VERTEX
  5
67B
330
669
100
AcDbEntity
  8
0
100
AcDbVertex
100
AcDb2dVertex
 10
153.3452911458222
 20
232.0642780993769
 30
0.0
  0
VERTEX
  5
67C
330
669
100
AcDbEntity
  8
0
100
AcDbVertex
100
AcDb2dVertex
 10
153.3652312836854
 20
232.0757567618677
 30
0.0
  0
VERTEX
  5
67D
330
669
100
AcDbEntity
  8
0
100
AcDbVertex
100
AcDb2dVertex
 10
153.3860547623841
 20
232.0858716700861
 30
0.0
  0
VERTEX
  5
67E
330
669
100
AcDbEntity
  8
0
100
AcDbVertex
100
AcDb2dVertex
 10
153.4082491479127
 20
232.0948421691248
 30
0.0
  0
VERTEX
  5
67F
330
669
100
AcDbEntity
  8
0
100
AcDbVertex
100
AcDb2dVertex
 10
153.4314174733369
 20
232.1025192473719
 30
0.0
  0
VERTEX
  5
680
330
669
100
AcDbEntity
  8
0
100
AcDbVertex
100
AcDb2dVertex
 10
153.4551615796296
 20
232.1087527011225
 30
0.0
  0
VERTEX
  5
681
330
669
100
AcDbEntity
  8
0
100
AcDbVertex
100
AcDb2dVertex
 10
153.4790844998567
 20
232.1133911345789
 30
0.0
  0
VERTEX
  5
682
330
669
100
AcDbEntity
  8
0
100
AcDbVertex
100
AcDb2dVertex
 10
153.5027856908051
 20
232.1162843440363
 30
0.0
  0
VERTEX
  5
683
330
669
100
AcDbEntity
  8
0
100
AcDbVertex
100
AcDb2dVertex
 10
153.5258693776337
 20
232.1172821257899
 30
0.0
  0
SEQEND
  5
66C
330
669
100
AcDbEntity
  8
0
  0
POLYLINE
  5
684
330
6C
100
AcDbEntity
  8
0
100
AcDb2dPolyline
 66
     1
 10
0.0
 20
0.0
 30
0.0
 70
   128
  0
VERTEX
  5
685
330
684
100
AcDbEntity
  8
0
100
AcDbVertex
100
AcDb2dVertex
 10
150.2582771859376
 20
219.6573459838221
 30
0.0
  0
VERTEX
  5
686
330
684
100
AcDbEntity
  8
0
100
AcDbVertex
100
AcDb2dVertex
 10
150.2628154835908
 20
220.1093174625823
 30
0.0
  0
VERTEX
  5
688
330
684
100
AcDbEntity
  8
0
100
AcDbVertex
100
AcDb2dVertex
 10
150.2763445458619
 20
220.5594204847405
 30
0.0
  0
VERTEX
  5
689
330
684
100
AcDbEntity
  8
0
100
AcDbVertex
100
AcDb2dVertex
 10
150.2987511239258
 20
221.0082687173674
 30
0.0
  0
VERTEX
  5
68A
330
684
100
AcDbEntity
  8
0
100
AcDbVertex
100
AcDb2dVertex
 10
150.3299493870942
 20
221.4564616714308
 30
0.0
  0
VERTEX
  5
68B
330
684
100
AcDbEntity
  8
0
100
AcDbVertex
100
AcDb2dVertex
 10
150.3698785386292
 20
221.9045872722456
 30
0.0
  0
VERTEX
  5
68C
330
684
100
AcDbEntity
  8
0
100
AcDbVertex
100
AcDb2dVertex
 10
150.4184992394654
 20
222.3532247279475
 30
0.0
  0
VERTEX
  5
68D
330
684
100
AcDbEntity
  8
0
100
AcDbVertex
100
AcDb2dVertex
 10
150.4757959923951
 20
222.8029465411494
 30
0.0
  0
VERTEX
  5
68E
330
684
100
AcDbEntity
  8
0
100
AcDbVertex
100
AcDb2dVertex
 10
150.5417747578828
 20
223.2543223832438
 30
0.0
  0
VERTEX
  5
68F
330
684
100
AcDbEntity
  8
0
100
AcDbVertex
100
AcDb2dVertex
 10
150.6164653382508
 20
223.7079205845187
 30
0.0
  0
VERTEX
  5
690
330
684
100
AcDbEntity
  8
0
100
AcDbVertex
100
AcDb2dVertex
 10
150.6999189934937
 20
224.1643106673548
 30
0.0
  0
VERTEX
  5
691
330
684
100
AcDbEntity
  8
0
100
AcDbVertex
100
AcDb2dVertex
 10
150.7922084412782
 20
224.6240657304118
 30
0.0
  0
VERTEX
  5
692
330
684
100
AcDbEntity
  8
0
100
AcDbVertex
100
AcDb2dVertex
 10
150.8934278569428
 20
225.0877654288599
 30
0.0
  0
VERTEX
  5
693
330
684
100
AcDbEntity
  8
0
100
AcDbVertex
100
AcDb2dVertex
 10
151.0036964497773
 20
225.5559980605433
 30
0.0
  0
VERTEX
  5
694
330
684
100
AcDbEntity
  8
0
100
AcDbVertex
100
AcDb2dVertex
 10
151.1231560788361
 20
226.0293626521418
 30
0.0
  0
VERTEX
  5
695
330
684
100
AcDbEntity
  8
0
100
AcDbVertex
100
AcDb2dVertex
 10
151.2519712529389
 20
226.5084719394037
 30
0.0
  0
VERTEX
  5
696
330
684
100
AcDbEntity
  8
0
100
AcDbVertex
100
AcDb2dVertex
 10
151.3903303227631
 20
226.9939547513315
 30
0.0
  0
VERTEX
  5
697
330
684
100
AcDbEntity
  8
0
100
AcDbVertex
100
AcDb2dVertex
 10
151.53844786503
 20
227.4864601825068
 30
0.0
  0
VERTEX
  5
698
330
684
100
AcDbEntity
  8
0
100
AcDbVertex
100
AcDb2dVertex
 10
151.6965646825044
 20
227.9866581891367
 30
0.0
  0
VERTEX
  5
699
330
684
100
AcDbEntity
  8
0
100
AcDbVertex
100
AcDb2dVertex
 10
151.8649501881806
 20
228.4952437613795
 30
0.0
  0
VERTEX
  5
69A
330
684
100
AcDbEntity
  8
0
100
AcDbVertex
100
AcDb2dVertex
 10
152.0439024052827
 20
229.0129404996226
 30
0.0
  0
VERTEX
  5
69B
330
684
100
AcDbEntity
  8
0
100
AcDbVertex
100
AcDb2dVertex
 10
152.2337491593568
 20
229.5405035947153
 30
0.0
  0
VERTEX
  5
69C
330
684
100
AcDbEntity
  8
0
100
AcDbVertex
100
AcDb2dVertex
 10
152.4348516545503
 20
230.0787245963404
 30
0.0
  0
VERTEX
  5
69D
330
684
100
AcDbEntity
  8
0
100
AcDbVertex
100
AcDb2dVertex
 10
152.6476056657044
 20
230.6284343932459
 30
0.0
  0
VERTEX
  5
69E
330
684
100
AcDbEntity
  8
0
100
AcDbVertex
100
AcDb2dVertex
 10
152.8724451146333
 20
231.1905061934778
 30
0.0
  0
VERTEX
  5
69F
330
684
100
AcDbEntity
  8
0
100
AcDbVertex
100
AcDb2dVertex
 10
153.1098444543092
 20
231.7658650611231
 30
0.0
  0
SEQEND
  5
687
330
684
100
AcDbEntity
  8
0
  0
POLYLINE
  5
6A0
330
6C
100
AcDbEntity
  8
0
100
AcDb2dPolyline
 66
     1
 10
0.0
 20
0.0
 30
0.0
 70
   128
  0
VERTEX
  5
6A1
330
6A0
100
AcDbEntity
  8
0
100
AcDbVertex
100
AcDb2dVertex
 10
153.1098444543091
 20
207.548826906521
 30
0.0
  0
VERTEX
  5
6A2
330
6A0
100
AcDbEntity
  8
0
100
AcDbVertex
100
AcDb2dVertex
 10
152.8724451146332
 20
208.1241857741663
 30
0.0
  0
VERTEX
  5
6A4
330
6A0
100
AcDbEntity
  8
0
100
AcDbVertex
100
AcDb2dVertex
 10
152.6476056657044
 20
208.6862575743983
 30
0.0
  0
VERTEX
  5
6A5
330
6A0
100
AcDbEntity
  8
0
100
AcDbVertex
100
AcDb2dVertex
 10
152.4348516545502
 20
209.2359673713038
 30
0.0
  0
VERTEX
  5
6A6
330
6A0
100
AcDbEntity
  8
0
100
AcDbVertex
100
AcDb2dVertex
 10
152.2337491593567
 20
209.7741883729288
 30
0.0
  0
VERTEX
  5
6A7
330
6A0
100
AcDbEntity
  8
0
100
AcDbVertex
100
AcDb2dVertex
 10
152.0439024052826
 20
210.3017514680216
 30
0.0
  0
VERTEX
  5
6A8
330
6A0
100
AcDbEntity
  8
0
100
AcDbVertex
100
AcDb2dVertex
 10
151.8649501881806
 20
210.8194482062647
 30
0.0
  0
VERTEX
  5
6A9
330
6A0
100
AcDbEntity
  8
0
100
AcDbVertex
100
AcDb2dVertex
 10
151.6965646825043
 20
211.3280337785075
 30
0.0
  0
VERTEX
  5
6AA
330
6A0
100
AcDbEntity
  8
0
100
AcDbVertex
100
AcDb2dVertex
 10
151.53844786503
 20
211.8282317851374
 30
0.0
  0
VERTEX
  5
6AB
330
6A0
100
AcDbEntity
  8
0
100
AcDbVertex
100
AcDb2dVertex
 10
151.3903303227631
 20
212.3207372163126
 30
0.0
  0
VERTEX
  5
6AC
330
6A0
100
AcDbEntity
  8
0
100
AcDbVertex
100
AcDb2dVertex
 10
151.2519712529389
 20
212.8062200282404
 30
0.0
  0
VERTEX
  5
6AD
330
6A0
100
AcDbEntity
  8
0
100
AcDbVertex
100
AcDb2dVertex
 10
151.1231560788361
 20
213.2853293155024
 30
0.0
  0
VERTEX
  5
6AE
330
6A0
100
AcDbEntity
  8
0
100
AcDbVertex
100
AcDb2dVertex
 10
151.0036964497773
 20
213.7586939071009
 30
0.0
  0
VERTEX
  5
6AF
330
6A0
100
AcDbEntity
  8
0
100
AcDbVertex
100
AcDb2dVertex
 10
150.8934278569428
 20
214.2269265387843
 30
0.0
  0
VERTEX
  5
6B0
330
6A0
100
AcDbEntity
  8
0
100
AcDbVertex
100
AcDb2dVertex
 10
150.7922084412782
 20
214.6906262372324
 30
0.0
  0
VERTEX
  5
6B1
330
6A0
100
AcDbEntity
  8
0
100
AcDbVertex
100
AcDb2dVertex
 10
150.6999189934937
 20
215.1503813002894
 30
0.0
  0
VERTEX
  5
6B2
330
6A0
100
AcDbEntity
  8
0
100
AcDbVertex
100
AcDb2dVertex
 10
150.6164653382508
 20
215.6067713831255
 30
0.0
  0
VERTEX
  5
6B3
330
6A0
100
AcDbEntity
  8
0
100
AcDbVertex
100
AcDb2dVertex
 10
150.5417747578828
 20
216.0603695844004
 30
0.0
  0
VERTEX
  5
6B4
330
6A0
100
AcDbEntity
  8
0
100
AcDbVertex
100
AcDb2dVertex
 10
150.4757959923951
 20
216.5117454264948
 30
0.0
  0
VERTEX
  5
6B5
330
6A0
100
AcDbEntity
  8
0
100
AcDbVertex
100
AcDb2dVertex
 10
150.4184992394654
 20
216.9614672396967
 30
0.0
  0
VERTEX
  5
6B6
330
6A0
100
AcDbEntity
  8
0
100
AcDbVertex
100
AcDb2dVertex
 10
150.3698785386292
 20
217.4101046953985
 30
0.0
  0
VERTEX
  5
6B7
330
6A0
100
AcDbEntity
  8
0
100
AcDbVertex
100
AcDb2dVertex
 10
150.3299493870942
 20
217.8582302962134
 30
0.0
  0
VERTEX
  5
6B8
330
6A0
100
AcDbEntity
  8
0
100
AcDbVertex
100
AcDb2dVertex
 10
150.2987511239258
 20
218.3064232502768
 30
0.0
  0
VERTEX
  5
6B9
330
6A0
100
AcDbEntity
  8
0
100
AcDbVertex
100
AcDb2dVertex
 10
150.2763445458619
 20
218.7552714829037
 30
0.0
  0
VERTEX
  5
6BA
330
6A0
100
AcDbEntity
  8
0
100
AcDbVertex
100
AcDb2dVertex
 10
150.2628154835908
 20
219.2053745050619
 30
0.0
  0
VERTEX
  5
6BB
330
6A0
100
AcDbEntity
  8
0
100
AcDbVertex
100
AcDb2dVertex
 10
150.2582771859376
 20
219.6573459838221
 30
0.0
  0
SEQEND
  5
6A3
330
6A0
100
AcDbEntity
  8
0
  0
POLYLINE
  5
6BC
330
6C
100
AcDbEntity
  8
0
100
AcDb2dPolyline
 66
     1
 10
0.0
 20
0.0
 30
0.0
 70
   128
  0
VERTEX
  5
6BD
330
6BC
100
AcDbEntity
  8
0
100
AcDbVertex
100
AcDb2dVertex
 10
153.5258693776337
 20
207.1974098418543
 30
0.0
  0
VERTEX
  5
6BE
330
6BC
100
AcDbEntity
  8
0
100
AcDbVertex
100
AcDb2dVertex
 10
153.5027856908051
 20
207.1984076236079
 30
0.0
  0
VERTEX
  5
6C0
330
6BC
100
AcDbEntity
  8
0
100
AcDbVertex
100
AcDb2dVertex
 10
153.4790844998566
 20
207.2013008330653
 30
0.0
  0
VERTEX
  5
6C1
330
6BC
100
AcDbEntity
  8
0
100
AcDbVertex
100
AcDb2dVertex
 10
153.4551615796296
 20
207.2059392665217
 30
0.0
  0
VERTEX
  5
6C2
330
6BC
100
AcDbEntity
  8
0
100
AcDbVertex
100
AcDb2dVertex
 10
153.4314174733368
 20
207.2121727202723
 30
0.0
  0
VERTEX
  5
6C3
330
6BC
100
AcDbEntity
  8
0
100
AcDbVertex
100
AcDb2dVertex
 10
153.4082491479126
 20
207.2198497985194
 30
0.0
  0
VERTEX
  5
6C4
330
6BC
100
AcDbEntity
  8
0
100
AcDbVertex
100
AcDb2dVertex
 10
153.3860547623841
 20
207.2288202975581
 30
0.0
  0
VERTEX
  5
6C5
330
6BC
100
AcDbEntity
  8
0
100
AcDbVertex
100
AcDb2dVertex
 10
153.3652312836854
 20
207.2389352057764
 30
0.0
  0
VERTEX
  5
6C6
330
6BC
100
AcDbEntity
  8
0
100
AcDbVertex
100
AcDb2dVertex
 10
153.3452911458222
 20
207.2504138682673
 30
0.0
  0
VERTEX
  5
6C7
330
6BC
100
AcDbEntity
  8
0
100
AcDbVertex
100
AcDb2dVertex
 10
153.3255310139862
 20
207.2634553645441
 30
0.0
  0
VERTEX
  5
6C8
330
6BC
100
AcDbEntity
  8
0
100
AcDbVertex
100
AcDb2dVertex
 10
153.3061022839753
 20
207.2778486941645
 30
0.0
  0
VERTEX
  5
6C9
330
6BC
100
AcDbEntity
  8
0
100
AcDbVertex
100
AcDb2dVertex
 10
153.2871551594941
 20
207.2933828566859
 30
0.0
  0
VERTEX
  5
6CA
330
6BC
100
AcDbEntity
  8
0
100
AcDbVertex
100
AcDb2dVertex
 10
153.2688398442475
 20
207.3098444674799
 30
0.0
  0
VERTEX
  5
6CB
330
6BC
100
AcDbEntity
  8
0
100
AcDbVertex
100
AcDb2dVertex
 10
153.2513053498474
 20
207.3270225261042
 30
0.0
  0
VERTEX
  5
6CC
330
6BC
100
AcDbEntity
  8
0
100
AcDbVertex
100
AcDb2dVertex
 10
153.2347030720917
 20
207.3447048400232
 30
0.0
  0
VERTEX
  5
6CD
330
6BC
100
AcDbEntity
  8
0
100
AcDbVertex
100
AcDb2dVertex
 10
153.2191832146851
 20
207.3626792167017
 30
0.0
  0
VERTEX
  5
6CE
330
6BC
100
AcDbEntity
  8
0
100
AcDbVertex
100
AcDb2dVertex
 10
153.2048935971467
 20
207.3807370398829
 30
0.0
  0
VERTEX
  5
6CF
330
6BC
100
AcDbEntity
  8
0
100
AcDbVertex
100
AcDb2dVertex
 10
153.1913716874329
 20
207.3993372653315
 30
0.0
  0
VERTEX
  5
6D0
330
6BC
100
AcDbEntity
  8
0
100
AcDbVertex
100
AcDb2dVertex
 10
153.1782014451233
 20
207.4188780520747
 30
0.0
  0
VERTEX
  5
6D1
330
6BC
100
AcDbEntity
  8
0
100
AcDbVertex
100
AcDb2dVertex
 10
153.1654424748627
 20
207.4392342303584
 30
0.0
  0
VERTEX
  5
6D2
330
6BC
100
AcDbEntity
  8
0
100
AcDbVertex
100
AcDb2dVertex
 10
153.1531508050171
 20
207.4602806304286
 30
0.0
  0
VERTEX
  5
6D3
330
6BC
100
AcDbEntity
  8
0
100
AcDbVertex
100
AcDb2dVertex
 10
153.1413860402314
 20
207.4818885062525
 30
0.0
  0
VERTEX
  5
6D4
330
6BC
100
AcDbEntity
  8
0
100
AcDbVertex
100
AcDb2dVertex
 10
153.1302077851502
 20
207.5039338801691
 30
0.0
  0
VERTEX
  5
6D5
330
6BC
100
AcDbEntity
  8
0
100
AcDbVertex
100
AcDb2dVertex
 10
153.1196744523255
 20
207.5262880061457
 30
0.0
  0
VERTEX
  5
6D6
330
6BC
100
AcDbEntity
  8
0
100
AcDbVertex
100
AcDb2dVertex
 10
153.1098444543091
 20
207.548826906521
 30
0.0
  0
SEQEND
  5
6BF
330
6BC
100
AcDbEntity
  8
0
  0
LINE
  5
6D7
330
6C
100
AcDbEntity
  8
0
100
AcDbLine
 10
155.2582774243561
 20
207.197410189445
 30
0.0
 11
153.5258693036001
 21
207.197410189445
 31
0.0
  0
LINE
  5
6D8
330
6C
100
AcDbEntity
  8
0
100
AcDbLine
 10
276.7582774242837
 20
160.9609503221881
 30
0.0
 11
276.7582774242837
 21
150.4252965693355
 31
0.0
  0
LINE
  5
6D9
330
6C
100
AcDbEntity
  8
0
100
AcDbLine
 10
286.7582774242837
 20
150.4252965693355
 30
0.0
 11
276.7582774242837
 21
150.4252965693355
 31
0.0
  0
LINE
  5
6DA
330
6C
100
AcDbEntity
  8
0
100
AcDbLine
 10
286.7582774242837
 20
160.9609503221881
 30
0.0
 11
286.7582774242837
 21
150.4252965693355
 31
0.0
  0
LINE
  5
6DB
330
6C
100
AcDbEntity
  8
0
100
AcDbLine
 10
276.7582774242837
 20
160.9609503221882
 30
0.0
 11
286.7582774242837
 21
160.9609503221881
 31
0.0
  0
LINE
  5
6DC
330
6C
100
AcDbEntity
  8
0
100
AcDbLine
 10
274.7582774242837
 20
145.6931234457593
 30
0.0
 11
274.7582774242837
 21
165.6931234457593
 31
0.0
  0
LINE
  5
6DD
330
6C
100
AcDbEntity
  8
0
100
AcDbLine
 10
286.7582774242837
 20
160.9609503221881
 30
0.0
 11
286.7582774242837
 21
165.6931234457593
 31
0.0
  0
LINE
  5
6DE
330
6C
100
AcDbEntity
  8
0
100
AcDbLine
 10
286.7582774242837
 20
145.6931234457593
 30
0.0
 11
286.7582774242837
 21
150.4252965693355
 31
0.0
  0
LINE
  5
6DF
330
6C
100
AcDbEntity
  8
0
100
AcDbLine
 10
269.4177874342797
 20
136.4431234457593
 30
0.0
 11
269.4177874342797
 21
174.9431234457593
 31
0.0
  0
LINE
  5
6E0
330
6C
100
AcDbEntity
  8
0
100
AcDbLine
 10
274.7582774242837
 20
165.6931234457593
 30
0.0
 11
286.7582774242837
 21
165.6931234457593
 31
0.0
  0
LINE
  5
6E1
330
6C
100
AcDbEntity
  8
0
100
AcDbLine
 10
274.7582774242837
 20
145.6931234457593
 30
0.0
 11
286.7582774242837
 21
145.6931234457593
 31
0.0
  0
LINE
  5
6E2
330
6C
100
AcDbEntity
  8
0
100
AcDbLine
 10
264.7582774242837
 20
174.9431234457593
 30
0.0
 11
269.4177874342797
 21
174.9431234457593
 31
0.0
  0
LINE
  5
6E3
330
6C
100
AcDbEntity
  8
0
100
AcDbLine
 10
264.7582774242837
 20
136.4431234457593
 30
0.0
 11
269.4177874342797
 21
136.4431234457593
 31
0.0
  0
LINE
  5
6E4
330
6C
100
AcDbEntity
  8
0
100
AcDbLine
 10
274.7582774242837
 20
145.6931234457593
 30
0.0
 11
269.4177874342797
 21
136.4431234457593
 31
0.0
  0
LINE
  5
6E5
330
6C
100
AcDbEntity
  8
0
100
AcDbLine
 10
274.7582774242837
 20
165.6931234457593
 30
0.0
 11
269.4177874342797
 21
174.9431234457593
 31
0.0
  0
LINE
  5
6E6
330
6C
100
AcDbEntity
  8
0
100
AcDbLine
 10
264.7582774242837
 20
136.1931234457592
 30
0.0
 11
264.7582774242837
 21
175.1931234457592
 31
0.0
  0
LINE
  5
6E7
330
6C
100
AcDbEntity
  8
0
100
AcDbLine
 10
156.2582774242841
 20
136.1931234457592
 30
0.0
 11
156.2582774242841
 21
175.1931234457594
 31
0.0
  0
LINE
  5
6E8
330
6C
100
AcDbEntity
  8
0
100
AcDbLine
 10
156.2582774242841
 20
175.1931234457594
 30
0.0
 11
264.7582774242837
 21
175.1931234457593
 31
0.0
  0
LINE
  5
6E9
330
6C
100
AcDbEntity
  8
0
100
AcDbLine
 10
156.2582774242841
 20
136.1931234457593
 30
0.0
 11
264.7582774242837
 21
136.1931234457591
 31
0.0
  0
POLYLINE
  5
6EA
330
6C
100
AcDbEntity
  8
0
100
AcDb2dPolyline
 66
     1
 10
0.0
 20
0.0
 30
0.0
 70
   128
  0
VERTEX
  5
6EB
330
6EA
100
AcDbEntity
  8
0
100
AcDbVertex
100
AcDb2dVertex
 10
123.598479755827
 20
166.972167597067
 30
0.0
  0
VERTEX
  5
6EC
330
6EA
100
AcDbEntity
  8
0
100
AcDbVertex
100
AcDb2dVertex
 10
123.5018010220014
 20
166.9573284247037
 30
0.0
  0
VERTEX
  5
6EE
330
6EA
100
AcDbEntity
  8
0
100
AcDbVertex
100
AcDb2dVertex
 10
123.4058184704267
 20
166.9356502153989
 30
0.0
  0
VERTEX
  5
6EF
330
6EA
100
AcDbEntity
  8
0
100
AcDbVertex
100
AcDb2dVertex
 10
123.3126397213422
 20
166.9080687620755
 30
0.0
  0
VERTEX
  5
6F0
330
6EA
100
AcDbEntity
  8
0
100
AcDbVertex
100
AcDb2dVertex
 10
123.2243962368451
 20
166.8755162813779
 30
0.0
  0
VERTEX
  5
6F1
330
6EA
100
AcDbEntity
  8
0
100
AcDbVertex
100
AcDb2dVertex
 10
123.1407446941815
 20
166.8377066710111
 30
0.0
  0
VERTEX
  5
6F2
330
6EA
100
AcDbEntity
  8
0
100
AcDbVertex
100
AcDb2dVertex
 10
123.0568499645673
 20
166.7923797228452
 30
0.0
  0
VERTEX
  5
6F3
330
6EA
100
AcDbEntity
  8
0
100
AcDbVertex
100
AcDb2dVertex
 10
122.9739661297284
 20
166.740576133978
 30
0.0
  0
VERTEX
  5
6F4
330
6EA
100
AcDbEntity
  8
0
100
AcDbVertex
100
AcDb2dVertex
 10
122.8937430462323
 20
166.6835356810208
 30
0.0
  0
VERTEX
  5
6F5
330
6EA
100
AcDbEntity
  8
0
100
AcDbVertex
100
AcDb2dVertex
 10
122.8178258022748
 20
166.6224957563992
 30
0.0
  0
VERTEX
  5
6F6
330
6EA
100
AcDbEntity
  8
0
100
AcDbVertex
100
AcDb2dVertex
 10
122.7478594860517
 20
166.5586961367246
 30
0.0
  0
VERTEX
  5
6F7
330
6EA
100
AcDbEntity
  8
0
100
AcDbVertex
100
AcDb2dVertex
 10
122.6846022686444
 20
166.4924908735867
 30
0.0
  0
VERTEX
  5
6F8
330
6EA
100
AcDbEntity
  8
0
100
AcDbVertex
100
AcDb2dVertex
 10
122.6241154751264
 20
166.4199150660153
 30
0.0
  0
VERTEX
  5
6F9
330
6EA
100
AcDbEntity
  8
0
100
AcDbVertex
100
AcDb2dVertex
 10
122.5664467892133
 20
166.3416470148679
 30
0.0
  0
VERTEX
  5
6FA
330
6EA
100
AcDbEntity
  8
0
100
AcDbVertex
100
AcDb2dVertex
 10
122.5125212749921
 20
166.2592829325314
 30
0.0
  0
VERTEX
  5
6FB
330
6EA
100
AcDbEntity
  8
0
100
AcDbVertex
100
AcDb2dVertex
 10
122.4632639965497
 20
166.1744154551145
 30
0.0
  0
VERTEX
  5
6FC
330
6EA
100
AcDbEntity
  8
0
100
AcDbVertex
100
AcDb2dVertex
 10
122.4195952496015
 20
166.0886396029111
 30
0.0
  0
VERTEX
  5
6FD
330
6EA
100
AcDbEntity
  8
0
100
AcDbVertex
100
AcDb2dVertex
 10
122.3824305614911
 20
166.0035468199368
 30
0.0
  0
VERTEX
  5
6FE
330
6EA
100
AcDbEntity
  8
0
100
AcDbVertex
100
AcDb2dVertex
 10
122.3510117611371
 20
165.9167898752805
 30
0.0
  0
VERTEX
  5
6FF
330
6EA
100
AcDbEntity
  8
0
100
AcDbVertex
100
AcDb2dVertex
 10
122.3237366756879
 20
165.8250607111569
 30
0.0
  0
VERTEX
  5
700
330
6EA
100
AcDbEntity
  8
0
100
AcDbVertex
100
AcDb2dVertex
 10
122.3008484920941
 20
165.7299579241391
 30
0.0
  0
VERTEX
  5
701
330
6EA
100
AcDbEntity
  8
0
100
AcDbVertex
100
AcDb2dVertex
 10
122.2826047024213
 20
165.6330932238217
 30
0.0
  0
VERTEX
  5
702
330
6EA
100
AcDbEntity
  8
0
100
AcDbVertex
100
AcDb2dVertex
 10
122.2692580303632
 20
165.5360807039853
 30
0.0
  0
VERTEX
  5
703
330
6EA
100
AcDbEntity
  8
0
100
AcDbVertex
100
AcDb2dVertex
 10
122.2610659679852
 20
165.440532670271
 30
0.0
  0
VERTEX
  5
704
330
6EA
100
AcDbEntity
  8
0
100
AcDbVertex
100
AcDb2dVertex
 10
122.2582764706098
 20
165.3480626204129
 30
0.0
  0
SEQEND
  5
6ED
330
6EA
100
AcDbEntity
  8
0
  0
POLYLINE
  5
705
330
6C
100
AcDbEntity
  8
0
100
AcDb2dPolyline
 66
     1
 10
0.0
 20
0.0
 30
0.0
 70
   128
  0
VERTEX
  5
706
330
705
100
AcDbEntity
  8
0
100
AcDbVertex
100
AcDb2dVertex
 10
145.7582779011212
 20
169.4959558107967
 30
0.0
  0
VERTEX
  5
707
330
705
100
AcDbEntity
  8
0
100
AcDbVertex
100
AcDb2dVertex
 10
145.2027888378583
 20
169.4333423235531
 30
0.0
  0
VERTEX
  5
709
330
705
100
AcDbEntity
  8
0
100
AcDbVertex
100
AcDb2dVertex
 10
144.6499295315228
 20
169.370997057211
 30
0.0
  0
VERTEX
  5
70A
330
705
100
AcDbEntity
  8
0
100
AcDbVertex
100
AcDb2dVertex
 10
144.0996785244428
 20
169.3089200117703
 30
0.0
  0
VERTEX
  5
70B
330
705
100
AcDbEntity
  8
0
100
AcDbVertex
100
AcDb2dVertex
 10
143.5520262798749
 20
169.2471064188595
 30
0.0
  0
VERTEX
  5
70C
330
705
100
AcDbEntity
  8
0
100
AcDbVertex
100
AcDb2dVertex
 10
143.0069489559613
 20
169.1855574705716
 30
0.0
  0
VERTEX
  5
70D
330
705
100
AcDbEntity
  8
0
100
AcDbVertex
100
AcDb2dVertex
 10
142.4644346317731
 20
169.1242695906277
 30
0.0
  0
VERTEX
  5
70E
330
705
100
AcDbEntity
  8
0
100
AcDbVertex
100
AcDb2dVertex
 10
141.9244642338239
 20
169.0632403948422
 30
0.0
  0
VERTEX
  5
70F
330
705
100
AcDbEntity
  8
0
100
AcDbVertex
100
AcDb2dVertex
 10
141.3870234569989
 20
169.002469883215
 30
0.0
  0
VERTEX
  5
710
330
705
100
AcDbEntity
  8
0
100
AcDbVertex
100
AcDb2dVertex
 10
140.8520956119977
 20
168.9419544794674
 30
0.0
  0
VERTEX
  5
711
330
705
100
AcDbEntity
  8
0
100
AcDbVertex
100
AcDb2dVertex
 10
140.3196640095197
 20
168.8816929915066
 30
0.0
  0
VERTEX
  5
712
330
705
100
AcDbEntity
  8
0
100
AcDbVertex
100
AcDb2dVertex
 10
139.7897143444501
 20
168.8216842272396
 30
0.0
  0
VERTEX
  5
713
330
705
100
AcDbEntity
  8
0
100
AcDbVertex
100
AcDb2dVertex
 10
139.2622323116742
 20
168.7619258024808
 30
0.0
  0
VERTEX
  5
714
330
705
100
AcDbEntity
  8
0
100
AcDbVertex
100
AcDb2dVertex
 10
138.7371988377057
 20
168.702416525137
 30
0.0
  0
VERTEX
  5
715
330
705
100
AcDbEntity
  8
0
100
AcDbVertex
100
AcDb2dVertex
 10
138.2145996174298
 20
168.6431540110226
 30
0.0
  0
VERTEX
  5
716
330
705
100
AcDbEntity
  8
0
100
AcDbVertex
100
AcDb2dVertex
 10
137.6944203457318
 20
168.5841370680447
 30
0.0
  0
VERTEX
  5
717
330
705
100
AcDbEntity
  8
0
100
AcDbVertex
100
AcDb2dVertex
 10
137.176646717497
 20
168.5253645041104
 30
0.0
  0
VERTEX
  5
718
330
705
100
AcDbEntity
  8
0
100
AcDbVertex
100
AcDb2dVertex
 10
136.6612644276105
 20
168.466832742941
 30
0.0
  0
VERTEX
  5
719
330
705
100
AcDbEntity
  8
0
100
AcDbVertex
100
AcDb2dVertex
 10
136.1482544025861
 20
168.4085417845364
 30
0.0
  0
VERTEX
  5
71A
330
705
100
AcDbEntity
  8
0
100
AcDbVertex
100
AcDb2dVertex
 10
135.6376071056806
 20
168.350489244711
 30
0.0
  0
VERTEX
  5
71B
330
705
100
AcDbEntity
  8
0
100
AcDbVertex
100
AcDb2dVertex
 10
135.1293058475934
 20
168.2926739313718
 30
0.0
  0
VERTEX
  5
71C
330
705
100
AcDbEntity
  8
0
100
AcDbVertex
100
AcDb2dVertex
 10
134.6233363232099
 20
168.2350946524258
 30
0.0
  0
VERTEX
  5
71D
330
705
100
AcDbEntity
  8
0
100
AcDbVertex
100
AcDb2dVertex
 10
134.1196818432294
 20
168.1777478315945
 30
0.0
  0
VERTEX
  5
71E
330
705
100
AcDbEntity
  8
0
100
AcDbVertex
100
AcDb2dVertex
 10
133.6183328709088
 20
168.1206346609708
 30
0.0
  0
VERTEX
  5
71F
330
705
100
AcDbEntity
  8
0
100
AcDbVertex
100
AcDb2dVertex
 10
133.1192727169477
 20
168.0637503721829
 30
0.0
  0
VERTEX
  5
720
330
705
100
AcDbEntity
  8
0
100
AcDbVertex
100
AcDb2dVertex
 10
132.6224894604169
 20
168.0070961573239
 30
0.0
  0
VERTEX
  5
721
330
705
100
AcDbEntity
  8
0
100
AcDbVertex
100
AcDb2dVertex
 10
132.1279687962018
 20
167.9506696322079
 30
0.0
  0
VERTEX
  5
722
330
705
100
AcDbEntity
  8
0
100
AcDbVertex
100
AcDb2dVertex
 10
131.6356940350019
 20
167.8944684126492
 30
0.0
  0
VERTEX
  5
723
330
705
100
AcDbEntity
  8
0
100
AcDbVertex
100
AcDb2dVertex
 10
131.1456556400739
 20
167.8384924986478
 30
0.0
  0
VERTEX
  5
724
330
705
100
AcDbEntity
  8
0
100
AcDbVertex
100
AcDb2dVertex
 10
130.6578393063031
 20
167.7827383139249
 30
0.0
  0
VERTEX
  5
725
330
705
100
AcDbEntity
  8
0
100
AcDbVertex
100
AcDb2dVertex
 10
130.1722307285748
 20
167.7272058584805
 30
0.0
  0
VERTEX
  5
726
330
705
100
AcDbEntity
  8
0
100
AcDbVertex
100
AcDb2dVertex
 10
129.6888179859601
 20
167.671892748129
 30
0.0
  0
VERTEX
  5
727
330
705
100
AcDbEntity
  8
0
100
AcDbVertex
100
AcDb2dVertex
 10
129.2075867733441
 20
167.6167989828702
 30
0.0
  0
VERTEX
  5
728
330
705
100
AcDbEntity
  8
0
100
AcDbVertex
100
AcDb2dVertex
 10
128.728525169798
 20
167.5619209864255
 30
0.0
  0
VERTEX
  5
729
330
705
100
AcDbEntity
  8
0
100
AcDbVertex
100
AcDb2dVertex
 10
128.2516212543927
 20
167.5072587587949
 30
0.0
  0
VERTEX
  5
72A
330
705
100
AcDbEntity
  8
0
100
AcDbVertex
100
AcDb2dVertex
 10
127.7768607220136
 20
167.4528111078854
 30
0.0
  0
VERTEX
  5
72B
330
705
100
AcDbEntity
  8
0
100
AcDbVertex
100
AcDb2dVertex
 10
127.3042316517316
 20
167.3985756495114
 30
0.0
  0
VERTEX
  5
72C
330
705
100
AcDbEntity
  8
0
100
AcDbVertex
100
AcDb2dVertex
 10
126.8337221226178
 20
167.344549999487
 30
0.0
  0
VERTEX
  5
72D
330
705
100
AcDbEntity
  8
0
100
AcDbVertex
100
AcDb2dVertex
 10
126.3653202137433
 20
167.2907353499051
 30
0.0
  0
VERTEX
  5
72E
330
705
100
AcDbEntity
  8
0
100
AcDbVertex
100
AcDb2dVertex
 10
125.8990140041791
 20
167.237128124487
 30
0.0
  0
VERTEX
  5
72F
330
705
100
AcDbEntity
  8
0
100
AcDbVertex
100
AcDb2dVertex
 10
125.4347891888105
 20
167.1837283232327
 30
0.0
  0
VERTEX
  5
730
330
705
100
AcDbEntity
  8
0
100
AcDbVertex
100
AcDb2dVertex
 10
124.9726338467084
 20
167.1305335619565
 30
0.0
  0
VERTEX
  5
731
330
705
100
AcDbEntity
  8
0
100
AcDbVertex
100
AcDb2dVertex
 10
124.5125384411298
 20
167.0775426485654
 30
0.0
  0
VERTEX
  5
732
330
705
100
AcDbEntity
  8
0
100
AcDbVertex
100
AcDb2dVertex
 10
124.0544886669599
 20
167.0247543909665
 30
0.0
  0
VERTEX
  5
733
330
705
100
AcDbEntity
  8
0
100
AcDbVertex
100
AcDb2dVertex
 10
123.598479755827
 20
166.972167597067
 30
0.0
  0
SEQEND
  5
708
330
705
100
AcDbEntity
  8
0
  0
POLYLINE
  5
734
330
6C
100
AcDbEntity
  8
0
100
AcDb2dPolyline
 66
     1
 10
0.0
 20
0.0
 30
0.0
 70
   128
  0
VERTEX
  5
735
330
734
100
AcDbEntity
  8
0
100
AcDbVertex
100
AcDb2dVertex
 10
123.598479755827
 20
144.4140792944546
 30
0.0
  0
VERTEX
  5
736
330
734
100
AcDbEntity
  8
0
100
AcDbVertex
100
AcDb2dVertex
 10
124.0544886669598
 20
144.3614925005551
 30
0.0
  0
VERTEX
  5
738
330
734
100
AcDbEntity
  8
0
100
AcDbVertex
100
AcDb2dVertex
 10
124.5125384411297
 20
144.3087042429562
 30
0.0
  0
VERTEX
  5
739
330
734
100
AcDbEntity
  8
0
100
AcDbVertex
100
AcDb2dVertex
 10
124.9726338467084
 20
144.2557133295651
 30
0.0
  0
VERTEX
  5
73A
330
734
100
AcDbEntity
  8
0
100
AcDbVertex
100
AcDb2dVertex
 10
125.4347891888104
 20
144.2025185682889
 30
0.0
  0
VERTEX
  5
73B
330
734
100
AcDbEntity
  8
0
100
AcDbVertex
100
AcDb2dVertex
 10
125.8990140041791
 20
144.1491187670346
 30
0.0
  0
VERTEX
  5
73C
330
734
100
AcDbEntity
  8
0
100
AcDbVertex
100
AcDb2dVertex
 10
126.3653202137433
 20
144.0955115416165
 30
0.0
  0
VERTEX
  5
73D
330
734
100
AcDbEntity
  8
0
100
AcDbVertex
100
AcDb2dVertex
 10
126.8337221226178
 20
144.0416968920346
 30
0.0
  0
VERTEX
  5
73E
330
734
100
AcDbEntity
  8
0
100
AcDbVertex
100
AcDb2dVertex
 10
127.3042316517316
 20
143.9876712420102
 30
0.0
  0
VERTEX
  5
73F
330
734
100
AcDbEntity
  8
0
100
AcDbVertex
100
AcDb2dVertex
 10
127.7768607220135
 20
143.9334357836361
 30
0.0
  0
VERTEX
  5
740
330
734
100
AcDbEntity
  8
0
100
AcDbVertex
100
AcDb2dVertex
 10
128.2516212543927
 20
143.8789881327267
 30
0.0
  0
VERTEX
  5
741
330
734
100
AcDbEntity
  8
0
100
AcDbVertex
100
AcDb2dVertex
 10
128.728525169798
 20
143.8243259050961
 30
0.0
  0
VERTEX
  5
742
330
734
100
AcDbEntity
  8
0
100
AcDbVertex
100
AcDb2dVertex
 10
129.2075867733441
 20
143.7694479086514
 30
0.0
  0
VERTEX
  5
743
330
734
100
AcDbEntity
  8
0
100
AcDbVertex
100
AcDb2dVertex
 10
129.6888179859601
 20
143.7143541433926
 30
0.0
  0
VERTEX
  5
744
330
734
100
AcDbEntity
  8
0
100
AcDbVertex
100
AcDb2dVertex
 10
130.1722307285748
 20
143.6590410330411
 30
0.0
  0
VERTEX
  5
745
330
734
100
AcDbEntity
  8
0
100
AcDbVertex
100
AcDb2dVertex
 10
130.6578393063031
 20
143.6035085775967
 30
0.0
  0
VERTEX
  5
746
330
734
100
AcDbEntity
  8
0
100
AcDbVertex
100
AcDb2dVertex
 10
131.1456556400738
 20
143.5477543928738
 30
0.0
  0
VERTEX
  5
747
330
734
100
AcDbEntity
  8
0
100
AcDbVertex
100
AcDb2dVertex
 10
131.6356940350018
 20
143.4917784788724
 30
0.0
  0
VERTEX
  5
748
330
734
100
AcDbEntity
  8
0
100
AcDbVertex
100
AcDb2dVertex
 10
132.1279687962018
 20
143.4355772593137
 30
0.0
  0
VERTEX
  5
749
330
734
100
AcDbEntity
  8
0
100
AcDbVertex
100
AcDb2dVertex
 10
132.6224894604169
 20
143.3791507341977
 30
0.0
  0
VERTEX
  5
74A
330
734
100
AcDbEntity
  8
0
100
AcDbVertex
100
AcDb2dVertex
 10
133.1192727169476
 20
143.3224965193387
 30
0.0
  0
VERTEX
  5
74B
330
734
100
AcDbEntity
  8
0
100
AcDbVertex
100
AcDb2dVertex
 10
133.6183328709088
 20
143.2656122305508
 30
0.0
  0
VERTEX
  5
74C
330
734
100
AcDbEntity
  8
0
100
AcDbVertex
100
AcDb2dVertex
 10
134.1196818432294
 20
143.208499059927
 30
0.0
  0
VERTEX
  5
74D
330
734
100
AcDbEntity
  8
0
100
AcDbVertex
100
AcDb2dVertex
 10
134.6233363232098
 20
143.1511522390957
 30
0.0
  0
VERTEX
  5
74E
330
734
100
AcDbEntity
  8
0
100
AcDbVertex
100
AcDb2dVertex
 10
135.1293058475934
 20
143.0935729601498
 30
0.0
  0
VERTEX
  5
74F
330
734
100
AcDbEntity
  8
0
100
AcDbVertex
100
AcDb2dVertex
 10
135.6376071056805
 20
143.0357576468106
 30
0.0
  0
VERTEX
  5
750
330
734
100
AcDbEntity
  8
0
100
AcDbVertex
100
AcDb2dVertex
 10
136.1482544025861
 20
142.9777051069851
 30
0.0
  0
VERTEX
  5
751
330
734
100
AcDbEntity
  8
0
100
AcDbVertex
100
AcDb2dVertex
 10
136.6612644276105
 20
142.9194141485806
 30
0.0
  0
VERTEX
  5
752
330
734
100
AcDbEntity
  8
0
100
AcDbVertex
100
AcDb2dVertex
 10
137.1766467174969
 20
142.8608823874112
 30
0.0
  0
VERTEX
  5
753
330
734
100
AcDbEntity
  8
0
100
AcDbVertex
100
AcDb2dVertex
 10
137.6944203457318
 20
142.8021098234768
 30
0.0
  0
VERTEX
  5
754
330
734
100
AcDbEntity
  8
0
100
AcDbVertex
100
AcDb2dVertex
 10
138.2145996174298
 20
142.7430928804989
 30
0.0
  0
VERTEX
  5
755
330
734
100
AcDbEntity
  8
0
100
AcDbVertex
100
AcDb2dVertex
 10
138.7371988377057
 20
142.6838303663845
 30
0.0
  0
VERTEX
  5
756
330
734
100
AcDbEntity
  8
0
100
AcDbVertex
100
AcDb2dVertex
 10
139.2622323116742
 20
142.6243210890408
 30
0.0
  0
VERTEX
  5
757
330
734
100
AcDbEntity
  8
0
100
AcDbVertex
100
AcDb2dVertex
 10
139.7897143444501
 20
142.5645626642818
 30
0.0
  0
VERTEX
  5
758
330
734
100
AcDbEntity
  8
0
100
AcDbVertex
100
AcDb2dVertex
 10
140.3196640095196
 20
142.5045539000149
 30
0.0
  0
VERTEX
  5
759
330
734
100
AcDbEntity
  8
0
100
AcDbVertex
100
AcDb2dVertex
 10
140.8520956119977
 20
142.4442924120541
 30
0.0
  0
VERTEX
  5
75A
330
734
100
AcDbEntity
  8
0
100
AcDbVertex
100
AcDb2dVertex
 10
141.3870234569989
 20
142.3837770083065
 30
0.0
  0
VERTEX
  5
75B
330
734
100
AcDbEntity
  8
0
100
AcDbVertex
100
AcDb2dVertex
 10
141.9244642338238
 20
142.3230064966793
 30
0.0
  0
VERTEX
  5
75C
330
734
100
AcDbEntity
  8
0
100
AcDbVertex
100
AcDb2dVertex
 10
142.4644346317731
 20
142.2619773008938
 30
0.0
  0
VERTEX
  5
75D
330
734
100
AcDbEntity
  8
0
100
AcDbVertex
100
AcDb2dVertex
 10
143.0069489559613
 20
142.2006894209499
 30
0.0
  0
VERTEX
  5
75E
330
734
100
AcDbEntity
  8
0
100
AcDbVertex
100
AcDb2dVertex
 10
143.5520262798749
 20
142.139140472662
 30
0.0
  0
VERTEX
  5
75F
330
734
100
AcDbEntity
  8
0
100
AcDbVertex
100
AcDb2dVertex
 10
144.0996785244427
 20
142.0773268797512
 30
0.0
  0
VERTEX
  5
760
330
734
100
AcDbEntity
  8
0
100
AcDbVertex
100
AcDb2dVertex
 10
144.6499295315228
 20
142.0152498343106
 30
0.0
  0
VERTEX
  5
761
330
734
100
AcDbEntity
  8
0
100
AcDbVertex
100
AcDb2dVertex
 10
145.2027888378583
 20
141.9529045679684
 30
0.0
  0
VERTEX
  5
762
330
734
100
AcDbEntity
  8
0
100
AcDbVertex
100
AcDb2dVertex
 10
145.7582779011212
 20
141.8902910807247
 30
0.0
  0
SEQEND
  5
737
330
734
100
AcDbEntity
  8
0
  0
POLYLINE
  5
763
330
6C
100
AcDbEntity
  8
0
100
AcDb2dPolyline
 66
     1
 10
0.0
 20
0.0
 30
0.0
 70
   128
  0
VERTEX
  5
764
330
763
100
AcDbEntity
  8
0
100
AcDbVertex
100
AcDb2dVertex
 10
122.2582764706097
 20
146.0381842711087
 30
0.0
  0
VERTEX
  5
765
330
763
100
AcDbEntity
  8
0
100
AcDbVertex
100
AcDb2dVertex
 10
122.2610659679852
 20
145.9457142212506
 30
0.0
  0
VERTEX
  5
767
330
763
100
AcDbEntity
  8
0
100
AcDbVertex
100
AcDb2dVertex
 10
122.2692580303631
 20
145.8501661875363
 30
0.0
  0
VERTEX
  5
768
330
763
100
AcDbEntity
  8
0
100
AcDbVertex
100
AcDb2dVertex
 10
122.2826047024213
 20
145.7531536676999
 30
0.0
  0
VERTEX
  5
769
330
763
100
AcDbEntity
  8
0
100
AcDbVertex
100
AcDb2dVertex
 10
122.3008484920941
 20
145.6562889673825
 30
0.0
  0
VERTEX
  5
76A
330
763
100
AcDbEntity
  8
0
100
AcDbVertex
100
AcDb2dVertex
 10
122.3237366756878
 20
145.5611861803647
 30
0.0
  0
VERTEX
  5
76B
330
763
100
AcDbEntity
  8
0
100
AcDbVertex
100
AcDb2dVertex
 10
122.3510117611371
 20
145.4694570162411
 30
0.0
  0
VERTEX
  5
76C
330
763
100
AcDbEntity
  8
0
100
AcDbVertex
100
AcDb2dVertex
 10
122.3824305614911
 20
145.3827000715848
 30
0.0
  0
VERTEX
  5
76D
330
763
100
AcDbEntity
  8
0
100
AcDbVertex
100
AcDb2dVertex
 10
122.4195952496014
 20
145.2976072886105
 30
0.0
  0
VERTEX
  5
76E
330
763
100
AcDbEntity
  8
0
100
AcDbVertex
100
AcDb2dVertex
 10
122.4632639965497
 20
145.2118314364072
 30
0.0
  0
VERTEX
  5
76F
330
763
100
AcDbEntity
  8
0
100
AcDbVertex
100
AcDb2dVertex
 10
122.5125212749921
 20
145.1269639589902
 30
0.0
  0
VERTEX
  5
770
330
763
100
AcDbEntity
  8
0
100
AcDbVertex
100
AcDb2dVertex
 10
122.5664467892132
 20
145.0445998766537
 30
0.0
  0
VERTEX
  5
771
330
763
100
AcDbEntity
  8
0
100
AcDbVertex
100
AcDb2dVertex
 10
122.6241154751263
 20
144.9663318255063
 30
0.0
  0
VERTEX
  5
772
330
763
100
AcDbEntity
  8
0
100
AcDbVertex
100
AcDb2dVertex
 10
122.6846022686444
 20
144.8937560179349
 30
0.0
  0
VERTEX
  5
773
330
763
100
AcDbEntity
  8
0
100
AcDbVertex
100
AcDb2dVertex
 10
122.7478594860516
 20
144.827550754797
 30
0.0
  0
VERTEX
  5
774
330
763
100
AcDbEntity
  8
0
100
AcDbVertex
100
AcDb2dVertex
 10
122.8178258022748
 20
144.7637511351224
 30
0.0
  0
VERTEX
  5
775
330
763
100
AcDbEntity
  8
0
100
AcDbVertex
100
AcDb2dVertex
 10
122.8937430462323
 20
144.7027112105008
 30
0.0
  0
VERTEX
  5
776
330
763
100
AcDbEntity
  8
0
100
AcDbVertex
100
AcDb2dVertex
 10
122.9739661297284
 20
144.6456707575436
 30
0.0
  0
VERTEX
  5
777
330
763
100
AcDbEntity
  8
0
100
AcDbVertex
100
AcDb2dVertex
 10
123.0568499645672
 20
144.5938671686764
 30
0.0
  0
VERTEX
  5
778
330
763
100
AcDbEntity
  8
0
100
AcDbVertex
100
AcDb2dVertex
 10
123.1407446941815
 20
144.5485402205106
 30
0.0
  0
VERTEX
  5
779
330
763
100
AcDbEntity
  8
0
100
AcDbVertex
100
AcDb2dVertex
 10
123.2243962368451
 20
144.5107306101437
 30
0.0
  0
VERTEX
  5
77A
330
763
100
AcDbEntity
  8
0
100
AcDbVertex
100
AcDb2dVertex
 10
123.3126397213422
 20
144.4781781294461
 30
0.0
  0
VERTEX
  5
77B
330
763
100
AcDbEntity
  8
0
100
AcDbVertex
100
AcDb2dVertex
 10
123.4058184704266
 20
144.4505966761227
 30
0.0
  0
VERTEX
  5
77C
330
763
100
AcDbEntity
  8
0
100
AcDbVertex
100
AcDb2dVertex
 10
123.5018010220013
 20
144.4289184668179
 30
0.0
  0
VERTEX
  5
77D
330
763
100
AcDbEntity
  8
0
100
AcDbVertex
100
AcDb2dVertex
 10
123.598479755827
 20
144.4140792944546
 30
0.0
  0
SEQEND
  5
766
330
763
100
AcDbEntity
  8
0
  0
POLYLINE
  5
77E
330
6C
100
AcDbEntity
  8
0
100
AcDb2dPolyline
 66
     1
 10
0.0
 20
0.0
 30
0.0
 70
   128
  0
VERTEX
  5
77F
330
77E
100
AcDbEntity
  8
0
100
AcDbVertex
100
AcDb2dVertex
 10
150.2582771858655
 20
170.6931234457594
 30
0.0
  0
VERTEX
  5
780
330
77E
100
AcDbEntity
  8
0
100
AcDbVertex
100
AcDb2dVertex
 10
150.2485485157453
 20
170.6890953638656
 30
0.0
  0
VERTEX
  5
782
330
77E
100
AcDbEntity
  8
0
100
AcDbVertex
100
AcDb2dVertex
 10
150.2193970760785
 20
170.6771541693314
 30
0.0
  0
VERTEX
  5
783
330
77E
100
AcDbEntity
  8
0
100
AcDbVertex
100
AcDb2dVertex
 10
150.1708729347669
 20
170.6575168230638
 30
0.0
  0
VERTEX
  5
784
330
77E
100
AcDbEntity
  8
0
100
AcDbVertex
100
AcDb2dVertex
 10
150.103024967619
 20
170.6304014780626
 30
0.0
  0
VERTEX
  5
785
330
77E
100
AcDbEntity
  8
0
100
AcDbVertex
100
AcDb2dVertex
 10
150.0159044346295
 20
170.5960250952349
 30
0.0
  0
VERTEX
  5
786
330
77E
100
AcDbEntity
  8
0
100
AcDbVertex
100
AcDb2dVertex
 10
149.9095602116071
 20
170.5546046354877
 30
0.0
  0
VERTEX
  5
787
330
77E
100
AcDbEntity
  8
0
100
AcDbVertex
100
AcDb2dVertex
 10
149.7842700561963
 20
170.5065692522633
 30
0.0
  0
VERTEX
  5
788
330
77E
100
AcDbEntity
  8
0
100
AcDbVertex
100
AcDb2dVertex
 10
149.6414692482434
 20
170.452965603124
 30
0.0
  0
VERTEX
  5
789
330
77E
100
AcDbEntity
  8
0
100
AcDbVertex
100
AcDb2dVertex
 10
149.4829626163922
 20
170.3948618033041
 30
0.0
  0
VERTEX
  5
78A
330
77E
100
AcDbEntity
  8
0
100
AcDbVertex
100
AcDb2dVertex
 10
149.3105526051007
 20
170.333327160131
 30
0.0
  0
VERTEX
  5
78B
330
77E
100
AcDbEntity
  8
0
100
AcDbVertex
100
AcDb2dVertex
 10
149.1260440430127
 20
170.2694309809318
 30
0.0
  0
VERTEX
  5
78C
330
77E
100
AcDbEntity
  8
0
100
AcDbVertex
100
AcDb2dVertex
 10
148.931241758772
 20
170.2042401888481
 30
0.0
  0
VERTEX
  5
78D
330
77E
100
AcDbEntity
  8
0
100
AcDbVertex
100
AcDb2dVertex
 10
148.7252266487561
 20
170.137947902929
 30
0.0
  0
VERTEX
  5
78E
330
77E
100
AcDbEntity
  8
0
100
AcDbVertex
100
AcDb2dVertex
 10
148.5035891613446
 20
170.0696743586175
 30
0.0
  0
VERTEX
  5
78F
330
77E
100
AcDbEntity
  8
0
100
AcDbVertex
100
AcDb2dVertex
 10
148.2675750336133
 20
170.0004042246454
 30
0.0
  0
VERTEX
  5
790
330
77E
100
AcDbEntity
  8
0
100
AcDbVertex
100
AcDb2dVertex
 10
148.0186421951733
 20
169.9311972715968
 30
0.0
  0
VERTEX
  5
791
330
77E
100
AcDbEntity
  8
0
100
AcDbVertex
100
AcDb2dVertex
 10
147.7582509598218
 20
169.863109693777
 30
0.0
  0
VERTEX
  5
792
330
77E
100
AcDbEntity
  8
0
100
AcDbVertex
100
AcDb2dVertex
 10
147.4878628334485
 20
169.7972000696772
 30
0.0
  0
VERTEX
  5
793
330
77E
100
AcDbEntity
  8
0
100
AcDbVertex
100
AcDb2dVertex
 10
147.2089488586865
 20
169.7345567801113
 30
0.0
  0
VERTEX
  5
794
330
77E
100
AcDbEntity
  8
0
100
AcDbVertex
100
AcDb2dVertex
 10
146.9233543953382
 20
169.676137075674
 30
0.0
  0
VERTEX
  5
795
330
77E
100
AcDbEntity
  8
0
100
AcDbVertex
100
AcDb2dVertex
 10
146.6332788547956
 20
169.6225143530483
 30
0.0
  0
VERTEX
  5
796
330
77E
100
AcDbEntity
  8
0
100
AcDbVertex
100
AcDb2dVertex
 10
146.3409335693799
 20
169.5742417433376
 30
0.0
  0
VERTEX
  5
797
330
77E
100
AcDbEntity
  8
0
100
AcDbVertex
100
AcDb2dVertex
 10
146.0485286793195
 20
169.5318711855526
 30
0.0
  0
VERTEX
  5
798
330
77E
100
AcDbEntity
  8
0
100
AcDbVertex
100
AcDb2dVertex
 10
145.7582779011212
 20
169.4959558107967
 30
0.0
  0
SEQEND
  5
781
330
77E
100
AcDbEntity
  8
0
  0
POLYLINE
  5
799
330
6C
100
AcDbEntity
  8
0
100
AcDb2dPolyline
 66
     1
 10
0.0
 20
0.0
 30
0.0
 70
   128
  0
VERTEX
  5
79A
330
799
100
AcDbEntity
  8
0
100
AcDbVertex
100
AcDb2dVertex
 10
145.7582779011212
 20
141.8902910807247
 30
0.0
  0
VERTEX
  5
79B
330
799
100
AcDbEntity
  8
0
100
AcDbVertex
100
AcDb2dVertex
 10
146.0485286793194
 20
141.8543757059689
 30
0.0
  0
VERTEX
  5
79D
330
799
100
AcDbEntity
  8
0
100
AcDbVertex
100
AcDb2dVertex
 10
146.3409335693799
 20
141.8120051481838
 30
0.0
  0
VERTEX
  5
79E
330
799
100
AcDbEntity
  8
0
100
AcDbVertex
100
AcDb2dVertex
 10
146.6332788547955
 20
141.7637325384731
 30
0.0
  0
VERTEX
  5
79F
330
799
100
AcDbEntity
  8
0
100
AcDbVertex
100
AcDb2dVertex
 10
146.9233543953381
 20
141.7101098158473
 30
0.0
  0
VERTEX
  5
7A0
330
799
100
AcDbEntity
  8
0
100
AcDbVertex
100
AcDb2dVertex
 10
147.2089488586865
 20
141.6516901114101
 30
0.0
  0
VERTEX
  5
7A1
330
799
100
AcDbEntity
  8
0
100
AcDbVertex
100
AcDb2dVertex
 10
147.4878628334485
 20
141.589046821844
 30
0.0
  0
VERTEX
  5
7A2
330
799
100
AcDbEntity
  8
0
100
AcDbVertex
100
AcDb2dVertex
 10
147.7582509598218
 20
141.5231371977442
 30
0.0
  0
VERTEX
  5
7A3
330
799
100
AcDbEntity
  8
0
100
AcDbVertex
100
AcDb2dVertex
 10
148.0186421951733
 20
141.4550496199244
 30
0.0
  0
VERTEX
  5
7A4
330
799
100
AcDbEntity
  8
0
100
AcDbVertex
100
AcDb2dVertex
 10
148.2675750336133
 20
141.3858426668756
 30
0.0
  0
VERTEX
  5
7A5
330
799
100
AcDbEntity
  8
0
100
AcDbVertex
100
AcDb2dVertex
 10
148.5035891613446
 20
141.3165725329034
 30
0.0
  0
VERTEX
  5
7A6
330
799
100
AcDbEntity
  8
0
100
AcDbVertex
100
AcDb2dVertex
 10
148.7252266487561
 20
141.2482989885918
 30
0.0
  0
VERTEX
  5
7A7
330
799
100
AcDbEntity
  8
0
100
AcDbVertex
100
AcDb2dVertex
 10
148.931241758772
 20
141.1820067026726
 30
0.0
  0
VERTEX
  5
7A8
330
799
100
AcDbEntity
  8
0
100
AcDbVertex
100
AcDb2dVertex
 10
149.1260440430127
 20
141.1168159105888
 30
0.0
  0
VERTEX
  5
7A9
330
799
100
AcDbEntity
  8
0
100
AcDbVertex
100
AcDb2dVertex
 10
149.3105526051007
 20
141.0529197313895
 30
0.0
  0
VERTEX
  5
7AA
330
799
100
AcDbEntity
  8
0
100
AcDbVertex
100
AcDb2dVertex
 10
149.4829626163922
 20
140.9913850882162
 30
0.0
  0
VERTEX
  5
7AB
330
799
100
AcDbEntity
  8
0
100
AcDbVertex
100
AcDb2dVertex
 10
149.6414692482434
 20
140.9332812883962
 30
0.0
  0
VERTEX
  5
7AC
330
799
100
AcDbEntity
  8
0
100
AcDbVertex
100
AcDb2dVertex
 10
149.7842700561963
 20
140.8796776392567
 30
0.0
  0
VERTEX
  5
7AD
330
799
100
AcDbEntity
  8
0
100
AcDbVertex
100
AcDb2dVertex
 10
149.9095602116071
 20
140.8316422560321
 30
0.0
  0
VERTEX
  5
7AE
330
799
100
AcDbEntity
  8
0
100
AcDbVertex
100
AcDb2dVertex
 10
150.0159044346295
 20
140.7902217962847
 30
0.0
  0
VERTEX
  5
7AF
330
799
100
AcDbEntity
  8
0
100
AcDbVertex
100
AcDb2dVertex
 10
150.103024967619
 20
140.7558454134569
 30
0.0
  0
VERTEX
  5
7B0
330
799
100
AcDbEntity
  8
0
100
AcDbVertex
100
AcDb2dVertex
 10
150.1708729347669
 20
140.7287300684556
 30
0.0
  0
VERTEX
  5
7B1
330
799
100
AcDbEntity
  8
0
100
AcDbVertex
100
AcDb2dVertex
 10
150.2193970760785
 20
140.7090927221878
 30
0.0
  0
VERTEX
  5
7B2
330
799
100
AcDbEntity
  8
0
100
AcDbVertex
100
AcDb2dVertex
 10
150.2485485157452
 20
140.6971515276534
 30
0.0
  0
VERTEX
  5
7B3
330
799
100
AcDbEntity
  8
0
100
AcDbVertex
100
AcDb2dVertex
 10
150.2582771858655
 20
140.6931234457594
 30
0.0
  0
SEQEND
  5
79C
330
799
100
AcDbEntity
  8
0
  0
LINE
  5
7B4
330
6C
100
AcDbEntity
  8
0
100
AcDbLine
 10
122.2582774242841
 20
165.3480628883763
 30
0.0
 11
122.258277424284
 21
146.0381840031454
 31
0.0
  0
LINE
  5
7B5
330
6C
100
AcDbEntity
  8
0
100
AcDbLine
 10
150.258277424284
 20
170.6931234457594
 30
0.0
 11
150.258277424284
 21
140.6931234457594
 31
0.0
  0
LINE
  5
7B6
330
6C
100
AcDbEntity
  8
0
100
AcDbLine
 10
156.2582774242841
 20
175.1931234457594
 30
0.0
 11
156.258277424284
 21
136.1931234457594
 31
0.0
  0
LINE
  5
7B7
330
6C
100
AcDbEntity
  8
0
100
AcDbLine
 10
156.258277424284
 20
136.1931234457594
 30
0.0
 11
155.258277424284
 21
136.1931234457594
 31
0.0
  0
LINE
  5
7B8
330
6C
100
AcDbEntity
  8
0
100
AcDbLine
 10
156.2582774242841
 20
175.1931234457594
 30
0.0
 11
155.2582774242841
 21
175.1931234457594
 31
0.0
  0
LINE
  5
7B9
330
6C
100
AcDbEntity
  8
0
100
AcDbLine
 10
155.258277424284
 20
136.1931234457594
 30
0.0
 11
155.258277424284
 21
140.6931234457631
 31
0.0
  0
LINE
  5
7BA
330
6C
100
AcDbEntity
  8
0
100
AcDbLine
 10
153.525869303528
 20
140.6931234457631
 30
0.0
 11
155.258277424284
 21
140.6931234457631
 31
0.0
  0
LINE
  5
7BB
330
6C
100
AcDbEntity
  8
0
100
AcDbLine
 10
153.109844454237
 20
140.693123445763
 30
0.0
 11
153.5258693775617
 21
140.6931234457631
 31
0.0
  0
LINE
  5
7BC
330
6C
100
AcDbEntity
  8
0
100
AcDbLine
 10
150.2582771858655
 20
140.6931234457594
 30
0.0
 11
153.109844454237
 21
140.693123445763
 31
0.0
  0
LINE
  5
7BD
330
6C
100
AcDbEntity
  8
0
100
AcDbLine
 10
155.2582774242841
 20
170.6931234457631
 30
0.0
 11
155.2582774242841
 21
175.1931234457594
 31
0.0
  0
LINE
  5
7BE
330
6C
100
AcDbEntity
  8
0
100
AcDbLine
 10
153.1098444542371
 20
170.693123445763
 30
0.0
 11
150.2582771858655
 21
170.6931234457594
 31
0.0
  0
LINE
  5
7BF
330
6C
100
AcDbEntity
  8
0
100
AcDbLine
 10
153.5258693775617
 20
170.6931234457631
 30
0.0
 11
153.1098444542371
 21
170.693123445763
 31
0.0
  0
LINE
  5
7C0
330
6C
100
AcDbEntity
  8
0
100
AcDbLine
 10
155.2582774242841
 20
170.6931234457631
 30
0.0
 11
153.5258693035281
 21
170.6931234457631
 31
0.0
  0
LINE
  5
B54
330
6C
100
AcDbEntity
  8
MITTE
 48
10.0
100
AcDbLine
 10
119.3419579160527
 20
219.6573459838221
 30
0.0
 11
289.6166595114552
 21
219.6573459838222
 31
0.0
  0
LINE
  5
B55
330
6C
100
AcDbEntity
  8
MITTE
 48
10.0
100
AcDbLine
 10
119.765155217081
 20
155.6931234457594
 30
0.0
 11
290.4586842706975
 21
155.6931234457591
 31
0.0
  0
HATCH
  5
D16
330
6C
100
AcDbEntity
  8
Schraffur MD
100
AcDbHatch
 10
0.0
 20
0.0
 30
0.0
210
0.0
220
0.0
230
1.0
  2
ANSI31
 70
     0
 71
     0
 91
        0
 75
     0
 76
     1
 52
0.0
 41
12.7
 77
     0
 78
     1
 53
45.0
 43
0.0
 44
0.0
 45
-1.122532015133644
 46
1.122532015133644
 79
     0
 98
        1
 10
204.5068027054449
 20
219.6495892851637
  0
LINE
  5
193F
330
6C
100
AcDbEntity
  8
LINIE
100
AcDbLine
 10
276.7582774242837
 20
160.9609503221881
 30
0.0
 11
286.7582774242837
 21
150.4252965693354
 31
0.0
  0
LINE
  5
1940
330
6C
100
AcDbEntity
  8
LINIE
100
AcDbLine
 10
286.7582774242837
 20
160.9609503221881
 30
0.0
 11
276.7582774242837
 21
150.4252965693355
 31
0.0
  0
HATCH
  5
20CF
330
6C
100
AcDbEntity
  8
SCHRAFF
100
AcDbHatch
 10
0.0
 20
0.0
 30
0.0
210
0.0
220
0.0
230
1.0
  2
ANSI31
 70
     0
 71
     1
 91
        4
 92
        7
 72
     0
 73
     1
 93
       39
 10
286.7582774243558
 20
228.1573459838218
 10
276.7582774243558
 20
228.1573459838219
 10
276.7582774243558
 20
229.6573459838219
 10
274.7582774243558
 20
229.6573459838219
 10
274.216722706357
 20
230.5953462704745
 10
274.2132086835112
 20
230.5901825164146
 10
274.2026896558011
 20
230.5745827887836
 10
274.1852040372096
 20
230.5483913157766
 10
274.1607899747098
 20
230.511449549038
 10
274.1294856152735
 20
230.4636001323047
 10
274.0913291058742
 20
230.4046833251304
 10
274.0463609776699
 20
230.3345429633444
 10
273.9946146092619
 20
230.2530204985927
 10
273.936132915994
 20
230.1599573825188
 10
273.8710541806424
 20
230.0552451346699
 10
273.8000173649992
 20
229.9392032359428
 10
273.7236328206265
 20
229.8123657439536
 10
273.6424989781582
 20
229.6752655242271
 10
273.5572071156703
 20
229.5284372304265
 10
273.4683604321682
 20
229.3724161122626
 10
273.3765502057278
 20
229.2077350352593
 10
273.2823748669828
 20
229.03492865308
 10
273.1864304623808
 20
228.8545316193885
 10
273.0890388570035
 20
228.6665600274392
 10
272.9874510846341
 20
228.465029570896
 10
272.8814120373929
 20
228.2483398650474
 10
272.7716989598477
 20
228.0168062184638
 10
272.6590890965665
 20
227.7707445357628
 10
272.5443573079313
 20
227.5104707215614
 10
272.4282832226957
 20
227.2363000844308
 10
272.3116917691434
 20
226.948541972477
 10
272.1955890736783
 20
226.6479038928336
 10
272.0808525166715
 20
226.335610720951
 10
271.9683547101224
 20
226.0129070018119
 10
271.8589611134732
 20
225.6810384724922
 10
271.7655180443196
 20
225.3798459838218
 10
274.7582774243558
 20
225.3798459838218
 10
274.7582774243558
 20
226.2358459838218
 10
286.7582774243558
 20
226.2358459838218
 97
        9
330
2EF
330
2F0
330
2F1
330
2EB
330
2F2
330
2EC
330
355
330
356
330
2EE
 92
        7
 72
     0
 73
     1
 93
        4
 10
286.7582774243558
 20
226.2358459838218
 10
274.7582774243558
 20
226.2358459838218
 10
274.7582774243558
 20
225.3798459838218
 10
285.9022774243558
 20
225.3798459838218
 97
        4
330
2098
330
2097
330
2EC
330
2ED
 92
       23
 72
     0
 73
     1
 93
        4
 10
285.9022774243558
 20
213.9348459838218
 10
274.7582774243558
 20
213.9348459838219
 10
274.7582774243558
 20
213.0788459838218
 10
286.7582774243558
 20
213.0788459838218
 97
        4
330
2EA
330
355
330
354
330
2E9
 92
        7
 72
     0
 73
     1
 93
       39
 10
286.7582774243558
 20
213.0788459838218
 10
274.7582774243558
 20
213.0788459838218
 10
274.7582774243558
 20
213.9348459838219
 10
271.7656570768677
 20
213.9348459838219
 10
271.8590278706754
 20
213.633903238613
 10
271.9684214673246
 20
213.3020376895255
 10
272.0809240422453
 20
212.9793363545721
 10
272.1956629834378
 20
212.6670443747826
 10
272.3117704472745
 20
212.3664068911857
 10
272.4283642850126
 20
212.0786481831856
 10
272.5444431386197
 20
211.8044775460548
 10
272.6591796956266
 20
211.5442025397605
 10
272.7717943272795
 20
211.2981396649663
 10
272.8815121731961
 20
211.0666048262902
 10
272.9875536046232
 20
210.8499127362557
 10
273.089146145364
 20
210.6483804915734
 10
273.1865377507412
 20
210.4604088996239
 10
273.2824845395291
 20
210.280012461979
 10
273.3766622624602
 20
210.1072066758459
 10
273.4684748730864
 20
209.9425255988424
 10
273.5573263249602
 20
209.7865044806786
 10
273.6426181874476
 20
209.639675590832
 10
273.7237567982876
 20
209.5025753711052
 10
273.8001437268461
 20
209.3757366870232
 10
273.8711829266753
 20
209.2596935962022
 10
273.9362616620264
 20
209.1549813483547
 10
273.9947481236657
 20
209.0619182322809
 10
274.0464944920747
 20
208.9803945754356
 10
274.0914673886502
 20
208.9102530215564
 10
274.1296238980498
 20
208.851336214382
 10
274.1609282574854
 20
208.8034867976499
 10
274.1853423199857
 20
208.7665438388177
 10
274.2028279385768
 20
208.74035236581
 10
274.213349350473
 20
208.7247538302724
 10
274.2168636034339
 20
208.7195897380651
 10
274.7582774243558
 20
209.6573459838218
 10
276.7582774243558
 20
209.6573459838218
 10
276.7582774243558
 20
211.1573459838218
 10
286.7582774243558
 20
211.1573459838218
 97
        9
330
20A2
330
20A1
330
2EA
330
2F2
330
2E4
330
2E5
330
2E6
330
2E7
330
2E8
 75
     1
 76
     1
 52
0.0
 41
0.4
 77
     0
 78
     1
 53
45.0
 43
0.0
 44
0.0
 45
-0.8980256121069151
 46
0.8980256121069153
 79
     0
 47
0.049322930479826
 98
        4
 10
282.2677906949706
 20
226.87964376559
 10
282.1690962996048
 20
225.9918308557573
 10
282.6132181450849
 20
213.5131294370341
 10
282.6132181450849
 20
212.1814097157001
1001
GradientColor1ACI
1070
     5
1001
GradientColor2ACI
1070
     2
1001
ACAD
1010
0.0
1020
0.0
1030
0.0
  0
ENDSEC
  0
SECTION
  2
OBJECTS
  0
DICTIONARY
  5
C
330
0
100
AcDbDictionary
281
     1
  3
ACAD_CIP_PREVIOUS_PRODUCT_INFO
350
1BDE
  3
ACAD_COLOR
350
63
  3
ACAD_GROUP
350
D
  3
ACAD_LAYOUT
350
62
  3
ACAD_MATERIAL
350
10
  3
ACAD_MLEADERSTYLE
350
66
  3
ACAD_MLINESTYLE
350
5F
  3
ACAD_PLOTSETTINGS
350
61
  3
ACAD_PLOTSTYLENAME
350
E
  3
ACAD_SCALELIST
350
42
  3
ACAD_TABLESTYLE
350
64
  3
ACAD_VISUALSTYLE
350
29
  3
ACDB_RECOMPOSE_DATA
350
20DC
  3
AcDbVariableDictionary
350
1D02
  3
AcmDictionary
350
1E04
  3
AMG
350
1DDB
  3
AMGSNAPSETTINGS
350
1F44
  3
ASE_INDEX_DICTIONARY
350
20D1
  0
DICTIONARY
  5
1ED1
330
2
100
AcDbDictionary
280
     1
281
     1
  3
ACAD_LAYERSTATES
360
1ED2
  0
DICTIONARY
  5
1EBB
330
1EBA
100
AcDbDictionary
280
     1
281
     1
  0
DICTIONARY
  5
1EBD
330
1EBC
100
AcDbDictionary
280
     1
281
     1
  0
DICTIONARY
  5
1EBF
330
1EBE
100
AcDbDictionary
280
     1
281
     1
  0
DICTIONARY
  5
201C
330
6C
100
AcDbDictionary
280
     1
281
     1
  3
ACAD_SORTENTS
360
201D
  0
XRECORD
  5
1BDE
102
{ACAD_REACTORS
330
C
102
}
330
C
100
AcDbXrecord
280
     1
300
AMECH_PP
300
2012
300
PDSP_F_S
  0
DICTIONARY
  5
63
102
{ACAD_REACTORS
330
C
102
}
330
C
100
AcDbDictionary
281
     1
  0
DICTIONARY
  5
D
102
{ACAD_REACTORS
330
C
102
}
330
C
100
AcDbDictionary
281
     1
  0
DICTIONARY
  5
62
102
{ACAD_REACTORS
330
C
102
}
330
C
100
AcDbDictionary
281
     1
  3
Layout1
350
6B
  3
Layout2
350
73
  3
Model
350
6F
  0
DICTIONARY
  5
10
102
{ACAD_REACTORS
330
C
102
}
330
C
100
AcDbDictionary
281
     1
  3
ByBlock
350
19
  3
ByLayer
350
11
  3
Global
350
21
  0
DICTIONARY
  5
66
102
{ACAD_REACTORS
330
C
102
}
330
C
100
AcDbDictionary
281
     1
  3
Standard
350
67
  0
DICTIONARY
  5
5F
102
{ACAD_REACTORS
330
C
102
}
330
C
100
AcDbDictionary
281
     1
  3
Standard
350
60
  0
DICTIONARY
  5
61
102
{ACAD_REACTORS
330
C
102
}
330
C
100
AcDbDictionary
281
     1
  0
ACDBDICTIONARYWDFLT
  5
E
102
{ACAD_REACTORS
330
C
102
}
330
C
100
AcDbDictionary
281
     1
  3
Normal
350
F
100
AcDbDictionaryWithDefault
340
F
  0
DICTIONARY
  5
42
102
{ACAD_REACTORS
330
C
102
}
330
C
100
AcDbDictionary
281
     1
  3
A0
350
43
  3
A1
350
44
  3
A2
350
45
  3
A3
350
46
  3
A4
350
47
  3
A5
350
48
  3
A6
350
49
  3
A7
350
4A
  3
A8
350
4B
  3
A9
350
4C
  3
B0
350
4D
  3
B1
350
4E
  3
B2
350
4F
  3
B3
350
50
  3
B4
350
51
  3
B5
350
52
  3
B6
350
53
  0
DICTIONARY
  5
64
102
{ACAD_REACTORS
330
C
102
}
330
C
100
AcDbDictionary
281
     1
  3
Standard
350
65
  0
DICTIONARY
  5
29
102
{ACAD_REACTORS
330
C
102
}
330
C
100
AcDbDictionary
281
     1
  3
2dWireframe
350
2F
  3
Basic
350
2E
  3
Brighten
350
35
  3
ColorChange
350
39
  3
Conceptual
350
32
  3
Dim
350
34
  3
EdgeColorOff
350
41
  3
Facepattern
350
38
  3
Flat
350
2A
  3
FlatWithEdges
350
2B
  3
Gouraud
350
2C
  3
GouraudWithEdges
350
2D
  3
Hidden
350
31
  3
JitterOff
350
3F
  3
Linepattern
350
37
  3
OverhangOff
350
40
  3
Realistic
350
33
  3
Shaded
350
3E
  3
Shaded with edges
350
3D
  3
Shades of Gray
350
3A
  3
Sketchy
350
3B
  3
Thicken
350
36
  3
Wireframe
350
30
  3
X-Ray
350
3C
  0
XRECORD
  5
20DC
102
{ACAD_REACTORS
330
C
102
}
330
C
100
AcDbXrecord
280
     1
 90
        1
330
65
  0
DICTIONARY
  5
1D02
102
{ACAD_REACTORS
330
C
102
}
330
C
100
AcDbDictionary
281
     1
  3
CANNOSCALE
350
1D05
  3
CMLEADERSTYLE
350
1D04
  3
CTABLESTYLE
350
1D03
  3
LAYEREVAL
350
20D5
  3
LAYERNOTIFY
350
20D6
  3
LIGHTINGUNITS
350
20D4
  3
MSLTSCALE
350
20D3
  3
XCLIPFRAME
350
20D7
  0
DICTIONARY
  5
1E04
102
{ACAD_REACTORS
330
C
102
}
330
C
100
AcDbDictionary
281
     1
  3
AcmStdDictionary
350
1E0B
  0
DICTIONARY
  5
1DDB
102
{ACAD_REACTORS
330
C
102
}
330
C
100
AcDbDictionary
281
     1
  0
DICTIONARY
  5
1F44
102
{ACAD_REACTORS
330
C
102
}
330
C
100
AcDbDictionary
281
     1
  0
DICTIONARY
  5
20D1
102
{ACAD_REACTORS
330
C
102
}
330
C
100
AcDbDictionary
281
     1
  3
ASEBlockHierarchyIndexRecord
350
20D2
1001
DCO15
1040
1761631125.515
  0
DICTIONARY
  5
1ED2
102
{ACAD_REACTORS
330
1ED1
102
}
330
1ED1
100
AcDbDictionary
281
     1
  0
SORTENTSTABLE
  5
201D
102
{ACAD_REACTORS
330
201C
102
}
330
201C
100
AcDbSortentsTable
330
6C
331
528
  5
52E
331
539
  5
53F
331
4D0
  5
50A
331
6E5
  5
705
331
525
  5
52B
331
620
  5
65A
331
460
  5
4B4
331
34F
  5
355
331
7B8
  5
7BE
331
360
  5
366
331
664
  5
684
331
5FE
  5
61E
331
529
  5
52F
331
55C
  5
5FE
331
53A
  5
540
331
4D1
  5
525
331
6E6
  5
734
331
526
  5
52C
331
7B9
  5
7BF
331
361
  5
367
331
350
  5
356
331
665
  5
6A0
331
53B
  5
541
331
52A
  5
530
331
3F4
  5
47C
331
6E7
  5
763
331
527
  5
52D
331
2E4
  5
2E7
331
7BA
  5
7C0
331
362
  5
368
331
351
  5
357
331
666
  5
6BC
331
D16
  5
2073
331
53C
  5
55C
331
52B
  5
531
331
77E
  5
7B8
331
2E5
  5
2E9
331
799
  5
7B9
331
6E8
  5
77E
331
6D7
  5
6DD
331
7BB
  5
B54
331
363
  5
369
331
385
  5
3D9
331
656
  5
65C
331
667
  5
6D7
331
352
  5
358
331
668
  5
6D8
331
53D
  5
577
331
52C
  5
532
331
6E9
  5
799
331
6D8
  5
6DE
331
2E6
  5
2EA
331
592
  5
61A
331
7BC
  5
B55
331
364
  5
36A
331
5AD
  5
61B
331
386
  5
3F4
331
657
  5
65D
331
497
  5
4D1
331
353
  5
359
331
658
  5
65E
331
498
  5
4EC
331
669
  5
6D9
331
53E
  5
592
331
52D
  5
533
331
193F
  5
2075
331
2E7
  5
2ED
331
6EA
  5
7B4
331
6D9
  5
6DF
331
7BD
  5
D16
331
365
  5
385
331
354
  5
35A
331
387
  5
40F
331
42A
  5
498
331
659
  5
65F
331
499
  5
4ED
331
4B4
  5
4EE
331
53F
  5
5AD
331
1940
  5
2076
331
2E8
  5
2EE
331
52E
  5
534
331
6DA
  5
6E0
331
509
  5
529
331
7BE
  5
100D
331
366
  5
386
331
355
  5
35B
331
65A
  5
660
331
5E3
  5
61D
331
4B5
  5
509
331
540
  5
5C8
331
6DB
  5
6E1
331
50A
  5
52A
331
2E9
  5
2EF
331
52F
  5
535
331
7BF
  5
193F
331
367
  5
387
331
356
  5
35C
331
445
  5
499
331
7C0
  5
1940
331
368
  5
3A2
331
65B
  5
661
331
541
  5
5E3
331
530
  5
536
331
20CF
  5
2E6
331
6DC
  5
6E2
331
2EA
  5
2F0
331
357
  5
35D
331
369
  5
3A3
331
358
  5
35E
331
65C
  5
662
331
3BE
  5
460
331
3D9
  5
47B
331
531
  5
537
331
6DD
  5
6E3
331
2EB
  5
2F1
331
619
  5
61F
331
63B
  5
65B
331
47B
  5
4B5
331
36A
  5
3BE
331
359
  5
35F
331
65D
  5
663
331
763
  5
7B7
331
532
  5
538
331
6BC
  5
6DC
331
6DE
  5
6E4
331
2EC
  5
2F2
331
61A
  5
620
331
B54
  5
2071
331
35A
  5
360
331
47C
  5
4D0
331
65E
  5
664
331
533
  5
539
331
4EC
  5
526
331
6DF
  5
6E5
331
577
  5
619
331
2ED
  5
34D
331
6E0
  5
6E6
331
61B
  5
63B
331
B55
  5
2072
331
35B
  5
361
331
65F
  5
665
331
534
  5
53A
331
4ED
  5
527
331
40F
  5
497
331
2EE
  5
34E
331
6E1
  5
6E7
331
61C
  5
656
331
7B4
  5
7BA
331
35C
  5
362
331
660
  5
666
331
535
  5
53B
331
4EE
  5
528
331
2EF
  5
34F
331
6E2
  5
6E8
331
2F0
  5
350
331
61D
  5
657
331
7B5
  5
7BB
331
35D
  5
363
331
5C8
  5
61C
331
661
  5
667
331
734
  5
7B6
331
536
  5
53C
331
6E3
  5
6E9
331
2F1
  5
351
331
705
  5
7B5
331
34D
  5
353
331
61E
  5
658
331
7B6
  5
7BC
331
35E
  5
364
331
662
  5
668
331
3A2
  5
42A
331
684
  5
6DA
331
537
  5
53D
331
6A0
  5
6DB
331
538
  5
53E
331
6E4
  5
6EA
331
2F2
  5
352
331
61F
  5
659
331
34E
  5
354
331
7B7
  5
7BD
331
35F
  5
365
331
663
  5
669
331
3A3
  5
445
  0
LAYOUT
  5
6B
102
{ACAD_REACTORS
330
62
102
}
330
62
100
AcDbPlotSettings
  1

  2

  4

  6

 40
0.0
 41
0.0
 42
0.0
 43
0.0
 44
0.0
 45
0.0
 46
0.0
 47
0.0
 48
0.0
 49
0.0
140
0.0
141
0.0
142
1.0
143
1.0
 70
   688
 72
     0
 73
     0
 74
     5
  7

 75
    16
147
1.0
 76
     0
 77
     2
 78
   300
148
0.0
149
0.0
100
AcDbLayout
  1
Layout1
 70
     1
 71
     1
 10
0.0
 20
0.0
 11
420.0
 21
297.0
 12
0.0
 22
0.0
 32
0.0
 14
0.0
 24
0.0
 34
0.0
 15
420.0
 25
297.0
 35
0.0
146
0.0
 13
0.0
 23
0.0
 33
0.0
 16
1.0
 26
0.0
 36
0.0
 17
0.0
 27
1.0
 37
0.0
 76
     0
330
68
  0
LAYOUT
  5
73
102
{ACAD_REACTORS
330
62
102
}
330
62
100
AcDbPlotSettings
  1

  2

  4

  6

 40
0.0
 41
0.0
 42
0.0
 43
0.0
 44
0.0
 45
0.0
 46
0.0
 47
0.0
 48
0.0
 49
0.0
140
0.0
141
0.0
142
1.0
143
1.0
 70
   688
 72
     0
 73
     0
 74
     5
  7

 75
    16
147
1.0
 76
     0
 77
     2
 78
   300
148
0.0
149
0.0
100
AcDbLayout
  1
Layout2
 70
     1
 71
     2
 10
0.0
 20
0.0
 11
12.0
 21
9.0
 12
0.0
 22
0.0
 32
0.0
 14
0.0
 24
0.0
 34
0.0
 15
0.0
 25
0.0
 35
0.0
146
0.0
 13
0.0
 23
0.0
 33
0.0
 16
1.0
 26
0.0
 36
0.0
 17
0.0
 27
1.0
 37
0.0
 76
     0
330
70
  0
LAYOUT
  5
6F
102
{ACAD_REACTORS
330
62
102
}
330
62
100
AcDbPlotSettings
  1

  2

  4

  6

 40
0.0
 41
0.0
 42
0.0
 43
0.0
 44
0.0
 45
0.0
 46
0.0
 47
0.0
 48
0.0
 49
0.0
140
0.0
141
0.0
142
1.0
143
1.0
 70
  1712
 72
     0
 73
     0
 74
     0
  7

 75
     0
147
1.0
 76
     0
 77
     2
 78
   300
148
0.0
149
0.0
100
AcDbLayout
  1
Model
 70
     1
 71
     0
 10
0.0
 20
0.0
 11
12.0
 21
9.0
 12
0.0
 22
0.0
 32
0.0
 14
0.0
 24
0.0
 34
0.0
 15
0.0
 25
0.0
 35
0.0
146
0.0
 13
0.0
 23
0.0
 33
0.0
 16
1.0
 26
0.0
 36
0.0
 17
0.0
 27
1.0
 37
0.0
 76
     0
330
6C
331
57
  0
MATERIAL
  5
19
102
{ACAD_XDICTIONARY
360
1A
102
}
102
{ACAD_REACTORS
330
10
102
}
330
10
100
AcDbMaterial
  1
ByBlock
 72
     0
 43
0.0208333333333333
 43
0.0
 43
0.0
 43
0.0
 43
0.0
 43
0.0208333333333333
 43
0.0
 43
0.0
 43
0.0
 43
0.0
 43
1.0
 43
0.0
 43
0.0
 43
0.0
 43
0.0
 43
1.0
 77
     0
 47
0.0208333333333333
 47
0.0
 47
0.0
 47
0.0
 47
0.0
 47
0.0208333333333333
 47
0.0
 47
0.0
 47
0.0
 47
0.0
 47
1.0
 47
0.0
 47
0.0
 47
0.0
 47
0.0
 47
1.0
171
     0
 49
0.0208333333333333
 49
0.0
 49
0.0
 49
0.0
 49
0.0
 49
0.0208333333333333
 49
0.0
 49
0.0
 49
0.0
 49
0.0
 49
1.0
 49
0.0
 49
0.0
 49
0.0
 49
0.0
 49
1.0
175
     0
142
0.0208333333333333
142
0.0
142
0.0
142
0.0
142
0.0
142
0.0208333333333333
142
0.0
142
0.0
142
0.0
142
0.0
142
1.0
142
0.0
142
0.0
142
0.0
142
0.0
142
1.0
179
     0
144
0.0208333333333333
144
0.0
144
0.0
144
0.0
144
0.0
144
0.0208333333333333
144
0.0
144
0.0
144
0.0
144
0.0
144
1.0
144
0.0
144
0.0
144
0.0
144
0.0
144
1.0
147
0.0208333333333333
147
0.0
147
0.0
147
0.0
147
0.0
147
0.0208333333333333
147
0.0
147
0.0
147
0.0
147
0.0
147
1.0
147
0.0
147
0.0
147
0.0
147
0.0
147
1.0
  0
MATERIAL
  5
11
102
{ACAD_XDICTIONARY
360
12
102
}
102
{ACAD_REACTORS
330
10
102
}
330
10
100
AcDbMaterial
  1
ByLayer
 72
     0
 43
0.0208333333333333
 43
0.0
 43
0.0
 43
0.0
 43
0.0
 43
0.0208333333333333
 43
0.0
 43
0.0
 43
0.0
 43
0.0
 43
1.0
 43
0.0
 43
0.0
 43
0.0
 43
0.0
 43
1.0
 77
     0
 47
0.0208333333333333
 47
0.0
 47
0.0
 47
0.0
 47
0.0
 47
0.0208333333333333
 47
0.0
 47
0.0
 47
0.0
 47
0.0
 47
1.0
 47
0.0
 47
0.0
 47
0.0
 47
0.0
 47
1.0
171
     0
 49
0.0208333333333333
 49
0.0
 49
0.0
 49
0.0
 49
0.0
 49
0.0208333333333333
 49
0.0
 49
0.0
 49
0.0
 49
0.0
 49
1.0
 49
0.0
 49
0.0
 49
0.0
 49
0.0
 49
1.0
175
     0
142
0.0208333333333333
142
0.0
142
0.0
142
0.0
142
0.0
142
0.0208333333333333
142
0.0
142
0.0
142
0.0
142
0.0
142
1.0
142
0.0
142
0.0
142
0.0
142
0.0
142
1.0
179
     0
144
0.0208333333333333
144
0.0
144
0.0
144
0.0
144
0.0
144
0.0208333333333333
144
0.0
144
0.0
144
0.0
144
0.0
144
1.0
144
0.0
144
0.0
144
0.0
144
0.0
144
1.0
147
0.0208333333333333
147
0.0
147
0.0
147
0.0
147
0.0
147
0.0208333333333333
147
0.0
147
0.0
147
0.0
147
0.0
147
1.0
147
0.0
147
0.0
147
0.0
147
0.0
147
1.0
  0
MATERIAL
  5
21
102
{ACAD_XDICTIONARY
360
22
102
}
102
{ACAD_REACTORS
330
10
102
}
330
10
100
AcDbMaterial
  1
Global
 72
     0
 43
0.0208333333333333
 43
0.0
 43
0.0
 43
0.0
 43
0.0
 43
0.0208333333333333
 43
0.0
 43
0.0
 43
0.0
 43
0.0
 43
1.0
 43
0.0
 43
0.0
 43
0.0
 43
0.0
 43
1.0
 77
     0
 47
0.0208333333333333
 47
0.0
 47
0.0
 47
0.0
 47
0.0
 47
0.0208333333333333
 47
0.0
 47
0.0
 47
0.0
 47
0.0
 47
1.0
 47
0.0
 47
0.0
 47
0.0
 47
0.0
 47
1.0
171
     0
 49
0.0208333333333333
 49
0.0
 49
0.0
 49
0.0
 49
0.0
 49
0.0208333333333333
 49
0.0
 49
0.0
 49
0.0
 49
0.0
 49
1.0
 49
0.0
 49
0.0
 49
0.0
 49
0.0
 49
1.0
175
     0
142
0.0208333333333333
142
0.0
142
0.0
142
0.0
142
0.0
142
0.0208333333333333
142
0.0
142
0.0
142
0.0
142
0.0
142
1.0
142
0.0
142
0.0
142
0.0
142
0.0
142
1.0
179
     0
144
0.0208333333333333
144
0.0
144
0.0
144
0.0
144
0.0
144
0.0208333333333333
144
0.0
144
0.0
144
0.0
144
0.0
144
1.0
144
0.0
144
0.0
144
0.0
144
0.0
144
1.0
147
0.0208333333333333
147
0.0
147
0.0
147
0.0
147
0.0
147
0.0208333333333333
147
0.0
147
0.0
147
0.0
147
0.0
147
1.0
147
0.0
147
0.0
147
0.0
147
0.0
147
1.0
  0
MLEADERSTYLE
  5
67
102
{ACAD_XDICTIONARY
360
20DA
102
}
102
{ACAD_REACTORS
330
66
102
}
330
66
100
AcDbMLeaderStyle
170
     2
171
     1
172
     0
 90
        2
 40
0.0
 41
0.0
173
     1
 91
-1056964608
340
5B
 92
       -2
290
     1
 42
0.09
291
     1
 43
0.36
  3
Standard
 44
0.18
300

342
55
174
     1
178
     6
175
     1
176
     0
 93
-1056964608
 45
0.18
292
     0
297
     0
 46
0.18
 94
-1056964608
 47
1.0
 49
1.0
140
1.0
293
     1
141
0.0
294
     1
177
     0
142
1.0
295
     0
296
     0
143
0.125
1001
ACAD_MLEADERVER
1070
     2
  0
MLINESTYLE
  5
60
102
{ACAD_REACTORS
330
5F
102
}
330
5F
100
AcDbMlineStyle
  2
STANDARD
 70
     0
  3

 62
   256
 51
90.0
 52
90.0
 71
     2
 49
0.5
 62
   256
  6
BYLAYER
 49
-0.5
 62
   256
  6
BYLAYER
  0
ACDBPLACEHOLDER
  5
F
102
{ACAD_REACTORS
330
E
102
}
330
E
  0
SCALE
  5
43
102
{ACAD_REACTORS
330
42
102
}
330
42
100
AcDbScale
 70
     0
300
1:1
140
1.0
141
1.0
290
     1
  0
SCALE
  5
44
102
{ACAD_REACTORS
330
42
102
}
330
42
100
AcDbScale
 70
     0
300
1/128" = 1'-0"
140
0.0078125
141
12.0
290
     0
  0
SCALE
  5
45
102
{ACAD_REACTORS
330
42
102
}
330
42
100
AcDbScale
 70
     0
300
1/64" = 1'-0"
140
0.015625
141
12.0
290
     0
  0
SCALE
  5
46
102
{ACAD_REACTORS
330
42
102
}
330
42
100
AcDbScale
 70
     0
300
1/32" = 1'-0"
140
0.03125
141
12.0
290
     0
  0
SCALE
  5
47
102
{ACAD_REACTORS
330
42
102
}
330
42
100
AcDbScale
 70
     0
300
1/16" = 1'-0"
140
0.0625
141
12.0
290
     0
  0
SCALE
  5
48
102
{ACAD_REACTORS
330
42
102
}
330
42
100
AcDbScale
 70
     0
300
3/32" = 1'-0"
140
0.09375
141
12.0
290
     0
  0
SCALE
  5
49
102
{ACAD_REACTORS
330
42
102
}
330
42
100
AcDbScale
 70
     0
300
1/8" = 1'-0"
140
0.125
141
12.0
290
     0
  0
SCALE
  5
4A
102
{ACAD_REACTORS
330
42
102
}
330
42
100
AcDbScale
 70
     0
300
3/16" = 1'-0"
140
0.1875
141
12.0
290
     0
  0
SCALE
  5
4B
102
{ACAD_REACTORS
330
42
102
}
330
42
100
AcDbScale
 70
     0
300
1/4" = 1'-0"
140
0.25
141
12.0
290
     0
  0
SCALE
  5
4C
102
{ACAD_REACTORS
330
42
102
}
330
42
100
AcDbScale
 70
     0
300
3/8" = 1'-0"
140
0.375
141
12.0
290
     0
  0
SCALE
  5
4D
102
{ACAD_REACTORS
330
42
102
}
330
42
100
AcDbScale
 70
     0
300
1/2" = 1'-0"
140
0.5
141
12.0
290
     0
  0
SCALE
  5
4E
102
{ACAD_REACTORS
330
42
102
}
330
42
100
AcDbScale
 70
     0
300
3/4" = 1'-0"
140
0.75
141
12.0
290
     0
  0
SCALE
  5
4F
102
{ACAD_REACTORS
330
42
102
}
330
42
100
AcDbScale
 70
     0
300
1" = 1'-0"
140
1.0
141
12.0
290
     0
  0
SCALE
  5
50
102
{ACAD_REACTORS
330
42
102
}
330
42
100
AcDbScale
 70
     0
300
1-1/2" = 1'-0"
140
1.5
141
12.0
290
     0
  0
SCALE
  5
51
102
{ACAD_REACTORS
330
42
102
}
330
42
100
AcDbScale
 70
     0
300
3" = 1'-0"
140
3.0
141
12.0
290
     0
  0
SCALE
  5
52
102
{ACAD_REACTORS
330
42
102
}
330
42
100
AcDbScale
 70
     0
300
6" = 1'-0"
140
6.0
141
12.0
290
     0
  0
SCALE
  5
53
102
{ACAD_REACTORS
330
42
102
}
330
42
100
AcDbScale
 70
     0
300
1'-0" = 1'-0"
140
12.0
141
12.0
290
     0
  0
TABLESTYLE
  5
65
102
{ACAD_XDICTIONARY
360
20D8
102
}
102
{ACAD_REACTORS
330
64
102
}
330
64
100
AcDbTableStyle
  3
Standard
 70
     0
 71
     0
 40
0.06
 41
0.06
280
     0
281
     0
  7
Standard
140
0.18
170
     2
 62
     0
 63
     7
283
     0
274
    -2
284
     1
 64
     0
275
    -2
285
     1
 65
     0
276
    -2
286
     1
 66
     0
277
    -2
287
     1
 67
     0
278
    -2
288
     1
 68
     0
279
    -2
289
     1
 69
     0
  7
Standard
140
0.25
170
     5
 62
     0
 63
     7
283
     0
274
    -2
284
     1
 64
     0
275
    -2
285
     1
 65
     0
276
    -2
286
     1
 66
     0
277
    -2
287
     1
 67
     0
278
    -2
288
     1
 68
     0
279
    -2
289
     1
 69
     0
  7
Standard
140
0.18
170
     5
 62
     0
 63
     7
283
     0
274
    -2
284
     1
 64
     0
275
    -2
285
     1
 65
     0
276
    -2
286
     1
 66
     0
277
    -2
287
     1
 67
     0
278
    -2
288
     1
 68
     0
279
    -2
289
     1
 69
     0
  0
VISUALSTYLE
  5
2F
102
{ACAD_XDICTIONARY
360
20EA
102
}
102
{ACAD_REACTORS
330
29
102
}
330
29
100
AcDbVisualStyle
  2
2dWireframe
 70
     4
 71
     0
 72
     2
 73
     0
 90
        0
 40
-0.6
 41
-30.0
 62
     5
 63
     7
421
 16777215
 74
     1
 91
        4
 64
     7
 65
   257
 75
     1
175
     1
 42
1.0
 92
        0
 66
   257
 43
1.0
 76
     1
 77
     6
 78
     2
 67
     7
 79
     5
170
     0
171
     0
290
     0
174
     0
 93
        1
 44
0.0
173
     0
291
     0
 45
0.0
1001
ACAD
1000
AcDbSavedByObjectVersion
1070
     0
  0
VISUALSTYLE
  5
2E
102
{ACAD_XDICTIONARY
360
20E8
102
}
102
{ACAD_REACTORS
330
29
102
}
330
29
100
AcDbVisualStyle
  2
Basic
 70
     7
 71
     1
 72
     0
 73
     1
 90
        0
 40
-0.6
 41
-30.0
 62
     5
 63
     7
421
 16777215
 74
     0
 91
        4
 64
     7
 65
   257
 75
     1
175
     1
 42
1.0
 92
        8
 66
     7
 43
1.0
 76
     1
 77
     6
 78
     2
 67
     7
 79
     5
170
     0
171
     0
290
     0
174
     0
 93
        1
 44
0.0
173
     0
291
     1
 45
0.0
1001
ACAD
1000
AcDbSavedByObjectVersion
1070
     0
  0
VISUALSTYLE
  5
35
102
{ACAD_XDICTIONARY
360
20F6
102
}
102
{ACAD_REACTORS
330
29
102
}
330
29
100
AcDbVisualStyle
  2
Brighten
 70
    12
 71
     2
 72
     2
 73
     0
 90
        0
 40
-0.6
 41
-30.0
 62
     5
 63
     7
421
 16777215
 74
     1
 91
        4
 64
     7
 65
   257
 75
     1
175
     1
 42
1.0
 92
        8
 66
     7
 43
1.0
 76
     1
 77
     6
 78
     2
 67
     7
 79
     5
170
     0
171
     0
290
     0
174
     0
 93
        1
 44
50.0
173
     0
291
     1
 45
0.0
1001
ACAD
1000
AcDbSavedByObjectVersion
1070
     0
  0
VISUALSTYLE
  5
39
102
{ACAD_XDICTIONARY
360
20FE
102
}
102
{ACAD_REACTORS
330
29
102
}
330
29
100
AcDbVisualStyle
  2
ColorChange
 70
    16
 71
     2
 72
     2
 73
     3
 90
        0
 40
-0.6
 41
-30.0
 62
     5
 63
     8
421
  8421504
 74
     1
 91
        4
 64
     7
 65
   257
 75
     1
175
     1
 42
1.0
 92
        8
 66
     8
424
  8421504
 43
1.0
 76
     1
 77
     6
 78
     2
 67
     7
 79
     5
170
     0
171
     0
290
     0
174
     0
 93
        1
 44
0.0
173
     0
291
     1
 45
0.0
1001
ACAD
1000
AcDbSavedByObjectVersion
1070
     0
  0
VISUALSTYLE
  5
32
102
{ACAD_XDICTIONARY
360
20F0
102
}
102
{ACAD_REACTORS
330
29
102
}
330
29
100
AcDbVisualStyle
  2
Conceptual
 70
     9
 71
     3
 72
     2
 73
     0
 90
        0
 40
-0.6
 41
-30.0
 62
     5
 63
     7
421
 16777215
 74
     2
 91
        2
 64
     7
 65
   257
 75
     1
175
     1
 42
179.0
 92
        8
 66
     7
 43
1.0
 76
     1
 77
     6
 78
     2
 67
     7
 79
     3
170
     0
171
     0
290
     0
174
     0
 93
        1
 44
0.0
173
     0
291
     0
 45
0.0
1001
ACAD
1000
AcDbSavedByObjectVersion
1070
     0
  0
VISUALSTYLE
  5
34
102
{ACAD_XDICTIONARY
360
20F4
102
}
102
{ACAD_REACTORS
330
29
102
}
330
29
100
AcDbVisualStyle
  2
Dim
 70
    11
 71
     2
 72
     2
 73
     0
 90
        0
 40
-0.6
 41
-30.0
 62
     5
 63
     7
421
 16777215
 74
     1
 91
        4
 64
     7
 65
   257
 75
     1
175
     1
 42
1.0
 92
        8
 66
     7
 43
1.0
 76
     1
 77
     6
 78
     2
 67
     7
 79
     5
170
     0
171
     0
290
     0
174
     0
 93
        1
 44
-50.0
173
     0
291
     1
 45
0.0
1001
ACAD
1000
AcDbSavedByObjectVersion
1070
     0
  0
VISUALSTYLE
  5
41
102
{ACAD_XDICTIONARY
360
210E
102
}
102
{ACAD_REACTORS
330
29
102
}
330
29
100
AcDbVisualStyle
  2
EdgeColorOff
 70
    22
 71
     2
 72
     2
 73
     0
 90
        0
 40
-0.6
 41
-30.0
 62
     5
 63
     7
421
 16777215
 74
     1
 91
        4
 64
     7
 65
   257
 75
     1
175
     1
 42
1.0
 92
        8
 66
     7
 43
1.0
 76
     1
 77
     6
 78
     2
 67
     7
 79
     5
170
     0
171
     0
290
     0
174
     0
 93
        1
 44
0.0
173
     0
291
     1
 45
0.0
1001
ACAD
1000
AcDbSavedByObjectVersion
1070
     0
  0
VISUALSTYLE
  5
38
102
{ACAD_XDICTIONARY
360
20FC
102
}
102
{ACAD_REACTORS
330
29
102
}
330
29
100
AcDbVisualStyle
  2
Facepattern
 70
    15
 71
     2
 72
     2
 73
     0
 90
        0
 40
-0.6
 41
-30.0
 62
     5
 63
     7
421
 16777215
 74
     1
 91
        4
 64
     7
 65
   257
 75
     1
175
     1
 42
1.0
 92
        8
 66
     7
 43
1.0
 76
     1
 77
     6
 78
     2
 67
     7
 79
     5
170
     0
171
     0
290
     0
174
     0
 93
        1
 44
0.0
173
     0
291
     1
 45
0.0
1001
ACAD
1000
AcDbSavedByObjectVersion
1070
     0
  0
VISUALSTYLE
  5
2A
102
{ACAD_XDICTIONARY
360
20E0
102
}
102
{ACAD_REACTORS
330
29
102
}
330
29
100
AcDbVisualStyle
  2
Flat
 70
     0
 71
     2
 72
     1
 73
     1
 90
        2
 40
-0.6
 41
30.0
 62
     5
 63
     7
421
 16777215
 74
     0
 91
        0
 64
     7
 65
   257
 75
     1
175
     1
 42
1.0
 92
        8
 66
     7
 43
1.0
 76
     1
 77
     6
 78
     2
 67
     7
 79
     5
170
     0
171
     0
290
     0
174
     0
 93
       13
 44
0.0
173
     0
291
     1
 45
0.0
1001
ACAD
1000
AcDbSavedByObjectVersion
1070
     0
  0
VISUALSTYLE
  5
2B
102
{ACAD_XDICTIONARY
360
20E2
102
}
102
{ACAD_REACTORS
330
29
102
}
330
29
100
AcDbVisualStyle
  2
FlatWithEdges
 70
     1
 71
     2
 72
     1
 73
     1
 90
        2
 40
-0.6
 41
30.0
 62
     5
 63
     7
421
 16777215
 74
     1
 91
        0
 64
     7
 65
   257
 75
     1
175
     1
 42
1.0
 92
        0
 66
   257
 43
1.0
 76
     1
 77
     6
 78
     2
 67
     7
 79
     5
170
     0
171
     0
290
     0
174
     0
 93
       13
 44
0.0
173
     0
291
     1
 45
0.0
1001
ACAD
1000
AcDbSavedByObjectVersion
1070
     0
  0
VISUALSTYLE
  5
2C
102
{ACAD_XDICTIONARY
360
20E4
102
}
102
{ACAD_REACTORS
330
29
102
}
330
29
100
AcDbVisualStyle
  2
Gouraud
 70
     2
 71
     2
 72
     2
 73
     1
 90
        2
 40
-0.6
 41
30.0
 62
     5
 63
     7
421
 16777215
 74
     0
 91
        0
 64
     7
 65
   257
 75
     1
175
     1
 42
1.0
 92
        0
 66
     7
 43
1.0
 76
     1
 77
     6
 78
     2
 67
     7
 79
     5
170
     0
171
     0
290
     0
174
     0
 93
       13
 44
0.0
173
     0
291
     1
 45
0.0
1001
ACAD
1000
AcDbSavedByObjectVersion
1070
     0
  0
VISUALSTYLE
  5
2D
102
{ACAD_XDICTIONARY
360
20E6
102
}
102
{ACAD_REACTORS
330
29
102
}
330
29
100
AcDbVisualStyle
  2
GouraudWithEdges
 70
     3
 71
     2
 72
     2
 73
     1
 90
        2
 40
-0.6
 41
30.0
 62
     5
 63
     7
421
 16777215
 74
     1
 91
        0
 64
     7
 65
   257
 75
     1
175
     1
 42
1.0
 92
        0
 66
   257
 43
1.0
 76
     1
 77
     6
 78
     2
 67
     7
 79
     5
170
     0
171
     0
290
     0
174
     0
 93
       13
 44
0.0
173
     0
291
     1
 45
0.0
1001
ACAD
1000
AcDbSavedByObjectVersion
1070
     0
  0
VISUALSTYLE
  5
31
102
{ACAD_XDICTIONARY
360
20EE
102
}
102
{ACAD_REACTORS
330
29
102
}
330
29
100
AcDbVisualStyle
  2
Hidden
 70
     6
 71
     1
 72
     2
 73
     2
 90
        0
 40
-0.6
 41
-30.0
 62
     5
 63
     7
421
 16777215
 74
     2
 91
        2
 64
     7
 65
   257
 75
     2
175
     1
 42
40.0
 92
        0
 66
   257
 43
1.0
 76
     1
 77
     6
 78
     2
 67
     7
 79
     3
170
     0
171
     0
290
     0
174
     0
 93
        1
 44
0.0
173
     0
291
     0
 45
0.0
1001
ACAD
1000
AcDbSavedByObjectVersion
1070
     0
  0
VISUALSTYLE
  5
3F
102
{ACAD_XDICTIONARY
360
210A
102
}
102
{ACAD_REACTORS
330
29
102
}
330
29
100
AcDbVisualStyle
  2
JitterOff
 70
    20
 71
     2
 72
     2
 73
     0
 90
        0
 40
-0.6
 41
-30.0
 62
     5
 63
     7
421
 16777215
 74
     1
 91
        4
 64
     7
 65
   257
 75
     1
175
     1
 42
1.0
 92
       10
 66
     7
 43
1.0
 76
     1
 77
     6
 78
     2
 67
     7
 79
     5
170
     0
171
     0
290
     0
174
     0
 93
        1
 44
0.0
173
     0
291
     1
 45
0.0
1001
ACAD
1000
AcDbSavedByObjectVersion
1070
     0
  0
VISUALSTYLE
  5
37
102
{ACAD_XDICTIONARY
360
20FA
102
}
102
{ACAD_REACTORS
330
29
102
}
330
29
100
AcDbVisualStyle
  2
Linepattern
 70
    14
 71
     2
 72
     2
 73
     0
 90
        0
 40
-0.6
 41
-30.0
 62
     5
 63
     7
421
 16777215
 74
     1
 91
        4
 64
     7
 65
   257
 75
     7
175
     7
 42
1.0
 92
        8
 66
     7
 43
1.0
 76
     1
 77
     6
 78
     2
 67
     7
 79
     5
170
     0
171
     0
290
     0
174
     0
 93
        1
 44
0.0
173
     0
291
     1
 45
0.0
1001
ACAD
1000
AcDbSavedByObjectVersion
1070
     0
  0
VISUALSTYLE
  5
40
102
{ACAD_XDICTIONARY
360
210C
102
}
102
{ACAD_REACTORS
330
29
102
}
330
29
100
AcDbVisualStyle
  2
OverhangOff
 70
    21
 71
     2
 72
     2
 73
     0
 90
        0
 40
-0.6
 41
-30.0
 62
     5
 63
     7
421
 16777215
 74
     1
 91
        4
 64
     7
 65
   257
 75
     1
175
     1
 42
1.0
 92
        9
 66
     7
 43
1.0
 76
     1
 77
     6
 78
     2
 67
     7
 79
     5
170
     0
171
     0
290
     0
174
     0
 93
        1
 44
0.0
173
     0
291
     1
 45
0.0
1001
ACAD
1000
AcDbSavedByObjectVersion
1070
     0
  0
VISUALSTYLE
  5
33
102
{ACAD_XDICTIONARY
360
20F2
102
}
102
{ACAD_REACTORS
330
29
102
}
330
29
100
AcDbVisualStyle
  2
Realistic
 70
     8
 71
     2
 72
     3
 73
     0
 90
        2
 40
-0.6
 41
30.0
 62
     5
 63
     7
421
 16777215
 74
     0
 91
        0
 64
     7
 65
   257
 75
     1
175
     1
 42
1.0
 92
        8
 66
   257
 43
1.0
 76
     1
 77
     6
 78
     2
 67
     7
 79
     3
170
     0
171
     0
290
     0
174
     0
 93
       13
 44
0.0
173
     0
291
     0
 45
0.0
1001
ACAD
1000
AcDbSavedByObjectVersion
1070
     0
  0
VISUALSTYLE
  5
3E
102
{ACAD_XDICTIONARY
360
2108
102
}
102
{ACAD_REACTORS
330
29
102
}
330
29
100
AcDbVisualStyle
  2
Shaded
 70
    27
 71
     2
 72
     2
 73
     1
 90
        2
 40
-0.6
 41
30.0
 62
     5
 63
     7
421
 16777215
 74
     0
 91
        4
 64
     7
 65
   257
 75
     1
175
     1
 42
1.0
 92
        8
 66
   257
 43
1.0
 76
     1
 77
     6
 78
     2
 67
     8
425
  7895160
 79
     3
170
     0
171
     0
290
     0
174
     0
 93
        5
 44
0.0
173
     0
291
     0
 45
0.0
1001
ACAD
1000
AcDbSavedByObjectVersion
1070
     0
  0
VISUALSTYLE
  5
3D
102
{ACAD_XDICTIONARY
360
2106
102
}
102
{ACAD_REACTORS
330
29
102
}
330
29
100
AcDbVisualStyle
  2
Shaded with edges
 70
    26
 71
     2
 72
     2
 73
     1
 90
        2
 40
-0.6
 41
30.0
 62
     5
 63
     7
421
 16777215
 74
     1
 91
       10
 64
     7
 65
   257
 75
     2
175
     1
 42
1.0
 92
        8
 66
   257
 43
1.0
 76
     1
 77
     6
 78
     2
 67
     7
 79
     3
170
     0
171
     0
290
     0
174
     0
 93
        5
 44
0.0
173
     0
291
     0
 45
0.0
1001
ACAD
1000
AcDbSavedByObjectVersion
1070
     0
  0
VISUALSTYLE
  5
3A
102
{ACAD_XDICTIONARY
360
2100
102
}
102
{ACAD_REACTORS
330
29
102
}
330
29
100
AcDbVisualStyle
  2
Shades of Gray
 70
    23
 71
     2
 72
     2
 73
     3
 90
        0
 40
-0.6
 41
-30.0
 62
     5
 63
     7
421
 16777215
 74
     2
 91
        2
 64
     7
 65
     7
 75
     1
175
     1
 42
40.0
 92
        8
 66
     7
 43
1.0
 76
     1
 77
     6
 78
     2
 67
     7
 79
     3
170
     0
171
     0
290
     0
174
     0
 93
        1
 44
0.0
173
     0
291
     0
 45
0.0
1001
ACAD
1000
AcDbSavedByObjectVersion
1070
     0
  0
VISUALSTYLE
  5
3B
102
{ACAD_XDICTIONARY
360
2102
102
}
102
{ACAD_REACTORS
330
29
102
}
330
29
100
AcDbVisualStyle
  2
Sketchy
 70
    24
 71
     1
 72
     2
 73
     2
 90
        0
 40
-0.6
 41
-30.0
 62
     5
 63
     7
421
 16777215
 74
     2
 91
        2
 64
     7
 65
     7
 75
     1
175
     1
 42
40.0
 92
       11
 66
     7
 43
1.0
 76
     1
 77
     6
 78
     2
 67
     7
 79
     6
170
     0
171
     0
290
     0
174
     0
 93
        1
 44
0.0
173
     0
291
     0
 45
0.0
1001
ACAD
1000
AcDbSavedByObjectVersion
1070
     0
  0
VISUALSTYLE
  5
36
102
{ACAD_XDICTIONARY
360
20F8
102
}
102
{ACAD_REACTORS
330
29
102
}
330
29
100
AcDbVisualStyle
  2
Thicken
 70
    13
 71
     2
 72
     2
 73
     0
 90
        0
 40
-0.6
 41
-30.0
 62
     5
 63
     7
421
 16777215
 74
     1
 91
        4
 64
     7
 65
   257
 75
     1
175
     1
 42
1.0
 92
       12
 66
     7
 43
1.0
 76
     1
 77
     6
 78
     2
 67
     7
 79
     5
170
     0
171
     0
290
     0
174
     0
 93
        1
 44
0.0
173
     0
291
     1
 45
0.0
1001
ACAD
1000
AcDbSavedByObjectVersion
1070
     0
  0
VISUALSTYLE
  5
30
102
{ACAD_XDICTIONARY
360
20EC
102
}
102
{ACAD_REACTORS
330
29
102
}
330
29
100
AcDbVisualStyle
  2
Wireframe
 70
     5
 71
     0
 72
     2
 73
     0
 90
        0
 40
-0.6
 41
-30.0
 62
     5
 63
     7
421
 16777215
 74
     1
 91
        4
 64
     7
 65
   257
 75
     1
175
     1
 42
1.0
 92
        0
 66
   257
 43
1.0
 76
     1
 77
     6
 78
     2
 67
     7
 79
     3
170
     0
171
     0
290
     0
174
     0
 93
        1
 44
0.0
173
     0
291
     0
 45
0.0
1001
ACAD
1000
AcDbSavedByObjectVersion
1070
     0
  0
VISUALSTYLE
  5
3C
102
{ACAD_XDICTIONARY
360
2104
102
}
102
{ACAD_REACTORS
330
29
102
}
330
29
100
AcDbVisualStyle
  2
X-Ray
 70
    25
 71
     2
 72
     2
 73
     1
 90
        1
 40
0.5
 41
-30.0
 62
     5
 63
     7
421
 16777215
 74
     1
 91
        0
 64
     7
 65
   257
 75
     1
175
     1
 42
1.0
 92
        8
 66
     7
 43
1.0
 76
     1
 77
     6
 78
     2
 67
     7
 79
     3
170
     0
171
     0
290
     0
174
     0
 93
       13
 44
0.0
173
     0
291
     0
 45
0.0
1001
ACAD
1000
AcDbSavedByObjectVersion
1070
     0
  0
DICTIONARYVAR
  5
1D05
102
{ACAD_REACTORS
330
1D02
102
}
330
1D02
100
DictionaryVariables
280
     0
  1
1:1
  0
DICTIONARYVAR
  5
1D04
102
{ACAD_REACTORS
330
1D02
102
}
330
1D02
100
DictionaryVariables
280
     0
  1
STANDARD
  0
DICTIONARYVAR
  5
1D03
102
{ACAD_REACTORS
330
1D02
102
}
330
1D02
100
DictionaryVariables
280
     0
  1
STANDARD
  0
DICTIONARYVAR
  5
20D5
102
{ACAD_REACTORS
330
1D02
102
}
330
1D02
100
DictionaryVariables
280
     0
  1
0
  0
DICTIONARYVAR
  5
20D6
102
{ACAD_REACTORS
330
1D02
102
}
330
1D02
100
DictionaryVariables
280
     0
  1
0
  0
DICTIONARYVAR
  5
20D4
102
{ACAD_REACTORS
330
1D02
102
}
330
1D02
100
DictionaryVariables
280
     0
  1
2
  0
DICTIONARYVAR
  5
20D3
102
{ACAD_REACTORS
330
1D02
102
}
330
1D02
100
DictionaryVariables
280
     0
  1
1
  0
DICTIONARYVAR
  5
20D7
102
{ACAD_REACTORS
330
1D02
102
}
330
1D02
100
DictionaryVariables
280
     0
  1
2
  0
DICTIONARY
  5
1E0B
102
{ACAD_REACTORS
330
1E04
102
}
330
1E04
100
AcDbDictionary
281
     1
  0
XRECORD
  5
20D2
102
{ACAD_REACTORS
330
20D1
102
}
330
20D1
100
AcDbXrecord
280
     1
  0
DICTIONARY
  5
1A
330
19
100
AcDbDictionary
280
     1
281
     1
  3
ACAD_XREC_ROUNDTRIP
360
20DE
  3
BUMPTILE
360
1C
  3
DIFFUSETILE
360
1B
  3
OPACITYTILE
360
1F
  3
REFLECTIONTILE
360
1E
  3
REFRACTIONTILE
360
20
  3
SPECULARTILE
360
1D
  0
DICTIONARY
  5
12
330
11
100
AcDbDictionary
280
     1
281
     1
  3
ACAD_XREC_ROUNDTRIP
360
20DD
  3
BUMPTILE
360
14
  3
DIFFUSETILE
360
13
  3
FBXASSET
360
E3
  3
OPACITYTILE
360
17
  3
REFLECTIONTILE
360
16
  3
REFRACTIONTILE
360
18
  3
SPECULARTILE
360
15
  0
DICTIONARY
  5
22
330
21
100
AcDbDictionary
280
     1
281
     1
  3
ACAD_XREC_ROUNDTRIP
360
20DF
  3
BUMPTILE
360
24
  3
DIFFUSETILE
360
23
  3
OPACITYTILE
360
27
  3
REFLECTIONTILE
360
26
  3
REFRACTIONTILE
360
28
  3
SPECULARTILE
360
25
  0
DICTIONARY
  5
20DA
330
67
100
AcDbDictionary
280
     1
281
     1
  3
ACAD_XREC_ROUNDTRIP
360
20DB
  0
DICTIONARY
  5
20D8
330
65
100
AcDbDictionary
280
     1
281
     1
  3
ACAD_ROUNDTRIP_2008_TABLESTYLE_CELLSTYLEMAP
360
20D9
  3
ACAD_XREC_ROUNDTRIP
360
2110
  0
DICTIONARY
  5
20EA
330
2F
100
AcDbDictionary
280
     1
281
     1
  3
ACAD_XREC_ROUNDTRIP
360
20EB
  0
DICTIONARY
  5
20E8
330
2E
100
AcDbDictionary
280
     1
281
     1
  3
ACAD_XREC_ROUNDTRIP
360
20E9
  0
DICTIONARY
  5
20F6
330
35
100
AcDbDictionary
280
     1
281
     1
  3
ACAD_XREC_ROUNDTRIP
360
20F7
  0
DICTIONARY
  5
20FE
330
39
100
AcDbDictionary
280
     1
281
     1
  3
ACAD_XREC_ROUNDTRIP
360
20FF
  0
DICTIONARY
  5
20F0
330
32
100
AcDbDictionary
280
     1
281
     1
  3
ACAD_XREC_ROUNDTRIP
360
20F1
  0
DICTIONARY
  5
20F4
330
34
100
AcDbDictionary
280
     1
281
     1
  3
ACAD_XREC_ROUNDTRIP
360
20F5
  0
DICTIONARY
  5
210E
330
41
100
AcDbDictionary
280
     1
281
     1
  3
ACAD_XREC_ROUNDTRIP
360
210F
  0
DICTIONARY
  5
20FC
330
38
100
AcDbDictionary
280
     1
281
     1
  3
ACAD_XREC_ROUNDTRIP
360
20FD
  0
DICTIONARY
  5
20E0
330
2A
100
AcDbDictionary
280
     1
281
     1
  3
ACAD_XREC_ROUNDTRIP
360
20E1
  0
DICTIONARY
  5
20E2
330
2B
100
AcDbDictionary
280
     1
281
     1
  3
ACAD_XREC_ROUNDTRIP
360
20E3
  0
DICTIONARY
  5
20E4
330
2C
100
AcDbDictionary
280
     1
281
     1
  3
ACAD_XREC_ROUNDTRIP
360
20E5
  0
DICTIONARY
  5
20E6
330
2D
100
AcDbDictionary
280
     1
281
     1
  3
ACAD_XREC_ROUNDTRIP
360
20E7
  0
DICTIONARY
  5
20EE
330
31
100
AcDbDictionary
280
     1
281
     1
  3
ACAD_XREC_ROUNDTRIP
360
20EF
  0
DICTIONARY
  5
210A
330
3F
100
AcDbDictionary
280
     1
281
     1
  3
ACAD_XREC_ROUNDTRIP
360
210B
  0
DICTIONARY
  5
20FA
330
37
100
AcDbDictionary
280
     1
281
     1
  3
ACAD_XREC_ROUNDTRIP
360
20FB
  0
DICTIONARY
  5
210C
330
40
100
AcDbDictionary
280
     1
281
     1
  3
ACAD_XREC_ROUNDTRIP
360
210D
  0
DICTIONARY
  5
20F2
330
33
100
AcDbDictionary
280
     1
281
     1
  3
ACAD_XREC_ROUNDTRIP
360
20F3
  0
DICTIONARY
  5
2108
330
3E
100
AcDbDictionary
280
     1
281
     1
  3
ACAD_XREC_ROUNDTRIP
360
2109
  0
DICTIONARY
  5
2106
330
3D
100
AcDbDictionary
280
     1
281
     1
  3
ACAD_XREC_ROUNDTRIP
360
2107
  0
DICTIONARY
  5
2100
330
3A
100
AcDbDictionary
280
     1
281
     1
  3
ACAD_XREC_ROUNDTRIP
360
2101
  0
DICTIONARY
  5
2102
330
3B
100
AcDbDictionary
280
     1
281
     1
  3
ACAD_XREC_ROUNDTRIP
360
2103
  0
DICTIONARY
  5
20F8
330
36
100
AcDbDictionary
280
     1
281
     1
  3
ACAD_XREC_ROUNDTRIP
360
20F9
  0
DICTIONARY
  5
20EC
330
30
100
AcDbDictionary
280
     1
281
     1
  3
ACAD_XREC_ROUNDTRIP
360
20ED
  0
DICTIONARY
  5
2104
330
3C
100
AcDbDictionary
280
     1
281
     1
  3
ACAD_XREC_ROUNDTRIP
360
2105
  0
XRECORD
  5
20DE
102
{ACAD_REACTORS
330
1A
102
}
330
1A
100
AcDbXrecord
280
     1
102
MATERIAL
148
0.0
149
0.0
149
0.0
 93
        0
 94
      127
282
     0
 72
     0
 77
     0
171
     0
175
     0
179
     0
273
     0
  0
XRECORD
  5
1C
102
{ACAD_REACTORS
330
1A
102
}
330
1A
100
AcDbXrecord
280
     1
270
     1
271
     1
  0
XRECORD
  5
1B
102
{ACAD_REACTORS
330
1A
102
}
330
1A
100
AcDbXrecord
280
     1
270
     1
271
     1
  0
XRECORD
  5
1F
102
{ACAD_REACTORS
330
1A
102
}
330
1A
100
AcDbXrecord
280
     1
270
     1
271
     1
  0
XRECORD
  5
1E
102
{ACAD_REACTORS
330
1A
102
}
330
1A
100
AcDbXrecord
280
     1
270
     1
271
     1
  0
XRECORD
  5
20
102
{ACAD_REACTORS
330
1A
102
}
330
1A
100
AcDbXrecord
280
     1
270
     1
271
     1
  0
XRECORD
  5
1D
102
{ACAD_REACTORS
330
1A
102
}
330
1A
100
AcDbXrecord
280
     1
270
     1
271
     1
  0
XRECORD
  5
20DD
102
{ACAD_REACTORS
330
12
102
}
330
12
100
AcDbXrecord
280
     1
102
MATERIAL
148
0.0
149
0.0
149
0.0
 93
        0
 94
      127
282
     0
 72
     0
 77
     0
171
     0
175
     0
179
     0
273
     0
  0
XRECORD
  5
14
102
{ACAD_REACTORS
330
12
102
}
330
12
100
AcDbXrecord
280
     1
270
     1
271
     1
  0
XRECORD
  5
13
102
{ACAD_REACTORS
330
12
102
}
330
12
100
AcDbXrecord
280
     1
270
     1
271
     1
  0
XRECORD
  5
E3
102
{ACAD_REACTORS
330
12
102
}
330
12
100
AcDbXrecord
280
     1
 70
     1
 90
1959938040
 71
     1
  1
0E24DCC2-2A2D-4114-9344-42F3BC25C2B7
311
504B03040A0000080000D95635413DEE336E79000000790000001B0000006175746F6465736B2D64657369676E2D7061636B6167652E786D6C3C3F786D6C2076657273696F6E3D22312E302220656E636F64696E673D227574662D3822203F3E3C666F726D6174733E3C666F726D61743E687474703A2F2F736368656D612E
311
6175746F6465736B2E636F6D2F64657369676E2D7061636B6167652F323030393C2F666F726D61743E3C2F666F726D6174733E504B0304140006080800D9563541D486FD9CA0000000F4000000130000005B436F6E74656E745F54797065735D2E786D6C7D8EC10E82300C865F65E91D8A1E8C310C0EEA1BF002731658846E
311
D98AC1B77784ABF1D8FE5FBFBF75BBCE937A534CCEB38643598122B6FEE978D0B0485F9C41B54DDD7D022595594E1A469170414C76A4D9A4D207E29CF43ECE46F218070CC6BECC4078ACAA135ACF422C856C0E68EA1BF5669944DDD7BCDE7B1F8E415D77AECB980613C2E4AC91FC167A2B244592486606FC29C8FD7F045B9A
311
EF7053A7E60B504B0304140006080800D956354143395BA2EA0000007C01000008000000636F72652E786D6C8D90D16E842010457F85CC6B838222710DB251D33FE80F1064B7645730024D3FBFB8EB26ED5B9F6672E79E99C915E7EFE58EBECC16AC773DD08200324EFBD9BA6B0F295E700BE82CC5E67DFC6503E4D4627AD8
311
6590E2BAF9B41E92F62E1A17B3EAFC6C0E51856022207DCF4D0F417F9A45152AC5EC08B76255FAA6AEA6A0AF2EC329D9193D8FD839EFB3176B36907C3A8D037FE7B81D078659CD181E6B4E3061D3C048C3F8D47251EEB014D12EAFFB7A332A9A1964456885C90957F48392AE615D43DE08ED0811E56EFF03A575FE2794AC8B
311
7575BCFBC402489A1F790CA428F72C72790495EB9E9BFC01504B0304140006080800D956354155019EA25F0000007C00000007000000636E782E786D6C4DCB3B0E80201045D1AD90E915ED2CF8AC45050C11660C8261F98AB1B07AC9C97D42D718D865D3E909258CFD00CCE24AC6E326A164D74DC0B4128928FF326038472B
311
A13128B1252AC747C6BAB984FC68F0B87FE8960A5C09FE86CFB69FBA01504B0304140006080800D9563541D17A126766010000020300000C0000006662782F636F72652E786D6C8D52ED8E8320107C15C2DF0B82969A5E83346D736F702F40957AA40A06C1F4F16FFD687ABD344D6382646667777654ECAE6D8306ED7BE36C
311
81D38461A46DE92A63EB02C770261B8C765278E7C29F328CAC6A758147184B517B17BB052A9D0DDA0640ADABF402AABED701A3B2814B81FBF247B72A513140457F493A555E54AD9334011AEAA4E8830703681E329E589E4F5741675C8A184DB5B0A68269E66CB4C7323F7E1EF6F9574E36873D277CC53939AC7246183FEE39
311
5BF3FCB8C9051DC55204D3DEDC955EABA02B2C339666847D922CFD4ED976CDB76BF6C1D22D63828EE50FA2D8556F8AA2B161952D7667598F650A4626E2DFB6105140BD1AC00F95828E21C26B4AF831680804420EEAD4DCF6B80034E83238CF81A95CBC53836AA286A90C4D8FA0330B9DA706B0D9D33ED98B3EAF7BC00754B6
311
066B2AC0F514C3385DCC5397283AEDC910AEC83ADFAAE66E6EB6783FEF839ECA4BD738FF8E9A2EABD2254C3AFEBDF217504B0304140006080800D9563541DF4E7EBA7D0000009D0000000B0000006662782F636E782E786D6C4DCCD10AC2201886E15B91FFDCA6A1D5401D4BF33E467343721AA6D1E5B7C50E3AFAE0E1E315
311
DD6709E8EDF2CBA728811E082017EF69F4719650CB842F803A25724AE5EF06280E8B93B0312831E7549F3B8D6E1A6A28AB061F1F3BF6DCB0D6688B353147CC7ADEE2ABE504DB13239ADECCD9580A8D12CDAFB4EE16565F504B0304140006080800D9563541E5A82E8E2E01000015020000310000006662782F413544343944
311
43462D433044322D344135392D424635302D4636343043314544374446312F636F72652E786D6C8D515B6EC32010BC8AC557AA0A7B714C1A4798288DEB13F4020E26294A0C168F2AC72FD48ED4FEE58745B333B303CBF6F7F1967D4BEB94D10D2239A04C6A6106A52F0D0AFE8CB728DB73668DF17F6828D3FD281B9460C4D9
311
C59A302D9030DA4BED23AACD2017B0774E7A94895BBC34C8892F39F6791F7C64B86B3EF5E2DA5F644EF2D88E3CCE9CB73140360F4927E207DA56757BECF011DA1257075AE3F78E02EE36151CC947FBD6768415B390B310D4B0C8D510E3A8B392F6599324E6CCABF1115F58D97B39205E022931D4B8249F0476B4DA517805B2
311
036045A2FF13856978521494F6EB72893BCB1CE2F1357383B3C184D3ED1146DE27637D96E6AD9C142F88430EB0A6B025D59A153337FE4034DD548BA9F3C6C61F5E5D4F914E282B92F3A6E2AC484B8AE57783B1A685F21F504B0304140006080800D9563541D981FC1F4E01000033030000300000006662782F413544343944
311
43462D433044322D344135392D424635302D4636343043314544374446312F636E782E786D6CD593BD6E032110845F05D146F78373B6128BC3528A3C418AB418D6313107277EA2F8EDB3D8D871E322651A749A1D66569F38BEF99E2CF982108D7723656D4F0938E5B5711F23CD69D73C51B2113C789F6E6C943839C1488B4C
311
05FF083ECF55D2B093D92654AD71872A06883E070511E5729358AFA4C500704D4611A62D680D9A5C8DF8B58380ABA0B83D92B407F2FAF24EFCF613548ABC2B298277A543F072D6A61B1325CACA18471AD51E26D9CA9CBC867868B54CB265EDA5EBCE4EBF49A45CB854E66048291F6939A9A81BB5C8917738143CA680F4AA29
311
1D67A042CEB3354A2684DC9D8C678FE0D9B8B41AAAD720F8806EB67A1C060C3BCD044F6682EA500164024DC5A2678BA67F6E16EC8DF5EBE5B05EF60F3D5BF73DEF8A5DF0ADF7B65EC218087E26CABB042E51C17857C6F7F0551FD126206B1F8E7F0089006AEB99CE35E33FF3E94EEF1B7105FC0BC40F504B03041400060808
311
00D9563541A4EF7CE5A405000081100000340000006662782F41354434394443462D433044322D344135392D424635302D4636343043314544374446312F6F626A656374732E786D6CAD57D96EDB3814FD1541F332F3E045B2D226034545623785D1A62D6AB4980703062D510A27D402924A9DF9FA3914295972EDD433E88B
311
162E97F79E7BEEC2F0CD2EE7CE13159295C5B5EB8DA7AE438BB84C58915DBBB54A4797AEF3260A4559AADE32D729484EAF5D3DEC466126CABAB243094D49CDD5C1E8DDED5F8E8C69415D27E644CA6B57C60F34276352AB32A1F2719C1045C659BA1B7B63B370283613A47A38105A11410B054D315E408A6394F286BF537712
311
85133D1F85FA6957CD4EAF9A34F60CCF678554A4887F38EC40CCCC0B166FFD8BABD14510CC46C12BDF1BDDDEDD2E46DEEBD974FE6A3EBFBA797B8583A512906435113475A377C046B0389C98A928AC59A166BE5D621D3411F489694FB991EF78E1C4ACE9ACB3461E533F2E8B82C60D5640A3B1CF8A4E68458B043E675442B3
311
1E42D3E1AFA771EC4DCFF4BF3DB23F7C1E02FD1D3D41ADEEEDBBAF69B9FD1B26C873182424D50C34585A430D57A77B84B765C9ED1C934E4E14158C7087B3AD20E2D98DB0542F89C28118CD64A1A3415BE046F082991ED20561F4739E1FD332AD39D73476A3260A368815AA64A319FB878ABDF67D64A0137CA5D970690D52CF
311
1575A32B4391CB033619209D94930C2E87997AE7CC3F3074AEE374B970A3F777DBDD4AC7EEF1C32B515654284D1F50AB755CFBD628599DBCB33CA737B807AAEC41F902E43F22D4F7AAC06F82ED825D604F518214322D450EDF38536734C563EA78CD537FF7BEC249B779E8BD5378C2D91AAA5F80E7D086BE2F7B7046E11308
311
5F8A99356D15138EB471CF0A00A449E2F01243C8C3E976E7464B64396465EC223CF26032D47DC26738B16290289A937AEF02581EA4C5331234606B1809350CF9AD827B3FFD90CE9A83EDB253F05EFC12BADE2C56EF57B548494CEF6D4C2F68CA0AA650E2F6BCE92B34C07C60D1237DFE5E8A0486FE88F7AA8F776E8F92405B
311
63AE81CFDA9CAE7FF6270F0E88B12F2B75BA097F72028CD085B527FF9EC998724E0A5AD6EDB92FD60F940D03B10E76CDE4AEC0EC0B0B4863660E6210453A16ACD22076D5AA4B9AE313D67D5D7E0423DDE8F6F90379EE67AFED3EF7C6252FC566FBBC3169E928D4DF86DCB6184CB414D0BD099236FE2DE89B84A5692D91048F
311
E0FA6D39EFFB4EA705A48856AA899600F623B888B0A46DE5A25A0B824A5A161B86BA89B83B7A405F3E20B50C68049ED258529E6E18E775BE49194735DAE4A43A01C7FFD77F5BE7D586E4655DA813B207AAA33A0C751FB0577E272A7E70A355F31EDD22F726343941065D4B8E603570EDF4AD1F2CE6737FE4DFF88B51E079C1
311
E86A1604A3C0BF9BDDCEFD8BB97FFBBAF593D1240ADB52D38F687809A52DAC05B3EEFBBA44FCD824E046F744C9F53B139EEDFBEB728C5E389C600FEA65B7F1267942DF47939F0BD8AF3C2A6899579CE6B45044C7D0BDFEE05F08FA8C8132667C99938C9E21E5D3BBD58131183963DF671DEFF4FBC15E3B3AD7017954887AA8
311
F36D41183FD8981924C7559159FC5A9F746F5368DA5FFD671D83CE54969C25C8838993D132A70AD9F08C2224722A41BD7E4F9FD8BBC719BB9F4C87A8C896D35693078226994B8405A855C76A38EEFC86A64EF755D72ECAEDF8110F9B295C079CB976D1A42B165339DEA240EB56A8110E2EF53B7934FEA4C8387A6DB3A9FBEF
311
76696C0625B95B724EFF64ED3229DC1A803452A16F404304EF34CA4461A39B9D8FFF93E1AD3A0E51F8DCD6AAB3653FD019D31C83103546D9DB029A98477BF40E81FAB259DEB8593340E4AC5BD68B243052478A88ACB92968FDAC4A378BCF137428CEF29353F13A832FCF9734121464AE75808345608595591105AACEFF5C7F
311
16256EB2B973C74001E7F7DDE5AB3FD6F332CFCBC20CAD6FEC7DD8593DE0769BAC911CA8BE96C8B53FF5FC75731DB03794CD96483A26897CC4003C2B5807F4C0FDE0A5B933A20E99896EDD44BBE280A1CB85630B5B00A1962EFDDCAAC141E351500731A4AF943A62FA0BAA176F049366295410E8E5A37F01504B0304140006
311
080000D9563541000000000000000000000000350000006662782F41354434394443462D433044322D344135392D424635302D4636343043314544374446312F76657274696365732E62696E504B0304140006080800D9563541F270F1330600000004000000360000006662782F41354434394443462D433044322D344135
311
392D424635302D4636343043314544374446312F747269616E676C65732E62696E636660600000504B0304140006080000D9563541000000000000000000000000370000006662782F41354434394443462D433044322D344135392D424635302D4636343043314544374446312F617474726962757465732E62696E504B03
311
04140006080800D9563541D5987DFC8F00000041010000360000006662782F41354434394443462D433044322D344135392D424635302D4636343043314544374446312F6469726563746F72792E786D6C858F410EC2201045AF4266AF15DDB800BA74E7C21B903225242D6328188F2FA5C4183471359997F9FF81E89FF3C4
311
1E1816475E02DF1F80A11FC8386F25A438EECEC07A250251FC3803E6F58C12560C4AD840E95E91C151A72936F496F35732D860FE635F62C8F2DA16B505C545B74125BAA2FA9E05D7CC053D063734D5C7665FD55B6B8D15D5E9BFEAFD8490FFA45E504B0304140006080800D95635412BD30693FD000000A00100003B000000
311
6662782F41354434394443462D433044322D344135392D424635302D4636343043314544374446312F7265736F75726365732F636F72652E786D6C8D504B6E833010BD0A9A6D65B0894104194709EA0D7A01CB4C88956047FE543D7E4DA052BBEB6666F43E9AA7274E5FCBA3F8441F8CB303B092428156BBC9D8798014AFA4
311
83E22485772EFE924161D58203AC3048317B979E3BA49D8D686346AD9B7007550818A1D08F7C0C10F40D1755AA14B322DCCBA7D2773563C9CA4C679D1421FA1CA0D89EAC13A4C7E092D71844B5B152A464A65D63A6FCD35C0D7A90ED78BC9CDBF78674973327FCC039B91C5A4A281FCF9C36BC1DBB5654AB598A68969F8CDA
311
A38A3881AC29AB093D929A7D30DA37BC6FE81B653DA5A25AE57F4CE939FDD3948C8D877A8FBBD902489683BC0829AAB5AFBC5E65E6BD762BBF01504B010214000A0000080000D95635413DEE336E79000000790000001B00000000000000000000000000000000006175746F6465736B2D64657369676E2D7061636B616765
311
2E786D6C504B01021400140006080800D9563541D486FD9CA0000000F40000001300000000000000000000000000B20000005B436F6E74656E745F54797065735D2E786D6C504B01021400140006080800D956354143395BA2EA0000007C010000080000000000000000000000000083010000636F72652E786D6C504B0102
311
1400140006080800D956354155019EA25F0000007C000000070000000000000000000000000093020000636E782E786D6C504B01021400140006080800D9563541D17A126766010000020300000C00000000000000000000000000170300006662782F636F72652E786D6C504B01021400140006080800D9563541DF4E7EBA
311
7D0000009D0000000B00000000000000000000000000A70400006662782F636E782E786D6C504B01021400140006080800D9563541E5A82E8E2E0100001502000031000000000000000000000000004D0500006662782F41354434394443462D433044322D344135392D424635302D4636343043314544374446312F636F72
311
652E786D6C504B01021400140006080800D9563541D981FC1F4E010000330300003000000000000000000000000000CA0600006662782F41354434394443462D433044322D344135392D424635302D4636343043314544374446312F636E782E786D6C504B01021400140006080800D9563541A4EF7CE5A405000081100000
311
3400000000000000000000000000660800006662782F41354434394443462D433044322D344135392D424635302D4636343043314544374446312F6F626A656374732E786D6C504B01021400140006080000D956354100000000000000000000000035000000000000000000000000005C0E00006662782F41354434394443
311
462D433044322D344135392D424635302D4636343043314544374446312F76657274696365732E62696E504B01021400140006080800D9563541F270F13306000000040000003600000000000000000000000000AF0E00006662782F41354434394443462D433044322D344135392D424635302D4636343043314544374446
311
312F747269616E676C65732E62696E504B01021400140006080000D95635410000000000000000000000003700000000000000000000000000090F00006662782F41354434394443462D433044322D344135392D424635302D4636343043314544374446312F617474726962757465732E62696E504B010214001400060808
311
00D9563541D5987DFC8F0000004101000036000000000000000000000000005E0F00006662782F41354434394443462D433044322D344135392D424635302D4636343043314544374446312F6469726563746F72792E786D6C504B01021400140006080800D95635412BD30693FD000000A00100003B000000000000000000
311
00000000411000006662782F41354434394443462D433044322D344135392D424635302D4636343043314544374446312F7265736F75726365732F636F72652E786D6C504B0506000000000E000E0080040000971100000000
310
504B03040A0000080000D95635413DEE336E79000000790000001B0000006175746F6465736B2D64657369676E2D7061636B6167652E786D6C3C3F786D6C2076657273696F6E3D22312E302220656E636F64696E673D227574662D3822203F3E3C666F726D6174733E3C666F726D61743E687474703A2F2F736368656D612E
310
6175746F6465736B2E636F6D2F64657369676E2D7061636B6167652F323030393C2F666F726D61743E3C2F666F726D6174733E504B0304140006080800D9563541D486FD9CA0000000F4000000130000005B436F6E74656E745F54797065735D2E786D6C7D8EC10E82300C865F65E91D8A1E8C310C0EEA1BF002731658846E
310
D98AC1B77784ABF1D8FE5FBFBF75BBCE937A534CCEB38643598122B6FEE978D0B0485F9C41B54DDD7D022595594E1A469170414C76A4D9A4D207E29CF43ECE46F218070CC6BECC4078ACAA135ACF422C856C0E68EA1BF5669944DDD7BCDE7B1F8E415D77AECB980613C2E4AC91FC167A2B244592486606FC29C8FD7F045B9A
310
EF7053A7E60B504B0304140006080800D9563541029853EAED0000007C01000008000000636F72652E786D6C8D90416EC3201045AF82665B610371ECD8C24476939CA0174098B828315806AA1EBF3871A476D7D58CFEFC3733FAFCF83DDDD1975EBC71B6059A1140DA2A37183BB610C3151F001D055F9C0BBF6C80AC9C740B
310
AB0C828F8B8BF326296783B621A9D60D7A13A5F73A0052F7D4B4E0D5A79E642663480E7FCB66A96E72D4197D75098ED10CE879C40C699FB91ABD80A8CA929DBA33C397AADFE1A2BBF4F870E8CFB87E2765D5D545559F18CF5758F060A6D77DB56819F4008211CA30A931A31F9434FBA2D99337421B4278BEDAFF40711EFE09
310
4563C38E6DEF3E310F82A6471E03C1F3358B541E41A5BAE6267E00504B0304140006080800D956354155019EA25F0000007C00000007000000636E782E786D6C4DCB3B0E80201045D1AD90E915ED2CF8AC45050C11660C8261F98AB1B07AC9C97D42D718D865D3E909258CFD00CCE24AC6E326A164D74DC0B4128928FF3260
310
38472BA13128B1252AC747C6BAB984FC68F0B87FE8960A5C09FE86CFB69FBA01504B0304140006080800D95635418A1EDE2569010000020300000C0000006662782F636F72652E786D6C8D52ED8E8230107C95A67F2FD082F88129357AEA13DC0B54A85C23B4A4B4C4C7BFE5C3705E8CB99094666667777680EDEE75853A69
310
5B657486A3906224756E0AA5CB0C7B770D3618ED38B3C6B85F65186951CB0CF730E6ACB4C63713941BEDA476806A53C809146D2B1D467905970CB7F9B7AC4528BC838AF6163622BF895286510834D471D63A0B06D038A43F31BF5EEE8C8C3867DEAB62625501D3D455498BF97AB58A8FFB531C9CD7874590ECCF8760B3399C
310
82F493AED6FB3459A7C798915ECC9953F5C35D6EA570B2C03CA6511CD03488A3AF886E97C976493F68B4A59491BEFC49E49BE29F22AFB45BC493DD51D6621E819181F8B32D44E4502B3AF04338237D88F01A127E0E1A0281909DB8548F3D6E00753277C626C014C6CF54272A2F612A45C3C3C8C842E7A1016CF6B24FFCA6CF
310
FB1EF001852EC19A7070BD78D74F67E3D4298A46DAA07377A48DAD45359B1B2DCEE73CE8A53C3795B1FF51936955328549FABF97FF00504B0304140006080800D956354120D298387E0000009D0000000B0000006662782F636E782E786D6C4DCCD10A83201886E15B91FFDCA59BD8043356BAFB886521990EA76397BF1A1D
310
ECE883878F57B69FD5A3B74D2F174303F44400D9F088A30B7303254FF80AA85532C598FF6E80C2B0DA06760625E714CBF3A0D14E43F17953EFC272E09D18C3CF178D993102B39A537CEBA8C07DCFA9D0B466BA23502959FD4ADBEE61F505504B0304140006080800D9563541D27CED962C0100001502000031000000666278
310
2F46304545363233442D344545392D343736312D414231392D4343363139443137344442302F636F72652E786D6C8D515B6EC32010BC0AE22B55850DB663C711266A12F704BD8003244189C1E251E5F885DA91DABFFCB068766676B44B778FF10EBEA575CAE80E920C4320353742E94B07833FA30D043B46AD31FE0F0D023D
310
8CB28309868C5EAC09D30271A3BDD43EA2DA08B9808373D243C0EFF1D341C7AF721CB221F8C870B76C1AF86DB8C88C64B11D798C3A6F6300300F492F649FB8EFEBA23CA2AAEF5B543535411F7BD2A2C3A126ED9134D5718F693E0B190D418945AE448CA3CE4ADA574D929851AFC6677C6EE5E0A580ACC0A440B84505F92278
310
BBAEB66BFC8EC916C7C989FE4F1426F1A22828EDCB62893BCB1C6484E673835161C2E9FE0C231F93B11EA4792B27F91B6438C3B86C366BD234349FB97103D1B4AE1653E78D8D1B5EDD4E915E2ECE75C5689E8E14CBEF05634D07653F504B0304140006080800D9563541BF2633085601000033030000300000006662782F46
310
304545363233442D344545392D343736312D414231392D4343363139443137344442302F636E782E786D6CBD93CD6EC32010845F0571ADFC83E344698489D4439FA0875E316C121A1B2CC055F3F65D1292E69243A5AA1764CD0E33AB4F986FBFC6817C820FC6D98EB2B2A604AC72DAD87D47E7B82BD6946C05F7CEC53B1B25
310
568ED0D12453C1F7DECD539634ECE43C445407638F59F410DCEC150494D34D323825070C005BCC28C2D883D6A0C9CD885F3BF0B80A8AFD89C40390D79777E2FA0F5031F02AA5085EA50EC1D3999BEE4C94A84186D0D1A00E30CA52CED16908C752CB284B565EBB1EECF49344D2856BE5EC0D49E51D4D271579A31239F20A87
310
8287E8915E36C5D30454C8691A8C9211215767E3C523F86C6C5CB5D96B10BC47F7A259ADD718769E091ECD08D9A13CC8089A8AA6664D513F170D7B63F566D96E96F553CD3675CDAB6417BC776EC8973006BC9B887236828D54305EA5F1237CD947B4F1C8DAF9D32F402280DC7AA173CBF84B3E6CB568DB7FE4539DDF37E2F2
310
F817886F504B0304140006080800D95635419E9922ED620700009A1B0000340000006662782F46304545363233442D344545392D343736312D414231392D4343363139443137344442302F6F626A656374732E786D6CED59DD73A33610FF5718FAD23E181B9B5C2F1D4227B12F379E6BDA9BBAD7E98367181964A246084612
310
B9B87F7D571F602026C16DFAD6071B10D26AF7B79F5AC21F9F72EA3C622E48C1AE5CDF9BB90E66499112965DB995DC4FDEBBCE8F51C88B42B6A6B90E4339BE72D5B01B85192FAAD20EA5788F2A2A7BA3B7377F3822C10CBB4E42911057AE48EE718E3C54C922C5E2C14B91445EB67FF27CCF4CEC92CD382AEF7B444BC43193
310
C0298C33A0E218A6FCEEE3CC9D46E154BD8F42F56F672D46CD0A86674DB5D45D2E091312B1E4194B3D328B512C2DFC60F5617E7139B90882C5247837F72737B737AB89FFFD62B67CB75C5E5E7FB804F6764541AD4C292E314B417F0737F2C3A97AD3886E1138C575523086130D2440A5C5EA132458C0562DF866DD475F49D4
310
7AAD256C3D07EABD65A135BCE852199A350E880E5D10C46E574B5C5FDBF215BB3F417031C628B9C012B8159283762D3C1CBCC28D66E1D48C46E1EEA80B229C1C49CC09A20E253B8E382805A6AA295168165832CA3938907294045A73E675D7B6C0335F779D535CEE2B4A9567B89176AC18DC0F4BA139237F617EE4BE8D0CF0
310
04D25684C9F7964B7928B11B5D86533D1885EAB298DB970648674F51263422E66D4FD0A572FDF5CA8D3EDDEE9E362A1C9CDEBCE44589B95446A7F4A8F90243B6578592DDD61FA539B5008431A0DA9547507E05E47F86E8716405F4C6C953F014D8B9922326F605CF4137CECC99CCE06FE6F8FA5FDDB7EEC269B3B8ABBD213C
310
C14D1554EFFF3D9E5D19345696FF169C51F808065FF0857DB54910057BBE230C005246E2D0028620B4EF774F6EB486C009811E56211AF92032B0FB08B7E1D492396AA5762FEB750C10B57B2CC6280960D316096C0CE8E923640F4E92A39ADA220EC17BF126E67ABDDA7CDA547C8F127C677D7A85F784110959F334431DCC3B
310
123DE0C3D782A720E873BC376DBC73BB9500B415E60AF8AC06413D1C77EE6C90C0BAAC50E1267C65071042E5EA16FD3B22124C2962B8A8EA7D9BE8A60CB5F1785B33B8D1DC40BC98F74C98E347A2AA0A709AE38C0EA390F7134E4A05A21B7D34923541D31B90EECBFA67B0C866FEC0AC3583D0CB10FD4D07AD1338742CBB46
310
DA02D108BC3B86F3A4A0058F7787D8443A176A0960A3EB2DBF778842AC374A5254C083B4DFD5212533D2C629D9EF2B0171F5048BBFAF976D7398790BFFC269FFF79C3180680BBE8BB8F5BBDE1E31C95186E33D4A87B66BEFD6D0169AE400698EF714E4228F441E6224E3598AB373A0398BF8E59B52CF682104615840BE3A09
310
7E1B8D990781C468B3665969B5073411718E25A2E720A0C80C80ABD38EAE7113281D5EE7B1B1DE9734D626FA1F590447504B162C26508A420E799571DFBB8018D245D7A0DCC317ACADA6ADC5A0159410C921FE8A49762FCF41DD901FC03D81234925E3A2440998F508B2CF7C4529B5C7FB0E250F2A7FC44945DFCA4004A6FB
310
98505AE531FC088393C718D76E02D38B28B4889BD827710E451992151FB3C9BB8BD9B37D4CCDD00F81AD8DF68442D88E73540EA0DE0988BA1E711AF02DF501A5EEAABC8C515E546C94A1788BBE3759F27DB52AB223F955A522948D35614B300A09934D56AD633698BA0EACE0463A501D6281F2929A53D82B89C76FBC49531E
310
DC805B3F7DDB0D7228FC06B4D78EA8410D83E5B1531888AF4826F76EB4D1D7C90DD4DF294E8FA9BEAE35DB152020A62279C58955D197359437B64673A33B24C5F6A3C9BAF5F5CBDA83EE4738853550BB340BD70AE81C3389546572A76EE8AF0842708786195FAB9C7A0E95EB34D55523A2B764489D9D32A2B3694EBCF21EB3
310
22871FDB1296D02AC55B948A87F84ED2784314EB564A2F2735C62F0AF8CBC74D0F1E181921D26755E0E1AFBDB57674A9CAA59344E47D95EF182210043BA26546375EC932AB915ACBCD559D29A0EE0203B32A0EFE3F59B4DB11FF9F2C326B18FFEA647173F8091DDA7D91563A4F945D9F750C68F293A2F216C700DD7668A836
310
59C424732BBF75A61882621DE547576375D030048738FEC7597B280B9AED7AFC9F97B5FD6715C75959A5335975A94E54AEEB760E9B7D9807ABE5723E995FCF5793C0F783C9E5220826C1FC7671B39C5F2CE737DF37686A478DC22698E9DC05CF26A8D5C3EAC962005D59515092C2693E75320C315FC2997E44FB9CE75840F2
310
6C37BB53DB941FB1FAD1F43925DA515C73728FA0414C05A475C0A84A6477DCF9065A93120EDA572E348DBC07F8B356E93A9079AE5C6815489260E1EDA0CDA41A7A9A38A45C9DFB2D31C007B14CA544B3A8796E56296C3AE1BF9932260D58B93A3D0C28DC4AE87E753A149A37CB537296E0353B0E9270BBAB24546B4696E340
310
238CDEE6A87E231B25ECC16EFD04AEFBB258BEA7E7741019F5C9E0452330542712F14CF7BB156396A5EBD5E729F4D99CF52F4E49AB0C74399ED2846330E64A1554604560159666892498EAF287ED675EC0279EDCD15591F3EDD3FB77DF6D97459E17CC0C6DAFE15496C2872267730F9F7DD22D140F5835D7C5763EF3E75BDD
310
D4B67DF6788704F6545504037531A104E9991CD8E5B306956D5F4E952A7AD3D72BC706516806183B7AD6E3351FB91CF021F53945798CF6F35ADA17FBDA533D156C8243473AFA1B504B0304140006080000D9563541000000000000000000000000350000006662782F46304545363233442D344545392D343736312D414231
310
392D4343363139443137344442302F76657274696365732E62696E504B0304140006080800D9563541F270F1330600000004000000360000006662782F46304545363233442D344545392D343736312D414231392D4343363139443137344442302F747269616E676C65732E62696E636660600000504B0304140006080000
310
D9563541000000000000000000000000370000006662782F46304545363233442D344545392D343736312D414231392D4343363139443137344442302F617474726962757465732E62696E504B0304140006080800D9563541D5987DFC8F00000041010000360000006662782F46304545363233442D344545392D34373631
310
2D414231392D4343363139443137344442302F6469726563746F72792E786D6C858F410EC2201045AF4266AF15DDB800BA74E7C21B903225242D6328188F2FA5C4183471359997F9FF81E89FF3C41E1816475E02DF1F80A11FC8386F25A438EECEC07A250251FC3803E6F58C12560C4AD840E95E91C151A72936F496F35732
310
D860FE635F62C8F2DA16B505C545B74125BAA2FA9E05D7CC053D063734D5C7665FD55B6B8D15D5E9BFEAFD8490FFA45E504B0304140006080800D95635416A720EDBFF000000A00100003B0000006662782F46304545363233442D344545392D343736312D414231392D4343363139443137344442302F7265736F75726365
310
732F636F72652E786D6C8D50596EC23010BD4A34BF95133B842CC831820227E8052C670816C4465EAA1EBF0E49A5F6AF3F33A3B7689E1EDF7F4D8FEC139DD7D6F4C0720A191A65076DC61E62B89216B2BDE0CEDAF04B06999113F630C320F8E86C7CAE90B226A009093576C01594DE63804C3DD2D18357379C642E63480A7F
310
CF9F52DDE58839CB139D7482FBE052806C79324F100EBD8D4EA1E7C5C20A1EA31E568D1ED24F7DD5E84034755D9E0E67462ECD7143AAC3E548DAF67826DD3BAD9B435735DDA9E4C56C163CE8E927A37228030E204ACA4A423B52B20F4677DB6AB7A56F94ED28E5C52CFF638ACFE19FA6A84DD8946BDCC5E641B014E445085E
310
CC7DA5F52A33EDB95BF10D504B010214000A0000080000D95635413DEE336E79000000790000001B00000000000000000000000000000000006175746F6465736B2D64657369676E2D7061636B6167652E786D6C504B01021400140006080800D9563541D486FD9CA0000000F40000001300000000000000000000000000B2
310
0000005B436F6E74656E745F54797065735D2E786D6C504B01021400140006080800D9563541029853EAED0000007C010000080000000000000000000000000083010000636F72652E786D6C504B01021400140006080800D956354155019EA25F0000007C000000070000000000000000000000000096020000636E782E78
310
6D6C504B01021400140006080800D95635418A1EDE2569010000020300000C000000000000000000000000001A0300006662782F636F72652E786D6C504B01021400140006080800D956354120D298387E0000009D0000000B00000000000000000000000000AD0400006662782F636E782E786D6C504B0102140014000608
310
0800D9563541D27CED962C010000150200003100000000000000000000000000540500006662782F46304545363233442D344545392D343736312D414231392D4343363139443137344442302F636F72652E786D6C504B01021400140006080800D9563541BF26330856010000330300003000000000000000000000000000
310
CF0600006662782F46304545363233442D344545392D343736312D414231392D4343363139443137344442302F636E782E786D6C504B01021400140006080800D95635419E9922ED620700009A1B00003400000000000000000000000000730800006662782F46304545363233442D344545392D343736312D414231392D43
310
43363139443137344442302F6F626A656374732E786D6C504B01021400140006080000D95635410000000000000000000000003500000000000000000000000000271000006662782F46304545363233442D344545392D343736312D414231392D4343363139443137344442302F76657274696365732E62696E504B010214
310
00140006080800D9563541F270F133060000000400000036000000000000000000000000007A1000006662782F46304545363233442D344545392D343736312D414231392D4343363139443137344442302F747269616E676C65732E62696E504B01021400140006080000D956354100000000000000000000000037000000
310
00000000000000000000D41000006662782F46304545363233442D344545392D343736312D414231392D4343363139443137344442302F617474726962757465732E62696E504B01021400140006080800D9563541D5987DFC8F000000410100003600000000000000000000000000291100006662782F4630454536323344
310
2D344545392D343736312D414231392D4343363139443137344442302F6469726563746F72792E786D6C504B01021400140006080800D95635416A720EDBFF000000A00100003B000000000000000000000000000C1200006662782F46304545363233442D344545392D343736312D414231392D4343363139443137344442
310
302F7265736F75726365732F636F72652E786D6C504B0506000000000E000E0080040000641300000000
  0
XRECORD
  5
17
102
{ACAD_REACTORS
330
12
102
}
330
12
100
AcDbXrecord
280
     1
270
     1
271
     1
  0
XRECORD
  5
16
102
{ACAD_REACTORS
330
12
102
}
330
12
100
AcDbXrecord
280
     1
270
     1
271
     1
  0
XRECORD
  5
18
102
{ACAD_REACTORS
330
12
102
}
330
12
100
AcDbXrecord
280
     1
270
     1
271
     1
  0
XRECORD
  5
15
102
{ACAD_REACTORS
330
12
102
}
330
12
100
AcDbXrecord
280
     1
270
     1
271
     1
  0
XRECORD
  5
20DF
102
{ACAD_REACTORS
330
22
102
}
330
22
100
AcDbXrecord
280
     1
102
MATERIAL
148
0.0
149
0.0
149
0.0
 93
        0
 94
      127
282
     0
 72
     0
 77
     0
171
     0
175
     0
179
     0
273
     0
  0
XRECORD
  5
24
102
{ACAD_REACTORS
330
22
102
}
330
22
100
AcDbXrecord
280
     1
270
     1
271
     1
  0
XRECORD
  5
23
102
{ACAD_REACTORS
330
22
102
}
330
22
100
AcDbXrecord
280
     1
270
     1
271
     1
  0
XRECORD
  5
27
102
{ACAD_REACTORS
330
22
102
}
330
22
100
AcDbXrecord
280
     1
270
     1
271
     1
  0
XRECORD
  5
26
102
{ACAD_REACTORS
330
22
102
}
330
22
100
AcDbXrecord
280
     1
270
     1
271
     1
  0
XRECORD
  5
28
102
{ACAD_REACTORS
330
22
102
}
330
22
100
AcDbXrecord
280
     1
270
     1
271
     1
  0
XRECORD
  5
25
102
{ACAD_REACTORS
330
22
102
}
330
22
100
AcDbXrecord
280
     1
270
     1
271
     1
  0
XRECORD
  5
20DB
102
{ACAD_REACTORS
330
20DA
102
}
330
20DA
100
AcDbXrecord
280
     1
102
ACAD_ROUNDTRIP_2012_MLEADER_STYLE
298
     1
  0
CELLSTYLEMAP
  5
20D9
102
{ACAD_REACTORS
330
20D8
102
}
330
20D8
100
AcDbCellStyleMap
 90
        3
300
CELLSTYLE
  1
TABLEFORMAT_BEGIN
 90
        5
170
     1
 91
        0
 92
    32768
 62
   257
 93
        1
300
CONTENTFORMAT
  1
CONTENTFORMAT_BEGIN
 90
        0
 91
        0
 92
      512
 93
        0
300

 40
0.0
140
1.0
 94
        5
 62
     0
340
55
144
0.25
309
CONTENTFORMAT_END
171
     0
 94
        0
309
TABLEFORMAT_END
  1
CELLSTYLE_BEGIN
 90
        1
 91
        1
300
_TITLE
309
CELLSTYLE_END
300
CELLSTYLE
  1
TABLEFORMAT_BEGIN
 90
        5
170
     1
 91
        0
 92
        0
 62
   257
 93
        1
300
CONTENTFORMAT
  1
CONTENTFORMAT_BEGIN
 90
        0
 91
        0
 92
      512
 93
        0
300

 40
0.0
140
1.0
 94
        5
 62
     0
340
55
144
0.18
309
CONTENTFORMAT_END
171
     0
 94
        0
309
TABLEFORMAT_END
  1
CELLSTYLE_BEGIN
 90
        2
 91
        1
300
_HEADER
309
CELLSTYLE_END
300
CELLSTYLE
  1
TABLEFORMAT_BEGIN
 90
        5
170
     1
 91
        0
 92
        0
 62
   257
 93
        1
300
CONTENTFORMAT
  1
CONTENTFORMAT_BEGIN
 90
        0
 91
        0
 92
      512
 93
        0
300

 40
0.0
140
1.0
 94
        2
 62
     0
340
55
144
0.18
309
CONTENTFORMAT_END
171
     0
 94
        0
309
TABLEFORMAT_END
  1
CELLSTYLE_BEGIN
 90
        3
 91
        2
300
_DATA
309
CELLSTYLE_END
  0
XRECORD
  5
2110
102
{ACAD_REACTORS
330
20D8
102
}
330
20D8
100
AcDbXrecord
280
     1
102
ACAD_ROUNDTRIP_PRE2007_TABLESTYLE
 90
      512
 91
        0
  1

 92
      512
 93
        0
  2

 94
      512
 95
        0
  3

  0
XRECORD
  5
20EB
102
{ACAD_REACTORS
330
20EA
102
}
330
20EA
100
AcDbXrecord
280
     1
102
RTVSPropertyOp0
 70
     1
102
RTVSPropertyOp1
 70
     1
102
RTVSPropertyOp2
 70
     1
102
RTVSPropertyOp3
 70
     1
102
RTVSPropertyOp4
 70
     1
102
RTVSPropertyOp5
 70
     1
102
RTVSPropertyOp6
 70
     1
102
RTVSPropertyOp7
 70
     1
102
RTVSPropertyOp8
 70
     1
102
RTVSPropertyOp9
 70
     1
102
RTVSPropertyOp10
 70
     1
102
RTVSPropertyOp11
 70
     1
102
RTVSPropertyOp12
 70
     1
102
RTVSPropertyOp13
 70
     1
102
RTVSPropertyOp14
 70
     1
102
RTVSPropertyOp15
 70
     1
102
RTVSPropertyOp16
 70
     1
102
RTVSPropertyOp17
 70
     1
102
RTVSPropertyOp18
 70
     1
102
RTVSPropertyOp19
 70
     1
102
RTVSPropertyOp20
 70
     1
102
RTVSPropertyOp21
 70
     1
102
RTVSPropertyOp22
 70
     1
102
RTVSPropertyOp23
 70
     1
102
RTVSPropertyOp24
 70
     1
102
RTVSPropertyOp25
 70
     1
102
RTVSPropertyOp26
 70
     1
102
RTVSPropertyOp27
 70
     1
102
RTVSPropertyOp28
 70
     1
102
RTVSPropertyOp29
 70
     1
102
RTVSPropertyOp30
 70
     1
102
RTVSPropertyOp31
 70
     1
102
RTVSPropertyOp32
 70
     1
  0
XRECORD
  5
20E9
102
{ACAD_REACTORS
330
20E8
102
}
330
20E8
100
AcDbXrecord
280
     1
102
RTVSPropertyOp0
 70
     1
102
RTVSPropertyOp1
 70
     1
102
RTVSPropertyOp2
 70
     1
102
RTVSPropertyOp3
 70
     1
102
RTVSPropertyOp4
 70
     1
102
RTVSPropertyOp5
 70
     1
102
RTVSPropertyOp6
 70
     1
102
RTVSPropertyOp7
 70
     1
102
RTVSPropertyOp8
 70
     1
102
RTVSPropertyOp9
 70
     1
102
RTVSPropertyOp10
 70
     1
102
RTVSPropertyOp11
 70
     1
102
RTVSPropertyOp12
 70
     1
102
RTVSPropertyOp13
 70
     1
102
RTVSPropertyOp14
 70
     1
102
RTVSPropertyOp15
 70
     1
102
RTVSPropertyOp16
 70
     1
102
RTVSPropertyOp17
 70
     1
102
RTVSPropertyOp18
 70
     1
102
RTVSPropertyOp19
 70
     1
102
RTVSPropertyOp20
 70
     1
102
RTVSPropertyOp21
 70
     1
102
RTVSPropertyOp22
 70
     1
102
RTVSPropertyOp23
 70
     1
102
RTVSPropertyOp24
 70
     1
102
RTVSPropertyOp25
 70
     1
102
RTVSPropertyOp26
 70
     1
102
RTVSPropertyOp27
 70
     1
102
RTVSPropertyOp28
 70
     1
102
RTVSPropertyOp29
 70
     1
102
RTVSPropertyOp30
 70
     1
102
RTVSPropertyOp31
 70
     1
102
RTVSPropertyOp32
 70
     1
  0
XRECORD
  5
20F7
102
{ACAD_REACTORS
330
20F6
102
}
330
20F6
100
AcDbXrecord
280
     1
102
RTVSPropertyOp0
 70
     1
102
RTVSPropertyOp1
 70
     1
102
RTVSPropertyOp2
 70
     1
102
RTVSPropertyOp3
 70
     1
102
RTVSPropertyOp4
 70
     1
102
RTVSPropertyOp5
 70
     1
102
RTVSPropertyOp6
 70
     1
102
RTVSPropertyOp7
 70
     1
102
RTVSPropertyOp8
 70
     1
102
RTVSPropertyOp9
 70
     1
102
RTVSPropertyOp10
 70
     1
102
RTVSPropertyOp11
 70
     1
102
RTVSPropertyOp12
 70
     1
102
RTVSPropertyOp13
 70
     1
102
RTVSPropertyOp14
 70
     1
102
RTVSPropertyOp15
 70
     1
102
RTVSPropertyOp16
 70
     1
102
RTVSPropertyOp17
 70
     1
102
RTVSPropertyOp18
 70
     1
102
RTVSPropertyOp19
 70
     1
102
RTVSPropertyOp20
 70
     1
102
RTVSPropertyOp21
 70
     1
102
RTVSPropertyOp22
 70
     1
102
RTVSPropertyOp23
 70
     1
102
RTVSPropertyOp24
 70
     1
102
RTVSPropertyOp25
 70
     1
102
RTVSPropertyOp26
 70
     1
102
RTVSPropertyOp27
 70
     1
102
RTVSPropertyOp28
 70
     1
102
RTVSPropertyOp29
 70
     1
102
RTVSPropertyOp30
 70
     1
102
RTVSPropertyOp31
 70
     1
102
RTVSPropertyOp32
 70
     1
  0
XRECORD
  5
20FF
102
{ACAD_REACTORS
330
20FE
102
}
330
20FE
100
AcDbXrecord
280
     1
102
RTVSPropertyOp0
 70
     1
102
RTVSPropertyOp1
 70
     1
102
RTVSPropertyOp2
 70
     1
102
RTVSPropertyOp3
 70
     1
102
RTVSPropertyOp4
 70
     1
102
RTVSPropertyOp5
 70
     1
102
RTVSPropertyOp6
 70
     1
102
RTVSPropertyOp7
 70
     1
102
RTVSPropertyOp8
 70
     1
102
RTVSPropertyOp9
 70
     1
102
RTVSPropertyOp10
 70
     1
102
RTVSPropertyOp11
 70
     1
102
RTVSPropertyOp12
 70
     1
102
RTVSPropertyOp13
 70
     1
102
RTVSPropertyOp14
 70
     1
102
RTVSPropertyOp15
 70
     1
102
RTVSPropertyOp16
 70
     1
102
RTVSPropertyOp17
 70
     1
102
RTVSPropertyOp18
 70
     1
102
RTVSPropertyOp19
 70
     1
102
RTVSPropertyOp20
 70
     1
102
RTVSPropertyOp21
 70
     1
102
RTVSPropertyOp22
 70
     1
102
RTVSPropertyOp23
 70
     1
102
RTVSPropertyOp24
 70
     1
102
RTVSPropertyOp25
 70
     1
102
RTVSPropertyOp26
 70
     1
102
RTVSPropertyOp27
 70
     1
102
RTVSPropertyOp28
 70
     1
102
RTVSPropertyOp29
 70
     1
102
RTVSPropertyOp30
 70
     1
102
RTVSPropertyOp31
 70
     1
102
RTVSPropertyOp32
 70
     1
  0
XRECORD
  5
20F1
102
{ACAD_REACTORS
330
20F0
102
}
330
20F0
100
AcDbXrecord
280
     1
102
RTVSPropertyOp0
 70
     1
102
RTVSPropertyOp1
 70
     1
102
RTVSPropertyOp2
 70
     1
102
RTVSPropertyOp3
 70
     1
102
RTVSPropertyOp4
 70
     1
102
RTVSPropertyOp5
 70
     1
102
RTVSPropertyOp6
 70
     1
102
RTVSPropertyOp7
 70
     1
102
RTVSPropertyOp8
 70
     1
102
RTVSPropertyOp9
 70
     1
102
RTVSPropertyOp10
 70
     1
102
RTVSPropertyOp11
 70
     1
102
RTVSPropertyOp12
 70
     1
102
RTVSPropertyOp13
 70
     1
102
RTVSPropertyOp14
 70
     1
102
RTVSPropertyOp15
 70
     1
102
RTVSPropertyOp16
 70
     1
102
RTVSPropertyOp17
 70
     1
102
RTVSPropertyOp18
 70
     1
102
RTVSPropertyOp19
 70
     1
102
RTVSPropertyOp20
 70
     1
102
RTVSPropertyOp21
 70
     1
102
RTVSPropertyOp22
 70
     1
102
RTVSPropertyOp23
 70
     1
102
RTVSPropertyOp24
 70
     1
102
RTVSPropertyOp25
 70
     1
102
RTVSPropertyOp26
 70
     1
102
RTVSPropertyOp27
 70
     1
102
RTVSPropertyOp28
 70
     1
102
RTVSPropertyOp29
 70
     1
102
RTVSPropertyOp30
 70
     1
102
RTVSPropertyOp31
 70
     1
102
RTVSPropertyOp32
 70
     1
  0
XRECORD
  5
20F5
102
{ACAD_REACTORS
330
20F4
102
}
330
20F4
100
AcDbXrecord
280
     1
102
RTVSPropertyOp0
 70
     1
102
RTVSPropertyOp1
 70
     1
102
RTVSPropertyOp2
 70
     1
102
RTVSPropertyOp3
 70
     1
102
RTVSPropertyOp4
 70
     1
102
RTVSPropertyOp5
 70
     1
102
RTVSPropertyOp6
 70
     1
102
RTVSPropertyOp7
 70
     1
102
RTVSPropertyOp8
 70
     1
102
RTVSPropertyOp9
 70
     1
102
RTVSPropertyOp10
 70
     1
102
RTVSPropertyOp11
 70
     1
102
RTVSPropertyOp12
 70
     1
102
RTVSPropertyOp13
 70
     1
102
RTVSPropertyOp14
 70
     1
102
RTVSPropertyOp15
 70
     1
102
RTVSPropertyOp16
 70
     1
102
RTVSPropertyOp17
 70
     1
102
RTVSPropertyOp18
 70
     1
102
RTVSPropertyOp19
 70
     1
102
RTVSPropertyOp20
 70
     1
102
RTVSPropertyOp21
 70
     1
102
RTVSPropertyOp22
 70
     1
102
RTVSPropertyOp23
 70
     1
102
RTVSPropertyOp24
 70
     1
102
RTVSPropertyOp25
 70
     1
102
RTVSPropertyOp26
 70
     1
102
RTVSPropertyOp27
 70
     1
102
RTVSPropertyOp28
 70
     1
102
RTVSPropertyOp29
 70
     1
102
RTVSPropertyOp30
 70
     1
102
RTVSPropertyOp31
 70
     1
102
RTVSPropertyOp32
 70
     1
  0
XRECORD
  5
210F
102
{ACAD_REACTORS
330
210E
102
}
330
210E
100
AcDbXrecord
280
     1
102
RTVSPropertyOp0
 70
     0
102
RTVSPropertyOp1
 70
     0
102
RTVSPropertyOp2
 70
     0
102
RTVSPropertyOp3
 70
     0
102
RTVSPropertyOp4
 70
     0
102
RTVSPropertyOp5
 70
     0
102
RTVSPropertyOp6
 70
     0
102
RTVSPropertyOp7
 70
     0
102
RTVSPropertyOp8
 70
     0
102
RTVSPropertyOp9
 70
     0
102
RTVSPropertyOp10
 70
     0
102
RTVSPropertyOp11
 70
     0
102
RTVSPropertyOp12
 70
     0
102
RTVSPropertyOp13
 70
     0
102
RTVSPropertyOp14
 70
     2
102
RTVSPropertyOp15
 70
     0
102
RTVSPropertyOp16
 70
     0
102
RTVSPropertyOp17
 70
     0
102
RTVSPropertyOp18
 70
     0
102
RTVSPropertyOp19
 70
     0
102
RTVSPropertyOp20
 70
     0
102
RTVSPropertyOp21
 70
     0
102
RTVSPropertyOp22
 70
     0
102
RTVSPropertyOp23
 70
     0
102
RTVSPropertyOp24
 70
     0
102
RTVSPropertyOp25
 70
     0
102
RTVSPropertyOp26
 70
     0
102
RTVSPropertyOp27
 70
     0
102
RTVSPropertyOp28
 70
     1
102
RTVSPropertyOp29
 70
     1
102
RTVSPropertyOp30
 70
     1
102
RTVSPropertyOp31
 70
     1
102
RTVSPropertyOp32
 70
     1
  0
XRECORD
  5
20FD
102
{ACAD_REACTORS
330
20FC
102
}
330
20FC
100
AcDbXrecord
280
     1
102
RTVSPropertyOp0
 70
     1
102
RTVSPropertyOp1
 70
     1
102
RTVSPropertyOp2
 70
     1
102
RTVSPropertyOp3
 70
     1
102
RTVSPropertyOp4
 70
     1
102
RTVSPropertyOp5
 70
     1
102
RTVSPropertyOp6
 70
     1
102
RTVSPropertyOp7
 70
     1
102
RTVSPropertyOp8
 70
     1
102
RTVSPropertyOp9
 70
     1
102
RTVSPropertyOp10
 70
     1
102
RTVSPropertyOp11
 70
     1
102
RTVSPropertyOp12
 70
     1
102
RTVSPropertyOp13
 70
     1
102
RTVSPropertyOp14
 70
     1
102
RTVSPropertyOp15
 70
     1
102
RTVSPropertyOp16
 70
     1
102
RTVSPropertyOp17
 70
     1
102
RTVSPropertyOp18
 70
     1
102
RTVSPropertyOp19
 70
     1
102
RTVSPropertyOp20
 70
     1
102
RTVSPropertyOp21
 70
     1
102
RTVSPropertyOp22
 70
     1
102
RTVSPropertyOp23
 70
     1
102
RTVSPropertyOp24
 70
     1
102
RTVSPropertyOp25
 70
     1
102
RTVSPropertyOp26
 70
     1
102
RTVSPropertyOp27
 70
     1
102
RTVSPropertyOp28
 70
     1
102
RTVSPropertyOp29
 70
     1
102
RTVSPropertyOp30
 70
     1
102
RTVSPropertyOp31
 70
     1
102
RTVSPropertyOp32
 70
     1
  0
XRECORD
  5
20E1
102
{ACAD_REACTORS
330
20E0
102
}
330
20E0
100
AcDbXrecord
280
     1
102
RTVSPropertyOp0
 70
     1
102
RTVSPropertyOp1
 70
     1
102
RTVSPropertyOp2
 70
     1
102
RTVSPropertyOp3
 70
     1
102
RTVSPropertyOp4
 70
     1
102
RTVSPropertyOp5
 70
     1
102
RTVSPropertyOp6
 70
     1
102
RTVSPropertyOp7
 70
     1
102
RTVSPropertyOp8
 70
     1
102
RTVSPropertyOp9
 70
     1
102
RTVSPropertyOp10
 70
     1
102
RTVSPropertyOp11
 70
     1
102
RTVSPropertyOp12
 70
     1
102
RTVSPropertyOp13
 70
     1
102
RTVSPropertyOp14
 70
     1
102
RTVSPropertyOp15
 70
     1
102
RTVSPropertyOp16
 70
     1
102
RTVSPropertyOp17
 70
     1
102
RTVSPropertyOp18
 70
     1
102
RTVSPropertyOp19
 70
     1
102
RTVSPropertyOp20
 70
     1
102
RTVSPropertyOp21
 70
     1
102
RTVSPropertyOp22
 70
     1
102
RTVSPropertyOp23
 70
     1
102
RTVSPropertyOp24
 70
     1
102
RTVSPropertyOp25
 70
     1
102
RTVSPropertyOp26
 70
     1
102
RTVSPropertyOp27
 70
     1
102
RTVSPropertyOp28
 70
     1
102
RTVSPropertyOp29
 70
     1
102
RTVSPropertyOp30
 70
     1
102
RTVSPropertyOp31
 70
     1
102
RTVSPropertyOp32
 70
     1
  0
XRECORD
  5
20E3
102
{ACAD_REACTORS
330
20E2
102
}
330
20E2
100
AcDbXrecord
280
     1
102
RTVSPropertyOp0
 70
     1
102
RTVSPropertyOp1
 70
     1
102
RTVSPropertyOp2
 70
     1
102
RTVSPropertyOp3
 70
     1
102
RTVSPropertyOp4
 70
     1
102
RTVSPropertyOp5
 70
     1
102
RTVSPropertyOp6
 70
     1
102
RTVSPropertyOp7
 70
     1
102
RTVSPropertyOp8
 70
     1
102
RTVSPropertyOp9
 70
     1
102
RTVSPropertyOp10
 70
     1
102
RTVSPropertyOp11
 70
     1
102
RTVSPropertyOp12
 70
     1
102
RTVSPropertyOp13
 70
     1
102
RTVSPropertyOp14
 70
     1
102
RTVSPropertyOp15
 70
     1
102
RTVSPropertyOp16
 70
     1
102
RTVSPropertyOp17
 70
     1
102
RTVSPropertyOp18
 70
     1
102
RTVSPropertyOp19
 70
     1
102
RTVSPropertyOp20
 70
     1
102
RTVSPropertyOp21
 70
     1
102
RTVSPropertyOp22
 70
     1
102
RTVSPropertyOp23
 70
     1
102
RTVSPropertyOp24
 70
     1
102
RTVSPropertyOp25
 70
     1
102
RTVSPropertyOp26
 70
     1
102
RTVSPropertyOp27
 70
     1
102
RTVSPropertyOp28
 70
     1
102
RTVSPropertyOp29
 70
     1
102
RTVSPropertyOp30
 70
     1
102
RTVSPropertyOp31
 70
     1
102
RTVSPropertyOp32
 70
     1
  0
XRECORD
  5
20E5
102
{ACAD_REACTORS
330
20E4
102
}
330
20E4
100
AcDbXrecord
280
     1
102
RTVSPropertyOp0
 70
     1
102
RTVSPropertyOp1
 70
     1
102
RTVSPropertyOp2
 70
     1
102
RTVSPropertyOp3
 70
     1
102
RTVSPropertyOp4
 70
     1
102
RTVSPropertyOp5
 70
     1
102
RTVSPropertyOp6
 70
     1
102
RTVSPropertyOp7
 70
     1
102
RTVSPropertyOp8
 70
     1
102
RTVSPropertyOp9
 70
     1
102
RTVSPropertyOp10
 70
     1
102
RTVSPropertyOp11
 70
     1
102
RTVSPropertyOp12
 70
     1
102
RTVSPropertyOp13
 70
     1
102
RTVSPropertyOp14
 70
     1
102
RTVSPropertyOp15
 70
     1
102
RTVSPropertyOp16
 70
     1
102
RTVSPropertyOp17
 70
     1
102
RTVSPropertyOp18
 70
     1
102
RTVSPropertyOp19
 70
     1
102
RTVSPropertyOp20
 70
     1
102
RTVSPropertyOp21
 70
     1
102
RTVSPropertyOp22
 70
     1
102
RTVSPropertyOp23
 70
     1
102
RTVSPropertyOp24
 70
     1
102
RTVSPropertyOp25
 70
     1
102
RTVSPropertyOp26
 70
     1
102
RTVSPropertyOp27
 70
     1
102
RTVSPropertyOp28
 70
     1
102
RTVSPropertyOp29
 70
     1
102
RTVSPropertyOp30
 70
     1
102
RTVSPropertyOp31
 70
     1
102
RTVSPropertyOp32
 70
     1
  0
XRECORD
  5
20E7
102
{ACAD_REACTORS
330
20E6
102
}
330
20E6
100
AcDbXrecord
280
     1
102
RTVSPropertyOp0
 70
     1
102
RTVSPropertyOp1
 70
     1
102
RTVSPropertyOp2
 70
     1
102
RTVSPropertyOp3
 70
     1
102
RTVSPropertyOp4
 70
     1
102
RTVSPropertyOp5
 70
     1
102
RTVSPropertyOp6
 70
     1
102
RTVSPropertyOp7
 70
     1
102
RTVSPropertyOp8
 70
     1
102
RTVSPropertyOp9
 70
     1
102
RTVSPropertyOp10
 70
     1
102
RTVSPropertyOp11
 70
     1
102
RTVSPropertyOp12
 70
     1
102
RTVSPropertyOp13
 70
     1
102
RTVSPropertyOp14
 70
     1
102
RTVSPropertyOp15
 70
     1
102
RTVSPropertyOp16
 70
     1
102
RTVSPropertyOp17
 70
     1
102
RTVSPropertyOp18
 70
     1
102
RTVSPropertyOp19
 70
     1
102
RTVSPropertyOp20
 70
     1
102
RTVSPropertyOp21
 70
     1
102
RTVSPropertyOp22
 70
     1
102
RTVSPropertyOp23
 70
     1
102
RTVSPropertyOp24
 70
     1
102
RTVSPropertyOp25
 70
     1
102
RTVSPropertyOp26
 70
     1
102
RTVSPropertyOp27
 70
     1
102
RTVSPropertyOp28
 70
     1
102
RTVSPropertyOp29
 70
     1
102
RTVSPropertyOp30
 70
     1
102
RTVSPropertyOp31
 70
     1
102
RTVSPropertyOp32
 70
     1
  0
XRECORD
  5
20EF
102
{ACAD_REACTORS
330
20EE
102
}
330
20EE
100
AcDbXrecord
280
     1
102
RTVSPropertyOp0
 70
     1
102
RTVSPropertyOp1
 70
     1
102
RTVSPropertyOp2
 70
     1
102
RTVSPropertyOp3
 70
     1
102
RTVSPropertyOp4
 70
     1
102
RTVSPropertyOp5
 70
     1
102
RTVSPropertyOp6
 70
     1
102
RTVSPropertyOp7
 70
     1
102
RTVSPropertyOp8
 70
     1
102
RTVSPropertyOp9
 70
     1
102
RTVSPropertyOp10
 70
     1
102
RTVSPropertyOp11
 70
     1
102
RTVSPropertyOp12
 70
     1
102
RTVSPropertyOp13
 70
     1
102
RTVSPropertyOp14
 70
     1
102
RTVSPropertyOp15
 70
     1
102
RTVSPropertyOp16
 70
     1
102
RTVSPropertyOp17
 70
     1
102
RTVSPropertyOp18
 70
     1
102
RTVSPropertyOp19
 70
     1
102
RTVSPropertyOp20
 70
     1
102
RTVSPropertyOp21
 70
     1
102
RTVSPropertyOp22
 70
     1
102
RTVSPropertyOp23
 70
     1
102
RTVSPropertyOp24
 70
     1
102
RTVSPropertyOp25
 70
     1
102
RTVSPropertyOp26
 70
     1
102
RTVSPropertyOp27
 70
     1
102
RTVSPropertyOp28
 70
     1
102
RTVSPropertyOp29
 70
     1
102
RTVSPropertyOp30
 70
     1
102
RTVSPropertyOp31
 70
     1
102
RTVSPropertyOp32
 70
     1
  0
XRECORD
  5
210B
102
{ACAD_REACTORS
330
210A
102
}
330
210A
100
AcDbXrecord
280
     1
102
RTVSPropertyOp0
 70
     0
102
RTVSPropertyOp1
 70
     0
102
RTVSPropertyOp2
 70
     0
102
RTVSPropertyOp3
 70
     0
102
RTVSPropertyOp4
 70
     0
102
RTVSPropertyOp5
 70
     0
102
RTVSPropertyOp6
 70
     0
102
RTVSPropertyOp7
 70
     0
102
RTVSPropertyOp8
 70
     0
102
RTVSPropertyOp9
 70
     0
102
RTVSPropertyOp10
 70
     0
102
RTVSPropertyOp11
 70
     0
102
RTVSPropertyOp12
 70
     0
102
RTVSPropertyOp13
 70
     0
102
RTVSPropertyOp14
 70
     2
102
RTVSPropertyOp15
 70
     0
102
RTVSPropertyOp16
 70
     0
102
RTVSPropertyOp17
 70
     0
102
RTVSPropertyOp18
 70
     0
102
RTVSPropertyOp19
 70
     0
102
RTVSPropertyOp20
 70
     0
102
RTVSPropertyOp21
 70
     0
102
RTVSPropertyOp22
 70
     0
102
RTVSPropertyOp23
 70
     0
102
RTVSPropertyOp24
 70
     0
102
RTVSPropertyOp25
 70
     0
102
RTVSPropertyOp26
 70
     0
102
RTVSPropertyOp27
 70
     0
102
RTVSPropertyOp28
 70
     1
102
RTVSPropertyOp29
 70
     1
102
RTVSPropertyOp30
 70
     1
102
RTVSPropertyOp31
 70
     1
102
RTVSPropertyOp32
 70
     1
  0
XRECORD
  5
20FB
102
{ACAD_REACTORS
330
20FA
102
}
330
20FA
100
AcDbXrecord
280
     1
102
RTVSPropertyOp0
 70
     1
102
RTVSPropertyOp1
 70
     1
102
RTVSPropertyOp2
 70
     1
102
RTVSPropertyOp3
 70
     1
102
RTVSPropertyOp4
 70
     1
102
RTVSPropertyOp5
 70
     1
102
RTVSPropertyOp6
 70
     1
102
RTVSPropertyOp7
 70
     1
102
RTVSPropertyOp8
 70
     1
102
RTVSPropertyOp9
 70
     1
102
RTVSPropertyOp10
 70
     1
102
RTVSPropertyOp11
 70
     1
102
RTVSPropertyOp12
 70
     1
102
RTVSPropertyOp13
 70
     1
102
RTVSPropertyOp14
 70
     1
102
RTVSPropertyOp15
 70
     1
102
RTVSPropertyOp16
 70
     1
102
RTVSPropertyOp17
 70
     1
102
RTVSPropertyOp18
 70
     1
102
RTVSPropertyOp19
 70
     1
102
RTVSPropertyOp20
 70
     1
102
RTVSPropertyOp21
 70
     1
102
RTVSPropertyOp22
 70
     1
102
RTVSPropertyOp23
 70
     1
102
RTVSPropertyOp24
 70
     1
102
RTVSPropertyOp25
 70
     1
102
RTVSPropertyOp26
 70
     1
102
RTVSPropertyOp27
 70
     1
102
RTVSPropertyOp28
 70
     1
102
RTVSPropertyOp29
 70
     1
102
RTVSPropertyOp30
 70
     1
102
RTVSPropertyOp31
 70
     1
102
RTVSPropertyOp32
 70
     1
  0
XRECORD
  5
210D
102
{ACAD_REACTORS
330
210C
102
}
330
210C
100
AcDbXrecord
280
     1
102
RTVSPropertyOp0
 70
     0
102
RTVSPropertyOp1
 70
     0
102
RTVSPropertyOp2
 70
     0
102
RTVSPropertyOp3
 70
     0
102
RTVSPropertyOp4
 70
     0
102
RTVSPropertyOp5
 70
     0
102
RTVSPropertyOp6
 70
     0
102
RTVSPropertyOp7
 70
     0
102
RTVSPropertyOp8
 70
     0
102
RTVSPropertyOp9
 70
     0
102
RTVSPropertyOp10
 70
     0
102
RTVSPropertyOp11
 70
     0
102
RTVSPropertyOp12
 70
     0
102
RTVSPropertyOp13
 70
     0
102
RTVSPropertyOp14
 70
     2
102
RTVSPropertyOp15
 70
     0
102
RTVSPropertyOp16
 70
     0
102
RTVSPropertyOp17
 70
     0
102
RTVSPropertyOp18
 70
     0
102
RTVSPropertyOp19
 70
     0
102
RTVSPropertyOp20
 70
     0
102
RTVSPropertyOp21
 70
     0
102
RTVSPropertyOp22
 70
     0
102
RTVSPropertyOp23
 70
     0
102
RTVSPropertyOp24
 70
     0
102
RTVSPropertyOp25
 70
     0
102
RTVSPropertyOp26
 70
     0
102
RTVSPropertyOp27
 70
     0
102
RTVSPropertyOp28
 70
     1
102
RTVSPropertyOp29
 70
     1
102
RTVSPropertyOp30
 70
     1
102
RTVSPropertyOp31
 70
     1
102
RTVSPropertyOp32
 70
     1
  0
XRECORD
  5
20F3
102
{ACAD_REACTORS
330
20F2
102
}
330
20F2
100
AcDbXrecord
280
     1
102
RTVSPropertyOp0
 70
     1
102
RTVSPropertyOp1
 70
     1
102
RTVSPropertyOp2
 70
     1
102
RTVSPropertyOp3
 70
     1
102
RTVSPropertyOp4
 70
     1
102
RTVSPropertyOp5
 70
     1
102
RTVSPropertyOp6
 70
     1
102
RTVSPropertyOp7
 70
     1
102
RTVSPropertyOp8
 70
     1
102
RTVSPropertyOp9
 70
     1
102
RTVSPropertyOp10
 70
     1
102
RTVSPropertyOp11
 70
     1
102
RTVSPropertyOp12
 70
     1
102
RTVSPropertyOp13
 70
     1
102
RTVSPropertyOp14
 70
     1
102
RTVSPropertyOp15
 70
     1
102
RTVSPropertyOp16
 70
     1
102
RTVSPropertyOp17
 70
     1
102
RTVSPropertyOp18
 70
     1
102
RTVSPropertyOp19
 70
     1
102
RTVSPropertyOp20
 70
     1
102
RTVSPropertyOp21
 70
     1
102
RTVSPropertyOp22
 70
     1
102
RTVSPropertyOp23
 70
     1
102
RTVSPropertyOp24
 70
     1
102
RTVSPropertyOp25
 70
     1
102
RTVSPropertyOp26
 70
     1
102
RTVSPropertyOp27
 70
     1
102
RTVSPropertyOp28
 70
     1
102
RTVSPropertyOp29
 70
     1
102
RTVSPropertyOp30
 70
     1
102
RTVSPropertyOp31
 70
     1
102
RTVSPropertyOp32
 70
     1
  0
XRECORD
  5
2109
102
{ACAD_REACTORS
330
2108
102
}
330
2108
100
AcDbXrecord
280
     1
102
RTVSPropertyOp0
 70
     1
102
RTVSPropertyOp1
 70
     1
102
RTVSPropertyOp2
 70
     1
102
RTVSPropertyOp3
 70
     1
102
RTVSPropertyOp4
 70
     1
102
RTVSPropertyOp5
 70
     1
102
RTVSPropertyOp6
 70
     1
102
RTVSPropertyOp7
 70
     1
102
RTVSPropertyOp8
 70
     1
102
RTVSPropertyOp9
 70
     1
102
RTVSPropertyOp10
 70
     1
102
RTVSPropertyOp11
 70
     1
102
RTVSPropertyOp12
 70
     1
102
RTVSPropertyOp13
 70
     1
102
RTVSPropertyOp14
 70
     1
102
RTVSPropertyOp15
 70
     1
102
RTVSPropertyOp16
 70
     1
102
RTVSPropertyOp17
 70
     1
102
RTVSPropertyOp18
 70
     1
102
RTVSPropertyOp19
 70
     1
102
RTVSPropertyOp20
 70
     1
102
RTVSPropertyOp21
 70
     1
102
RTVSPropertyOp22
 70
     1
102
RTVSPropertyOp23
 70
     1
102
RTVSPropertyOp24
 70
     1
102
RTVSPropertyOp25
 70
     1
102
RTVSPropertyOp26
 70
     1
102
RTVSPropertyOp27
 70
     1
102
RTVSPropertyOp28
 70
     1
102
RTVSPropertyOp29
 70
     1
102
RTVSPropertyOp30
 70
     1
102
RTVSPropertyOp31
 70
     1
102
RTVSPropertyOp32
 70
     1
  0
XRECORD
  5
2107
102
{ACAD_REACTORS
330
2106
102
}
330
2106
100
AcDbXrecord
280
     1
102
RTVSPropertyOp0
 70
     1
102
RTVSPropertyOp1
 70
     1
102
RTVSPropertyOp2
 70
     1
102
RTVSPropertyOp3
 70
     1
102
RTVSPropertyOp4
 70
     1
102
RTVSPropertyOp5
 70
     1
102
RTVSPropertyOp6
 70
     1
102
RTVSPropertyOp7
 70
     1
102
RTVSPropertyOp8
 70
     1
102
RTVSPropertyOp9
 70
     1
102
RTVSPropertyOp10
 70
     1
102
RTVSPropertyOp11
 70
     1
102
RTVSPropertyOp12
 70
     1
102
RTVSPropertyOp13
 70
     1
102
RTVSPropertyOp14
 70
     1
102
RTVSPropertyOp15
 70
     1
102
RTVSPropertyOp16
 70
     1
102
RTVSPropertyOp17
 70
     1
102
RTVSPropertyOp18
 70
     1
102
RTVSPropertyOp19
 70
     1
102
RTVSPropertyOp20
 70
     1
102
RTVSPropertyOp21
 70
     1
102
RTVSPropertyOp22
 70
     1
102
RTVSPropertyOp23
 70
     1
102
RTVSPropertyOp24
 70
     1
102
RTVSPropertyOp25
 70
     1
102
RTVSPropertyOp26
 70
     1
102
RTVSPropertyOp27
 70
     1
102
RTVSPropertyOp28
 70
     1
102
RTVSPropertyOp29
 70
     1
102
RTVSPropertyOp30
 70
     1
102
RTVSPropertyOp31
 70
     1
102
RTVSPropertyOp32
 70
     1
  0
XRECORD
  5
2101
102
{ACAD_REACTORS
330
2100
102
}
330
2100
100
AcDbXrecord
280
     1
102
RTVSPropertyOp0
 70
     1
102
RTVSPropertyOp1
 70
     1
102
RTVSPropertyOp2
 70
     1
102
RTVSPropertyOp3
 70
     1
102
RTVSPropertyOp4
 70
     1
102
RTVSPropertyOp5
 70
     1
102
RTVSPropertyOp6
 70
     1
102
RTVSPropertyOp7
 70
     1
102
RTVSPropertyOp8
 70
     1
102
RTVSPropertyOp9
 70
     1
102
RTVSPropertyOp10
 70
     1
102
RTVSPropertyOp11
 70
     1
102
RTVSPropertyOp12
 70
     1
102
RTVSPropertyOp13
 70
     1
102
RTVSPropertyOp14
 70
     1
102
RTVSPropertyOp15
 70
     1
102
RTVSPropertyOp16
 70
     1
102
RTVSPropertyOp17
 70
     1
102
RTVSPropertyOp18
 70
     1
102
RTVSPropertyOp19
 70
     1
102
RTVSPropertyOp20
 70
     1
102
RTVSPropertyOp21
 70
     1
102
RTVSPropertyOp22
 70
     1
102
RTVSPropertyOp23
 70
     1
102
RTVSPropertyOp24
 70
     1
102
RTVSPropertyOp25
 70
     1
102
RTVSPropertyOp26
 70
     1
102
RTVSPropertyOp27
 70
     1
102
RTVSPropertyOp28
 70
     1
102
RTVSPropertyOp29
 70
     1
102
RTVSPropertyOp30
 70
     1
102
RTVSPropertyOp31
 70
     1
102
RTVSPropertyOp32
 70
     1
  0
XRECORD
  5
2103
102
{ACAD_REACTORS
330
2102
102
}
330
2102
100
AcDbXrecord
280
     1
102
RTVSPropertyOp0
 70
     1
102
RTVSPropertyOp1
 70
     1
102
RTVSPropertyOp2
 70
     1
102
RTVSPropertyOp3
 70
     1
102
RTVSPropertyOp4
 70
     1
102
RTVSPropertyOp5
 70
     1
102
RTVSPropertyOp6
 70
     1
102
RTVSPropertyOp7
 70
     1
102
RTVSPropertyOp8
 70
     1
102
RTVSPropertyOp9
 70
     1
102
RTVSPropertyOp10
 70
     1
102
RTVSPropertyOp11
 70
     1
102
RTVSPropertyOp12
 70
     1
102
RTVSPropertyOp13
 70
     1
102
RTVSPropertyOp14
 70
     1
102
RTVSPropertyOp15
 70
     1
102
RTVSPropertyOp16
 70
     1
102
RTVSPropertyOp17
 70
     1
102
RTVSPropertyOp18
 70
     1
102
RTVSPropertyOp19
 70
     1
102
RTVSPropertyOp20
 70
     1
102
RTVSPropertyOp21
 70
     1
102
RTVSPropertyOp22
 70
     1
102
RTVSPropertyOp23
 70
     1
102
RTVSPropertyOp24
 70
     1
102
RTVSPropertyOp25
 70
     1
102
RTVSPropertyOp26
 70
     1
102
RTVSPropertyOp27
 70
     1
102
RTVSPropertyOp28
 70
     1
102
RTVSPropertyOp29
 70
     1
102
RTVSPropertyOp30
 70
     1
102
RTVSPropertyOp31
 70
     1
102
RTVSPropertyOp32
 70
     1
  0
XRECORD
  5
20F9
102
{ACAD_REACTORS
330
20F8
102
}
330
20F8
100
AcDbXrecord
280
     1
102
RTVSPropertyOp0
 70
     1
102
RTVSPropertyOp1
 70
     1
102
RTVSPropertyOp2
 70
     1
102
RTVSPropertyOp3
 70
     1
102
RTVSPropertyOp4
 70
     1
102
RTVSPropertyOp5
 70
     1
102
RTVSPropertyOp6
 70
     1
102
RTVSPropertyOp7
 70
     1
102
RTVSPropertyOp8
 70
     1
102
RTVSPropertyOp9
 70
     1
102
RTVSPropertyOp10
 70
     1
102
RTVSPropertyOp11
 70
     1
102
RTVSPropertyOp12
 70
     1
102
RTVSPropertyOp13
 70
     1
102
RTVSPropertyOp14
 70
     1
102
RTVSPropertyOp15
 70
     1
102
RTVSPropertyOp16
 70
     1
102
RTVSPropertyOp17
 70
     1
102
RTVSPropertyOp18
 70
     1
102
RTVSPropertyOp19
 70
     1
102
RTVSPropertyOp20
 70
     1
102
RTVSPropertyOp21
 70
     1
102
RTVSPropertyOp22
 70
     1
102
RTVSPropertyOp23
 70
     1
102
RTVSPropertyOp24
 70
     1
102
RTVSPropertyOp25
 70
     1
102
RTVSPropertyOp26
 70
     1
102
RTVSPropertyOp27
 70
     1
102
RTVSPropertyOp28
 70
     1
102
RTVSPropertyOp29
 70
     1
102
RTVSPropertyOp30
 70
     1
102
RTVSPropertyOp31
 70
     1
102
RTVSPropertyOp32
 70
     1
  0
XRECORD
  5
20ED
102
{ACAD_REACTORS
330
20EC
102
}
330
20EC
100
AcDbXrecord
280
     1
102
RTVSPropertyOp0
 70
     1
102
RTVSPropertyOp1
 70
     1
102
RTVSPropertyOp2
 70
     1
102
RTVSPropertyOp3
 70
     1
102
RTVSPropertyOp4
 70
     1
102
RTVSPropertyOp5
 70
     1
102
RTVSPropertyOp6
 70
     1
102
RTVSPropertyOp7
 70
     1
102
RTVSPropertyOp8
 70
     1
102
RTVSPropertyOp9
 70
     1
102
RTVSPropertyOp10
 70
     1
102
RTVSPropertyOp11
 70
     1
102
RTVSPropertyOp12
 70
     1
102
RTVSPropertyOp13
 70
     1
102
RTVSPropertyOp14
 70
     1
102
RTVSPropertyOp15
 70
     1
102
RTVSPropertyOp16
 70
     1
102
RTVSPropertyOp17
 70
     1
102
RTVSPropertyOp18
 70
     1
102
RTVSPropertyOp19
 70
     1
102
RTVSPropertyOp20
 70
     1
102
RTVSPropertyOp21
 70
     1
102
RTVSPropertyOp22
 70
     1
102
RTVSPropertyOp23
 70
     1
102
RTVSPropertyOp24
 70
     1
102
RTVSPropertyOp25
 70
     1
102
RTVSPropertyOp26
 70
     1
102
RTVSPropertyOp27
 70
     1
102
RTVSPropertyOp28
 70
     1
102
RTVSPropertyOp29
 70
     1
102
RTVSPropertyOp30
 70
     1
102
RTVSPropertyOp31
 70
     1
102
RTVSPropertyOp32
 70
     1
  0
XRECORD
  5
2105
102
{ACAD_REACTORS
330
2104
102
}
330
2104
100
AcDbXrecord
280
     1
102
RTVSPropertyOp0
 70
     1
102
RTVSPropertyOp1
 70
     1
102
RTVSPropertyOp2
 70
     1
102
RTVSPropertyOp3
 70
     1
102
RTVSPropertyOp4
 70
     1
102
RTVSPropertyOp5
 70
     1
102
RTVSPropertyOp6
 70
     1
102
RTVSPropertyOp7
 70
     1
102
RTVSPropertyOp8
 70
     1
102
RTVSPropertyOp9
 70
     1
102
RTVSPropertyOp10
 70
     1
102
RTVSPropertyOp11
 70
     1
102
RTVSPropertyOp12
 70
     1
102
RTVSPropertyOp13
 70
     1
102
RTVSPropertyOp14
 70
     1
102
RTVSPropertyOp15
 70
     1
102
RTVSPropertyOp16
 70
     1
102
RTVSPropertyOp17
 70
     1
102
RTVSPropertyOp18
 70
     1
102
RTVSPropertyOp19
 70
     1
102
RTVSPropertyOp20
 70
     1
102
RTVSPropertyOp21
 70
     1
102
RTVSPropertyOp22
 70
     1
102
RTVSPropertyOp23
 70
     1
102
RTVSPropertyOp24
 70
     1
102
RTVSPropertyOp25
 70
     1
102
RTVSPropertyOp26
 70
     1
102
RTVSPropertyOp27
 70
     1
102
RTVSPropertyOp28
 70
     1
102
RTVSPropertyOp29
 70
     1
102
RTVSPropertyOp30
 70
     1
102
RTVSPropertyOp31
 70
     1
102
RTVSPropertyOp32
 70
     1
  0
ENDSEC
  0
EOF
