  0
SECTION
  2
HEADER
  9
$ACADVER
  1
AC1032
  9
$ACADMAINTVER
 90
        5
  9
$DWGCODEPAGE
  3
ANSI_1252
  9
$AUTHOR
  1
Lambert
  9
$REVISIONNUMBER
  1
-
  9
$CUSTOMPROPERTYTAG
  1
Manager
  9
$CUSTOMPROPERTY
  1

  9
$CUSTOMPROPERTYTAG
  1
Firma
  9
$CUSTOMPROPERTY
  1

  9
$CUSTOMPROPERTYTAG
  1
Kategorie
  9
$CUSTOMPROPERTY
  1

  9
$CUSTOMPROPERTYTAG
  1
Bauteilnummer
  9
$CUSTOMPROPERTY
  1
60031997
  9
$CUSTOMPROPERTYTAG
  1
Beschreibung
  9
$CUSTOMPROPERTY
  1
MUD 82-1200 F100
  9
$CUSTOMPROPERTYTAG
  1
Projekt
  9
$CUSTOMPROPERTY
  1
MUD 82-1200 F100
  9
$CUSTOMPROPERTYTAG
  1
Konstrukteur
  9
$CUSTOMPROPERTY
  1
Lambert
  9
$CUSTOMPROPERTYTAG
  1
Ingenieur
  9
$CUSTOMPROPERTY
  1

  9
$CUSTOMPROPERTYTAG
  1
Bevollmächtigter
  9
$CUSTOMPROPERTY
  1

  9
$CUSTOMPROPERTYTAG
  1
Kostenstelle
  9
$CUSTOMPROPERTY
  1

  9
$CUSTOMPROPERTYTAG
  1
Kosten
  9
$CUSTOMPROPERTY
  1

  9
$CUSTOMPROPERTYTAG
  1
Zulieferer
  9
$CUSTOMPROPERTY
  1

  9
$CUSTOMPROPERTYTAG
  1
Benutzerstatus
  9
$CUSTOMPROPERTY
  1

  9
$CUSTOMPROPERTYTAG
  1
Konstruktionsstatus
  9
$CUSTOMPROPERTY
  1
InBearbeitung
  9
$CUSTOMPROPERTYTAG
  1
Kontrolliert von
  9
$CUSTOMPROPERTY
  1
Basyouni
  9
$CUSTOMPROPERTYTAG
  1
Datum Überprüfung
  9
$CUSTOMPROPERTY
  1
10/04/2018
  9
$CUSTOMPROPERTYTAG
  1
Konstruktion genehmigt von
  9
$CUSTOMPROPERTY
  1

  9
$CUSTOMPROPERTYTAG
  1
Fertigung genehmigt von
  9
$CUSTOMPROPERTY
  1

  9
$CUSTOMPROPERTYTAG
  1
Erstellungsdatum
  9
$CUSTOMPROPERTY
  1
10/04/2018
  9
$CUSTOMPROPERTYTAG
  1
Bestandsnummer
  9
$CUSTOMPROPERTY
  1
Motor
  9
$REQUIREDVERSIONS
160
                 0
  9
$INSBASE
 10
0.0
 20
0.0
 30
0.0
  9
$EXTMIN
 10
0.0
 20
0.0
 30
0.0
  9
$EXTMAX
 10
420.0
 20
297.0
 30
0.0
  9
$LIMMIN
 10
0.0
 20
0.0
  9
$LIMMAX
 10
420.0
 20
297.0
  9
$ORTHOMODE
 70
     0
  9
$REGENMODE
 70
     1
  9
$FILLMODE
 70
     1
  9
$QTEXTMODE
 70
     0
  9
$MIRRTEXT
 70
     0
  9
$LTSCALE
 40
1.0
  9
$ATTMODE
 70
     1
  9
$TEXTSIZE
 40
0.2
  9
$TRACEWID
 40
0.05
  9
$TEXTSTYLE
  7
Standard
  9
$CLAYER
  8
0
  9
$CELTYPE
  6
ByLayer
  9
$CECOLOR
 62
   256
  9
$CELTSCALE
 40
1.0
  9
$DISPSILH
 70
     0
  9
$DIMSCALE
 40
1.0
  9
$DIMASZ
 40
0.18
  9
$DIMEXO
 40
0.0625
  9
$DIMDLI
 40
0.38
  9
$DIMRND
 40
0.0
  9
$DIMDLE
 40
0.0
  9
$DIMEXE
 40
0.18
  9
$DIMTP
 40
0.0
  9
$DIMTM
 40
0.0
  9
$DIMTXT
 40
0.18
  9
$DIMCEN
 40
0.09
  9
$DIMTSZ
 40
0.0
  9
$DIMTOL
 70
     0
  9
$DIMLIM
 70
     0
  9
$DIMTIH
 70
     1
  9
$DIMTOH
 70
     1
  9
$DIMSE1
 70
     0
  9
$DIMSE2
 70
     0
  9
$DIMTAD
 70
     0
  9
$DIMZIN
 70
     0
  9
$DIMBLK
  1

  9
$DIMASO
 70
     1
  9
$DIMSHO
 70
     1
  9
$DIMPOST
  1

  9
$DIMAPOST
  1

  9
$DIMALT
 70
     0
  9
$DIMALTD
 70
     2
  9
$DIMALTF
 40
25.4
  9
$DIMLFAC
 40
1.0
  9
$DIMTOFL
 70
     0
  9
$DIMTVP
 40
0.0
  9
$DIMTIX
 70
     0
  9
$DIMSOXD
 70
     0
  9
$DIMSAH
 70
     0
  9
$DIMBLK1
  1

  9
$DIMBLK2
  1

  9
$DIMSTYLE
  2
Standard
  9
$DIMCLRD
 70
     0
  9
$DIMCLRE
 70
     0
  9
$DIMCLRT
 70
     0
  9
$DIMTFAC
 40
1.0
  9
$DIMGAP
 40
0.09
  9
$DIMJUST
 70
     0
  9
$DIMSD1
 70
     0
  9
$DIMSD2
 70
     0
  9
$DIMTOLJ
 70
     1
  9
$DIMTZIN
 70
     0
  9
$DIMALTZ
 70
     0
  9
$DIMALTTZ
 70
     0
  9
$DIMUPT
 70
     0
  9
$DIMDEC
 70
     4
  9
$DIMTDEC
 70
     4
  9
$DIMALTU
 70
     2
  9
$DIMALTTD
 70
     2
  9
$DIMTXSTY
  7
Standard
  9
$DIMAUNIT
 70
     0
  9
$DIMADEC
 70
     0
  9
$DIMALTRND
 40
0.0
  9
$DIMAZIN
 70
     0
  9
$DIMDSEP
 70
    46
  9
$DIMATFIT
 70
     3
  9
$DIMFRAC
 70
     0
  9
$DIMLDRBLK
  1

  9
$DIMLUNIT
 70
     2
  9
$DIMLWD
 70
    -2
  9
$DIMLWE
 70
    -2
  9
$DIMTMOVE
 70
     0
  9
$DIMFXL
 40
1.0
  9
$DIMFXLON
 70
     0
  9
$DIMJOGANG
 40
0.7853981633974483
  9
$DIMTFILL
 70
     0
  9
$DIMTFILLCLR
 70
     0
  9
$DIMARCSYM
 70
     0
  9
$DIMLTYPE
  6

  9
$DIMLTEX1
  6

  9
$DIMLTEX2
  6

  9
$DIMTXTDIRECTION
 70
     0
  9
$LUNITS
 70
     2
  9
$LUPREC
 70
     4
  9
$SKETCHINC
 40
0.1
  9
$FILLETRAD
 40
0.0
  9
$AUNITS
 70
     0
  9
$AUPREC
 70
     0
  9
$MENU
  1
.
  9
$ELEVATION
 40
0.0
  9
$PELEVATION
 40
0.0
  9
$THICKNESS
 40
0.0
  9
$LIMCHECK
 70
     0
  9
$CHAMFERA
 40
0.0
  9
$CHAMFERB
 40
0.0
  9
$CHAMFERC
 40
0.0
  9
$CHAMFERD
 40
0.0
  9
$SKPOLY
 70
     0
  9
$TDCREATE
 40
2458396.630347222
  9
$TDUCREATE
 40
2458396.547013889
  9
$TDUPDATE
 40
2458396.630347222
  9
$TDUUPDATE
 40
2458396.547013889
  9
$TDINDWG
 40
0.0000231481
  9
$TDUSRTIMER
 40
0.0000231481
  9
$USRTIMER
 70
     1
  9
$ANGBASE
 50
0.0
  9
$ANGDIR
 70
     0
  9
$PDMODE
 70
     0
  9
$PDSIZE
 40
0.0
  9
$PLINEWID
 40
0.0
  9
$SPLFRAME
 70
     0
  9
$SPLINETYPE
 70
     6
  9
$SPLINESEGS
 70
     8
  9
$HANDSEED
  5
354
  9
$SURFTAB1
 70
     6
  9
$SURFTAB2
 70
     6
  9
$SURFTYPE
 70
     6
  9
$SURFU
 70
     6
  9
$SURFV
 70
     6
  9
$UCSBASE
  2

  9
$UCSNAME
  2

  9
$UCSORG
 10
0.0
 20
0.0
 30
0.0
  9
$UCSXDIR
 10
1.0
 20
0.0
 30
0.0
  9
$UCSYDIR
 10
0.0
 20
1.0
 30
0.0
  9
$UCSORTHOREF
  2

  9
$UCSORTHOVIEW
 70
     0
  9
$UCSORGTOP
 10
0.0
 20
0.0
 30
0.0
  9
$UCSORGBOTTOM
 10
0.0
 20
0.0
 30
0.0
  9
$UCSORGLEFT
 10
0.0
 20
0.0
 30
0.0
  9
$UCSORGRIGHT
 10
0.0
 20
0.0
 30
0.0
  9
$UCSORGFRONT
 10
0.0
 20
0.0
 30
0.0
  9
$UCSORGBACK
 10
0.0
 20
0.0
 30
0.0
  9
$PUCSBASE
  2

  9
$PUCSNAME
  2

  9
$PUCSORG
 10
0.0
 20
0.0
 30
0.0
  9
$PUCSXDIR
 10
1.0
 20
0.0
 30
0.0
  9
$PUCSYDIR
 10
0.0
 20
1.0
 30
0.0
  9
$PUCSORTHOREF
  2

  9
$PUCSORTHOVIEW
 70
     0
  9
$PUCSORGTOP
 10
0.0
 20
0.0
 30
0.0
  9
$PUCSORGBOTTOM
 10
0.0
 20
0.0
 30
0.0
  9
$PUCSORGLEFT
 10
0.0
 20
0.0
 30
0.0
  9
$PUCSORGRIGHT
 10
0.0
 20
0.0
 30
0.0
  9
$PUCSORGFRONT
 10
0.0
 20
0.0
 30
0.0
  9
$PUCSORGBACK
 10
0.0
 20
0.0
 30
0.0
  9
$USERI1
 70
     0
  9
$USERI2
 70
     0
  9
$USERI3
 70
     0
  9
$USERI4
 70
     0
  9
$USERI5
 70
     0
  9
$USERR1
 40
0.0
  9
$USERR2
 40
0.0
  9
$USERR3
 40
0.0
  9
$USERR4
 40
0.0
  9
$USERR5
 40
0.0
  9
$WORLDVIEW
 70
     1
  9
$SHADEDGE
 70
     3
  9
$SHADEDIF
 70
    70
  9
$TILEMODE
 70
     1
  9
$MAXACTVP
 70
    64
  9
$PINSBASE
 10
0.0
 20
0.0
 30
0.0
  9
$PLIMCHECK
 70
     0
  9
$PEXTMIN
 10
0.0
 20
0.0
 30
0.0
  9
$PEXTMAX
 10
420.0
 20
297.0
 30
0.0
  9
$PLIMMIN
 10
0.0
 20
0.0
  9
$PLIMMAX
 10
420.0
 20
297.0
  9
$UNITMODE
 70
     0
  9
$VISRETAIN
 70
     1
  9
$PLINEGEN
 70
     0
  9
$PSLTSCALE
 70
     1
  9
$TREEDEPTH
 70
  3020
  9
$CMLSTYLE
  2
Standard
  9
$CMLJUST
 70
     0
  9
$CMLSCALE
 40
1.0
  9
$PROXYGRAPHICS
 70
     1
  9
$MEASUREMENT
 70
     1
  9
$CELWEIGHT
370
    -1
  9
$ENDCAPS
280
     0
  9
$JOINSTYLE
280
     0
  9
$LWDISPLAY
290
     0
  9
$INSUNITS
 70
     4
  9
$HYPERLINKBASE
  1

  9
$STYLESHEET
  1

  9
$XEDIT
290
     1
  9
$CEPSNTYPE
380
     0
  9
$PSTYLEMODE
290
     1
  9
$FINGERPRINTGUID
  2
{C35C3CB0-0519-3046-9C48-358AA1609894}
  9
$VERSIONGUID
  2
{BABE8852-5641-0641-9036-68263B747B53}
  9
$EXTNAMES
290
     1
  9
$PSVPSCALE
 40
0.0
  9
$OLESTARTUP
290
     0
  9
$SORTENTS
280
   127
  9
$INDEXCTL
280
     0
  9
$HIDETEXT
280
     1
  9
$XCLIPFRAME
280
     2
  9
$HALOGAP
280
     0
  9
$OBSCOLOR
 70
   257
  9
$OBSLTYPE
280
     0
  9
$INTERSECTIONDISPLAY
280
     0
  9
$INTERSECTIONCOLOR
 70
   257
  9
$DIMASSOC
280
     1
  9
$PROJECTNAME
  1

  9
$CAMERADISPLAY
290
     0
  9
$LENSLENGTH
 40
50.0
  9
$CAMERAHEIGHT
 40
0.0
  9
$STEPSPERSEC
 40
2.0
  9
$STEPSIZE
 40
6.0
  9
$3DDWFPREC
 40
2.0
  9
$PSOLWIDTH
 40
0.25
  9
$PSOLHEIGHT
 40
4.0
  9
$LOFTANG1
 40
1.570796326794896
  9
$LOFTANG2
 40
1.570796326794896
  9
$LOFTMAG1
 40
0.0
  9
$LOFTMAG2
 40
0.0
  9
$LOFTPARAM
 70
     7
  9
$LOFTNORMALS
280
     1
  9
$LATITUDE
 40
37.795
  9
$LONGITUDE
 40
-122.394
  9
$NORTHDIRECTION
 40
0.0
  9
$TIMEZONE
 70
 -8000
  9
$LIGHTGLYPHDISPLAY
280
     1
  9
$TILEMODELIGHTSYNCH
280
     1
  9
$CMATERIAL
347
11
  9
$SOLIDHIST
280
     0
  9
$SHOWHIST
280
     1
  9
$DWFFRAME
280
     2
  9
$DGNFRAME
280
     0
  9
$REALWORLDSCALE
290
     1
  9
$INTERFERECOLOR
 62
     1
  9
$INTERFEREOBJVS
345
33
  9
$INTERFEREVPVS
346
30
  9
$CSHADOW
280
     0
  9
$SHADOWPLANELOCATION
 40
0.0
  0
ENDSEC
  0
SECTION
  2
CLASSES
  0
CLASS
  1
ACDBDICTIONARYWDFLT
  2
AcDbDictionaryWithDefault
  3
ObjectDBX Classes
 90
        0
 91
        1
280
     0
281
     0
  0
CLASS
  1
MATERIAL
  2
AcDbMaterial
  3
ObjectDBX Classes
 90
     1153
 91
        3
280
     0
281
     0
  0
CLASS
  1
VISUALSTYLE
  2
AcDbVisualStyle
  3
ObjectDBX Classes
 90
     4095
 91
       24
280
     0
281
     0
  0
CLASS
  1
SCALE
  2
AcDbScale
  3
ObjectDBX Classes
 90
     1153
 91
       17
280
     0
281
     0
  0
CLASS
  1
TABLESTYLE
  2
AcDbTableStyle
  3
ObjectDBX Classes
 90
     4095
 91
        1
280
     0
281
     0
  0
CLASS
  1
MLEADERSTYLE
  2
AcDbMLeaderStyle
  3
ACDB_MLEADERSTYLE_CLASS
 90
     4095
 91
        1
280
     0
281
     0
  0
CLASS
  1
ACDBSECTIONVIEWSTYLE
  2
AcDbSectionViewStyle
  3
ObjectDBX Classes
 90
     1025
 91
        1
280
     0
281
     0
  0
CLASS
  1
ACDBDETAILVIEWSTYLE
  2
AcDbDetailViewStyle
  3
ObjectDBX Classes
 90
     1025
 91
        1
280
     0
281
     0
  0
CLASS
  1
DICTIONARYVAR
  2
AcDbDictionaryVar
  3
ObjectDBX Classes
 90
        0
 91
        5
280
     0
281
     0
  0
CLASS
  1
CELLSTYLEMAP
  2
AcDbCellStyleMap
  3
ObjectDBX Classes
 90
     1152
 91
        1
280
     0
281
     0
  0
ENDSEC
  0
SECTION
  2
TABLES
  0
TABLE
  2
VPORT
  5
8
330
0
100
AcDbSymbolTable
 70
     1
  0
VPORT
  5
57
330
8
100
AcDbSymbolTableRecord
100
AcDbViewportTableRecord
  2
*Active
 70
     0
 10
0.0
 20
0.0
 11
1.0
 21
1.0
 12
210.0
 22
148.5
 13
0.0
 23
0.0
 14
1.0
 24
1.0
 15
0.0
 25
0.0
 16
0.0
 26
0.0
 36
1.0
 17
0.0
 27
0.0
 37
0.0
 40
297.0
 41
1.414141414141414
 42
50.0
 43
0.0
 44
0.0
 50
0.0
 51
0.0
 71
     0
 72
   100
 73
     1
 74
     1
 75
     0
 76
     0
 77
     0
 78
     0
281
     0
 65
     1
110
0.0
120
0.0
130
0.0
111
1.0
121
0.0
131
0.0
112
0.0
122
1.0
132
0.0
 79
     0
146
0.0
 60
     3
 61
     5
292
     1
282
     1
141
0.0
142
0.0
 63
   250
421
  3355443
  0
ENDTAB
  0
TABLE
  2
LTYPE
  5
5
330
0
100
AcDbSymbolTable
 70
    59
  0
LTYPE
  5
5B
330
5
100
AcDbSymbolTableRecord
100
AcDbLinetypeTableRecord
  2
ByBlock
 70
     0
  3

 72
    65
 73
     0
 40
0.0
  0
LTYPE
  5
5C
330
5
100
AcDbSymbolTableRecord
100
AcDbLinetypeTableRecord
  2
ByLayer
 70
     0
  3

 72
    65
 73
     0
 40
0.0
  0
LTYPE
  5
5D
330
5
100
AcDbSymbolTableRecord
100
AcDbLinetypeTableRecord
  2
Continuous
 70
     0
  3
Solid line
 72
    65
 73
     0
 40
0.0
  0
LTYPE
  5
78
330
5
100
AcDbSymbolTableRecord
100
AcDbLinetypeTableRecord
  2
Section_View_Lines
 70
     0
  3
Section View Lines
 72
    65
 73
     4
 40
0.8406
 49
0.6614
 74
     0
 49
-0.0827
 74
     0
 49
0.0138
 74
     0
 49
-0.0827
 74
     0
  0
LTYPE
  5
79
330
5
100
AcDbSymbolTableRecord
100
AcDbLinetypeTableRecord
  2
CHAIN
 70
     0
  3
Chain ____ _ ____ _ ____ _ ____ _ ____ _ ____
 72
    65
 73
     4
 40
0.3543
 49
0.2362
 74
     0
 49
-0.0295
 74
     0
 49
0.0591
 74
     0
 49
-0.0295
 74
     0
  0
LTYPE
  5
7A
330
5
100
AcDbSymbolTableRecord
100
AcDbLinetypeTableRecord
  2
DASH_DOT
 70
     0
  3
Dash dot _._._._._._._._._._._._._._._.
 72
    65
 73
     4
 40
0.37
 49
0.24
 74
     0
 49
-0.06
 74
     0
 49
0.01
 74
     0
 49
-0.06
 74
     0
  0
LTYPE
  5
7B
330
5
100
AcDbSymbolTableRecord
100
AcDbLinetypeTableRecord
  2
DASH_DOUBLE_DOT
 70
     0
  3
Dash Double Dot __ __ . __ __ . __ __ . __ _
 72
    65
 73
     6
 40
0.4398
 49
0.24
 74
     0
 49
-0.06
 74
     0
 49
0.0098
 74
     0
 49
-0.06
 74
     0
 49
0.01
 74
     0
 49
-0.06
 74
     0
  0
LTYPE
  5
7C
330
5
100
AcDbSymbolTableRecord
100
AcDbLinetypeTableRecord
  2
DASH_TRIPLE_DOT
 70
     0
  3
Dash Triple-Dot _ . . . _ . . . _ . . . _
 72
    65
 73
     8
 40
0.51
 49
0.24
 74
     0
 49
-0.06
 74
     0
 49
0.01
 74
     0
 49
-0.06
 74
     0
 49
0.01
 74
     0
 49
-0.06
 74
     0
 49
0.01
 74
     0
 49
-0.06
 74
     0
  0
LTYPE
  5
7D
330
5
100
AcDbSymbolTableRecord
100
AcDbLinetypeTableRecord
  2
DASHED
 70
     0
  3
Dashed __ __ __ __ __ __ __ __ __ __ __ __ __ _
 72
    65
 73
     2
 40
0.2067
 49
0.1654
 74
     0
 49
-0.0413
 74
     0
  0
LTYPE
  5
7E
330
5
100
AcDbSymbolTableRecord
100
AcDbLinetypeTableRecord
  2
DASHED_SPACE
 70
     0
  3
Dashed Space _._._._._._._._._._._._._._._.
 72
    65
 73
     2
 40
0.2067
 49
0.1654
 74
     0
 49
-0.0413
 74
     0
  0
LTYPE
  5
7F
330
5
100
AcDbSymbolTableRecord
100
AcDbLinetypeTableRecord
  2
DOTTED
 70
     0
  3
Dotted . . . . . . . . . . . . . . . . . . . . 
 72
    65
 73
     2
 40
0.0482
 49
0.0069
 74
     0
 49
-0.0413
 74
     0
  0
LTYPE
  5
80
330
5
100
AcDbSymbolTableRecord
100
AcDbLinetypeTableRecord
  2
DOUBLE_DASH_CHAIN
 70
     0
  3
Double Dash Chain ___ _ _ ___ _ _ ___ _ _ ___ _
 72
    65
 73
     6
 40
1.240299999999999
 49
0.6614
 74
     0
 49
-0.0827
 74
     0
 49
0.1654
 74
     0
 49
-0.0827
 74
     0
 49
0.1654
 74
     0
 49
-0.0827
 74
     0
  0
LTYPE
  5
81
330
5
100
AcDbSymbolTableRecord
100
AcDbLinetypeTableRecord
  2
DOUBLE_DASH_DOT
 70
     0
  3
Double Dash Dot __ __ . __ __ . __ __ . __ _
 72
    65
 73
     6
 40
0.67
 49
0.24
 74
     0
 49
-0.06
 74
     0
 49
0.24
 74
     0
 49
-0.06
 74
     0
 49
0.01
 74
     0
 49
-0.06
 74
     0
  0
LTYPE
  5
82
330
5
100
AcDbSymbolTableRecord
100
AcDbLinetypeTableRecord
  2
DOUBLE_DASH_DOUBLE_DOT
 70
     0
  3
Double-dash double-dot _ _ . . _ _ . . _
 72
    65
 73
     8
 40
0.7400000000000001
 49
0.24
 74
     0
 49
-0.06
 74
     0
 49
0.24
 74
     0
 49
-0.06
 74
     0
 49
0.01
 74
     0
 49
-0.06
 74
     0
 49
0.01
 74
     0
 49
-0.06
 74
     0
  0
LTYPE
  5
83
330
5
100
AcDbSymbolTableRecord
100
AcDbLinetypeTableRecord
  2
DOUBLE_DASH_TRIPLE_DOT
 70
     0
  3
Double Dash Triple Dot __ __ . . . __ __ . . .
 72
    65
 73
    10
 40
0.8100000000000001
 49
0.24
 74
     0
 49
-0.06
 74
     0
 49
0.24
 74
     0
 49
-0.06
 74
     0
 49
0.01
 74
     0
 49
-0.06
 74
     0
 49
0.01
 74
     0
 49
-0.06
 74
     0
 49
0.01
 74
     0
 49
-0.06
 74
     0
  0
LTYPE
  5
84
330
5
100
AcDbSymbolTableRecord
100
AcDbLinetypeTableRecord
  2
LONG_DASH_DOTTED
 70
     0
  3
Long-Dash Dot ____ . ____ . ____ . ____ . _
 72
    65
 73
     4
 40
0.3001
 49
0.2362
 74
     0
 49
-0.0295
 74
     0
 49
0.0049
 74
     0
 49
-0.0295
 74
     0
  0
LTYPE
  5
85
330
5
100
AcDbSymbolTableRecord
100
AcDbLinetypeTableRecord
  2
LONG_DASH_DOUBLE_DOT
 70
     0
  3
Long Dash Double Dot ____ . . ____ . . ____ . .
 72
    65
 73
     6
 40
0.3345
 49
0.2362
 74
     0
 49
-0.0295
 74
     0
 49
0.0049
 74
     0
 49
-0.0295
 74
     0
 49
0.0049
 74
     0
 49
-0.0295
 74
     0
  0
LTYPE
  5
86
330
5
100
AcDbSymbolTableRecord
100
AcDbLinetypeTableRecord
  2
LONG_DASH_TRIPLE_DOT
 70
     0
  3
Long Dash Triple Dot ____ ... ____ ... ____
 72
    65
 73
     8
 40
0.75
 49
0.48
 74
     0
 49
-0.06
 74
     0
 49
0.01
 74
     0
 49
-0.06
 74
     0
 49
0.01
 74
     0
 49
-0.06
 74
     0
 49
0.01
 74
     0
 49
-0.06
 74
     0
  0
LTYPE
  5
87
330
5
100
AcDbSymbolTableRecord
100
AcDbLinetypeTableRecord
  2
BORDER
 70
     0
  3
Border __ __ . __ __ . __ __ . __ __ . __ __ .
 72
    65
 73
     6
 40
44.45
 49
12.7
 74
     0
 49
-6.349999999999999
 74
     0
 49
12.7
 74
     0
 49
-6.349999999999999
 74
     0
 49
0.0
 74
     0
 49
-6.349999999999999
 74
     0
  0
LTYPE
  5
88
330
5
100
AcDbSymbolTableRecord
100
AcDbLinetypeTableRecord
  2
BORDER2
 70
     0
  3
Border (.5x) __.__.__.__.__.__.__.__.__.__.__.
 72
    65
 73
     6
 40
22.225
 49
6.349999999999999
 74
     0
 49
-3.174999999999999
 74
     0
 49
6.349999999999999
 74
     0
 49
-3.174999999999999
 74
     0
 49
0.0
 74
     0
 49
-3.174999999999999
 74
     0
  0
LTYPE
  5
89
330
5
100
AcDbSymbolTableRecord
100
AcDbLinetypeTableRecord
  2
BORDERX2
 70
     0
  3
Border (2x) ____  ____  .  ____  ____  .  ___
 72
    65
 73
     6
 40
88.9
 49
25.4
 74
     0
 49
-12.7
 74
     0
 49
25.4
 74
     0
 49
-12.7
 74
     0
 49
0.0
 74
     0
 49
-12.7
 74
     0
  0
LTYPE
  5
8A
330
5
100
AcDbSymbolTableRecord
100
AcDbLinetypeTableRecord
  2
CENTER
 70
     0
  3
Center ____ _ ____ _ ____ _ ____ _ ____ _ ____
 72
    65
 73
     4
 40
50.8
 49
31.75
 74
     0
 49
-6.349999999999999
 74
     0
 49
6.349999999999999
 74
     0
 49
-6.349999999999999
 74
     0
  0
LTYPE
  5
8B
330
5
100
AcDbSymbolTableRecord
100
AcDbLinetypeTableRecord
  2
CENTER2
 70
     0
  3
Center (.5x) ___ _ ___ _ ___ _ ___ _ ___ _ ___
 72
    65
 73
     4
 40
28.575
 49
19.05
 74
     0
 49
-3.174999999999999
 74
     0
 49
3.174999999999999
 74
     0
 49
-3.174999999999999
 74
     0
  0
LTYPE
  5
8C
330
5
100
AcDbSymbolTableRecord
100
AcDbLinetypeTableRecord
  2
CENTERX2
 70
     0
  3
Center (2x) ________  __  ________  __  _____
 72
    65
 73
     4
 40
101.6
 49
63.5
 74
     0
 49
-12.7
 74
     0
 49
12.7
 74
     0
 49
-12.7
 74
     0
  0
LTYPE
  5
8D
330
5
100
AcDbSymbolTableRecord
100
AcDbLinetypeTableRecord
  2
DASHDOT2
 70
     0
  3
Dash dot (.5x) _._._._._._._._._._._._._._._.
 72
    65
 73
     4
 40
12.7
 49
6.349999999999999
 74
     0
 49
-3.174999999999999
 74
     0
 49
0.0
 74
     0
 49
-3.174999999999999
 74
     0
  0
LTYPE
  5
8E
330
5
100
AcDbSymbolTableRecord
100
AcDbLinetypeTableRecord
  2
DASHDOTX2
 70
     0
  3
Dash dot (2x) ____  .  ____  .  ____  .  ___
 72
    65
 73
     4
 40
50.8
 49
25.4
 74
     0
 49
-12.7
 74
     0
 49
0.0
 74
     0
 49
-12.7
 74
     0
  0
LTYPE
  5
8F
330
5
100
AcDbSymbolTableRecord
100
AcDbLinetypeTableRecord
  2
DASHED2
 70
     0
  3
Dashed (.5x) _ _ _ _ _ _ _ _ _ _ _ _ _ _ _ _ _
 72
    65
 73
     2
 40
9.524999999999998
 49
6.349999999999999
 74
     0
 49
-3.174999999999999
 74
     0
  0
LTYPE
  5
90
330
5
100
AcDbSymbolTableRecord
100
AcDbLinetypeTableRecord
  2
DASHEDX2
 70
     0
  3
Dashed (2x) ____  ____  ____  ____  ____  ___
 72
    65
 73
     2
 40
38.1
 49
25.4
 74
     0
 49
-12.7
 74
     0
  0
LTYPE
  5
91
330
5
100
AcDbSymbolTableRecord
100
AcDbLinetypeTableRecord
  2
DIVIDE
 70
     0
  3
Divide ____ . . ____ . . ____ . . ____ . . ____
 72
    65
 73
     6
 40
31.75
 49
12.7
 74
     0
 49
-6.349999999999999
 74
     0
 49
0.0
 74
     0
 49
-6.349999999999999
 74
     0
 49
0.0
 74
     0
 49
-6.349999999999999
 74
     0
  0
LTYPE
  5
92
330
5
100
AcDbSymbolTableRecord
100
AcDbLinetypeTableRecord
  2
DIVIDE2
 70
     0
  3
Divide (.5x) __..__..__..__..__..__..__..__.._
 72
    65
 73
     6
 40
15.875
 49
6.349999999999999
 74
     0
 49
-3.174999999999999
 74
     0
 49
0.0
 74
     0
 49
-3.174999999999999
 74
     0
 49
0.0
 74
     0
 49
-3.174999999999999
 74
     0
  0
LTYPE
  5
93
330
5
100
AcDbSymbolTableRecord
100
AcDbLinetypeTableRecord
  2
DIVIDEX2
 70
     0
  3
Divide (2x) ________  .  .  ________  .  .  _
 72
    65
 73
     6
 40
63.49999999999999
 49
25.4
 74
     0
 49
-12.7
 74
     0
 49
0.0
 74
     0
 49
-12.7
 74
     0
 49
0.0
 74
     0
 49
-12.7
 74
     0
  0
LTYPE
  5
94
330
5
100
AcDbSymbolTableRecord
100
AcDbLinetypeTableRecord
  2
DOT
 70
     0
  3
Dot . . . . . . . . . . . . . . . . . . . . . .
 72
    65
 73
     2
 40
6.349999999999999
 49
0.0
 74
     0
 49
-6.349999999999999
 74
     0
  0
LTYPE
  5
95
330
5
100
AcDbSymbolTableRecord
100
AcDbLinetypeTableRecord
  2
DOT2
 70
     0
  3
Dot (.5x) .....................................
 72
    65
 73
     2
 40
3.174999999999999
 49
0.0
 74
     0
 49
-3.174999999999999
 74
     0
  0
LTYPE
  5
96
330
5
100
AcDbSymbolTableRecord
100
AcDbLinetypeTableRecord
  2
DOTX2
 70
     0
  3
Dot (2x) .  .  .  .  .  .  .  .  .  .  .  .  . 
 72
    65
 73
     2
 40
12.7
 49
0.0
 74
     0
 49
-12.7
 74
     0
  0
LTYPE
  5
97
330
5
100
AcDbSymbolTableRecord
100
AcDbLinetypeTableRecord
  2
HIDDEN
 70
     0
  3
Hidden __ __ __ __ __ __ __ __ __ __ __ __ __ _
 72
    65
 73
     2
 40
9.524999999999998
 49
6.349999999999999
 74
     0
 49
-3.174999999999999
 74
     0
  0
LTYPE
  5
98
330
5
100
AcDbSymbolTableRecord
100
AcDbLinetypeTableRecord
  2
HIDDEN2
 70
     0
  3
Hidden (.5x) _ _ _ _ _ _ _ _ _ _ _ _ _ _ _ _ _
 72
    65
 73
     2
 40
4.762499999999999
 49
3.174999999999999
 74
     0
 49
-1.587499999999999
 74
     0
  0
LTYPE
  5
99
330
5
100
AcDbSymbolTableRecord
100
AcDbLinetypeTableRecord
  2
HIDDENX2
 70
     0
  3
Hidden (2x) ____ ____ ____ ____ ____ ____ ____
 72
    65
 73
     2
 40
19.05
 49
12.7
 74
     0
 49
-6.349999999999999
 74
     0
  0
LTYPE
  5
9A
330
5
100
AcDbSymbolTableRecord
100
AcDbLinetypeTableRecord
  2
PHANTOM
 70
     0
  3
Phantom ______  __  __  ______  __  __  ______
 72
    65
 73
     6
 40
63.5
 49
31.75
 74
     0
 49
-6.349999999999999
 74
     0
 49
6.349999999999999
 74
     0
 49
-6.349999999999999
 74
     0
 49
6.349999999999999
 74
     0
 49
-6.349999999999999
 74
     0
  0
LTYPE
  5
9B
330
5
100
AcDbSymbolTableRecord
100
AcDbLinetypeTableRecord
  2
PHANTOM2
 70
     0
  3
Phantom (.5x) ___ _ _ ___ _ _ ___ _ _ ___ _ _
 72
    65
 73
     6
 40
31.75
 49
15.875
 74
     0
 49
-3.174999999999999
 74
     0
 49
3.174999999999999
 74
     0
 49
-3.174999999999999
 74
     0
 49
3.174999999999999
 74
     0
 49
-3.174999999999999
 74
     0
  0
LTYPE
  5
9C
330
5
100
AcDbSymbolTableRecord
100
AcDbLinetypeTableRecord
  2
PHANTOMX2
 70
     0
  3
Phantom (2x) ____________    ____    ____   _
 72
    65
 73
     6
 40
127.0
 49
63.5
 74
     0
 49
-12.7
 74
     0
 49
12.7
 74
     0
 49
-12.7
 74
     0
 49
12.7
 74
     0
 49
-12.7
 74
     0
  0
LTYPE
  5
9D
330
5
100
AcDbSymbolTableRecord
100
AcDbLinetypeTableRecord
  2
ACAD_ISO02W100
 70
     0
  3
ISO dash __ __ __ __ __ __ __ __ __ __ __ __ __
 72
    65
 73
     2
 40
15.0
 49
12.0
 74
     0
 49
-3.0
 74
     0
  0
LTYPE
  5
9E
330
5
100
AcDbSymbolTableRecord
100
AcDbLinetypeTableRecord
  2
ACAD_ISO03W100
 70
     0
  3
ISO dash space __    __    __    __    __    __
 72
    65
 73
     2
 40
30.0
 49
12.0
 74
     0
 49
-18.0
 74
     0
  0
LTYPE
  5
9F
330
5
100
AcDbSymbolTableRecord
100
AcDbLinetypeTableRecord
  2
ACAD_ISO04W100
 70
     0
  3
ISO long-dash dot ____ . ____ . ____ . ____ . _
 72
    65
 73
     4
 40
30.0
 49
24.0
 74
     0
 49
-3.0
 74
     0
 49
0.0
 74
     0
 49
-3.0
 74
     0
  0
LTYPE
  5
A0
330
5
100
AcDbSymbolTableRecord
100
AcDbLinetypeTableRecord
  2
ACAD_ISO05W100
 70
     0
  3
ISO long-dash double-dot ____ .. ____ .. ____ .
 72
    65
 73
     6
 40
33.0
 49
24.0
 74
     0
 49
-3.0
 74
     0
 49
0.0
 74
     0
 49
-3.0
 74
     0
 49
0.0
 74
     0
 49
-3.0
 74
     0
  0
LTYPE
  5
A1
330
5
100
AcDbSymbolTableRecord
100
AcDbLinetypeTableRecord
  2
ACAD_ISO06W100
 70
     0
  3
ISO long-dash triple-dot ____ ... ____ ... ____
 72
    65
 73
     8
 40
36.0
 49
24.0
 74
     0
 49
-3.0
 74
     0
 49
0.0
 74
     0
 49
-3.0
 74
     0
 49
0.0
 74
     0
 49
-3.0
 74
     0
 49
0.0
 74
     0
 49
-3.0
 74
     0
  0
LTYPE
  5
A2
330
5
100
AcDbSymbolTableRecord
100
AcDbLinetypeTableRecord
  2
ACAD_ISO07W100
 70
     0
  3
ISO dot . . . . . . . . . . . . . . . . . . . .
 72
    65
 73
     2
 40
3.0
 49
0.0
 74
     0
 49
-3.0
 74
     0
  0
LTYPE
  5
A3
330
5
100
AcDbSymbolTableRecord
100
AcDbLinetypeTableRecord
  2
ACAD_ISO08W100
 70
     0
  3
ISO long-dash short-dash ____ __ ____ __ ____ _
 72
    65
 73
     4
 40
36.0
 49
24.0
 74
     0
 49
-3.0
 74
     0
 49
6.0
 74
     0
 49
-3.0
 74
     0
  0
LTYPE
  5
A4
330
5
100
AcDbSymbolTableRecord
100
AcDbLinetypeTableRecord
  2
ACAD_ISO09W100
 70
     0
  3
ISO long-dash double-short-dash ____ __ __ ____
 72
    65
 73
     6
 40
45.0
 49
24.0
 74
     0
 49
-3.0
 74
     0
 49
6.0
 74
     0
 49
-3.0
 74
     0
 49
6.0
 74
     0
 49
-3.0
 74
     0
  0
LTYPE
  5
A5
330
5
100
AcDbSymbolTableRecord
100
AcDbLinetypeTableRecord
  2
ACAD_ISO10W100
 70
     0
  3
ISO dash dot __ . __ . __ . __ . __ . __ . __ .
 72
    65
 73
     4
 40
18.0
 49
12.0
 74
     0
 49
-3.0
 74
     0
 49
0.0
 74
     0
 49
-3.0
 74
     0
  0
LTYPE
  5
A6
330
5
100
AcDbSymbolTableRecord
100
AcDbLinetypeTableRecord
  2
ACAD_ISO11W100
 70
     0
  3
ISO double-dash dot __ __ . __ __ . __ __ . __ 
 72
    65
 73
     6
 40
33.0
 49
12.0
 74
     0
 49
-3.0
 74
     0
 49
12.0
 74
     0
 49
-3.0
 74
     0
 49
0.0
 74
     0
 49
-3.0
 74
     0
  0
LTYPE
  5
A7
330
5
100
AcDbSymbolTableRecord
100
AcDbLinetypeTableRecord
  2
ACAD_ISO12W100
 70
     0
  3
ISO dash double-dot __ . . __ . . __ . . __ . .
 72
    65
 73
     6
 40
21.0
 49
12.0
 74
     0
 49
-3.0
 74
     0
 49
0.0
 74
     0
 49
-3.0
 74
     0
 49
0.0
 74
     0
 49
-3.0
 74
     0
  0
LTYPE
  5
A8
330
5
100
AcDbSymbolTableRecord
100
AcDbLinetypeTableRecord
  2
ACAD_ISO13W100
 70
     0
  3
ISO double-dash double-dot __ __ . . __ __ . . 
 72
    65
 73
     8
 40
36.0
 49
12.0
 74
     0
 49
-3.0
 74
     0
 49
12.0
 74
     0
 49
-3.0
 74
     0
 49
0.0
 74
     0
 49
-3.0
 74
     0
 49
0.0
 74
     0
 49
-3.0
 74
     0
  0
LTYPE
  5
A9
330
5
100
AcDbSymbolTableRecord
100
AcDbLinetypeTableRecord
  2
ACAD_ISO14W100
 70
     0
  3
ISO dash triple-dot __ . . . __ . . . __ . . . 
 72
    65
 73
     8
 40
24.0
 49
12.0
 74
     0
 49
-3.0
 74
     0
 49
0.0
 74
     0
 49
-3.0
 74
     0
 49
0.0
 74
     0
 49
-3.0
 74
     0
 49
0.0
 74
     0
 49
-3.0
 74
     0
  0
LTYPE
  5
AA
330
5
100
AcDbSymbolTableRecord
100
AcDbLinetypeTableRecord
  2
ACAD_ISO15W100
 70
     0
  3
ISO double-dash triple-dot __ __ . . . __ __ . 
 72
    65
 73
    10
 40
39.0
 49
12.0
 74
     0
 49
-3.0
 74
     0
 49
12.0
 74
     0
 49
-3.0
 74
     0
 49
0.0
 74
     0
 49
-3.0
 74
     0
 49
0.0
 74
     0
 49
-3.0
 74
     0
 49
0.0
 74
     0
 49
-3.0
 74
     0
  0
LTYPE
  5
AD
330
5
100
AcDbSymbolTableRecord
100
AcDbLinetypeTableRecord
  2
FENCELINE1
 70
     0
  3
Fenceline circle ----0-----0----0-----0----0---
 72
    65
 73
     4
 40
36.83
 49
6.349999999999999
 74
     0
 49
-2.54
 74
     4
 75
   133
340
AC
 46
2.54
 50
0.0
 44
-2.54
 45
0.0
 49
-2.54
 74
     0
 49
25.4
 74
     0
  0
LTYPE
  5
AE
330
5
100
AcDbSymbolTableRecord
100
AcDbLinetypeTableRecord
  2
FENCELINE2
 70
     0
  3
Fenceline square ----[]-----[]----[]-----[]----
 72
    65
 73
     4
 40
36.83
 49
6.349999999999999
 74
     0
 49
-2.54
 74
     4
 75
   132
340
AC
 46
2.54
 50
0.0
 44
-2.54
 45
0.0
 49
-2.54
 74
     0
 49
25.4
 74
     0
  0
LTYPE
  5
AF
330
5
100
AcDbSymbolTableRecord
100
AcDbLinetypeTableRecord
  2
TRACKS
 70
     0
  3
Tracks -|-|-|-|-|-|-|-|-|-|-|-|-|-|-|-|-|-|-|-|
 72
    65
 73
     2
 40
7.62
 49
3.81
 74
     4
 75
   130
340
AC
 46
6.349999999999999
 50
0.0
 44
0.0
 45
0.0
 49
3.81
 74
     0
  0
LTYPE
  5
B0
330
5
100
AcDbSymbolTableRecord
100
AcDbLinetypeTableRecord
  2
BATTING
 70
     0
  3
Batting SSSSSSSSSSSSSSSSSSSSSSSSSSSSSSSSSSSSSSS
 72
    65
 73
     4
 40
10.16254
 49
0.00254
 74
     0
 49
-2.54
 74
     4
 75
   134
340
AC
 46
2.54
 50
0.0
 44
-2.54
 45
0.0
 49
-5.08
 74
     4
 75
   134
340
AC
 46
2.54
 50
180.0
 44
2.54
 45
0.0
 49
-2.54
 74
     0
  0
LTYPE
  5
B1
330
5
100
AcDbSymbolTableRecord
100
AcDbLinetypeTableRecord
  2
HOT_WATER_SUPPLY
 70
     0
  3
Hot water supply ---- HW ---- HW ---- HW ----
 72
    65
 73
     3
 40
22.86
 49
12.7
 74
     0
 49
-5.08
 74
     2
 75
     0
340
55
 46
2.54
 50
0.0
 44
-2.54
 45
-1.27
  9
HW
 49
-5.08
 74
     0
  0
LTYPE
  5
B2
330
5
100
AcDbSymbolTableRecord
100
AcDbLinetypeTableRecord
  2
GAS_LINE
 70
     0
  3
Gas line ----GAS----GAS----GAS----GAS----GAS---
 72
    65
 73
     3
 40
24.13
 49
12.7
 74
     0
 49
-5.08
 74
     2
 75
     0
340
55
 46
2.54
 50
0.0
 44
-2.54
 45
-1.27
  9
GAS
 49
-6.349999999999999
 74
     0
  0
LTYPE
  5
B3
330
5
100
AcDbSymbolTableRecord
100
AcDbLinetypeTableRecord
  2
ZIGZAG
 70
     0
  3
Zig zag /\/\/\/\/\/\/\/\/\/\/\/\/\/\/\/\/\/\/\/
 72
    65
 73
     4
 40
20.32254
 49
0.00254
 74
     0
 49
-5.08
 74
     4
 75
   131
340
AC
 46
5.08
 50
0.0
 44
-5.08
 45
0.0
 49
-10.16
 74
     4
 75
   131
340
AC
 46
5.08
 50
180.0
 44
5.08
 45
0.0
 49
-5.08
 74
     0
  0
ENDTAB
  0
TABLE
  2
LAYER
  5
2
330
0
100
AcDbSymbolTable
 70
    28
  0
LAYER
  5
54
330
2
100
AcDbSymbolTableRecord
100
AcDbLayerTableRecord
  2
0
 70
     0
 62
     7
  6
Continuous
370
    -3
390
F
347
21
348
0
  0
LAYER
  5
C0
330
2
100
AcDbSymbolTableRecord
100
AcDbLayerTableRecord
  2
Mittellinie MD
 70
     0
 62
     7
  6
Continuous
370
    18
390
F
347
21
348
0
  0
LAYER
  5
C1
330
2
100
AcDbSymbolTableRecord
100
AcDbLayerTableRecord
  2
Mittelpunktmarkierung MD
 70
     0
 62
     7
  6
Continuous
370
    18
390
F
347
21
348
0
  0
LAYER
  5
C6
330
2
100
AcDbSymbolTableRecord
100
AcDbLayerTableRecord
  2
Schraffur MD
 70
     0
 62
     7
  6
Continuous
370
    18
390
F
347
21
348
0
  0
LAYER
  5
C7
330
2
100
AcDbSymbolTableRecord
100
AcDbLayerTableRecord
  2
Sichtbar MD
 70
     0
 62
     7
  6
Continuous
370
    35
390
F
347
21
348
0
  0
LAYER
  5
C8
330
2
100
AcDbSymbolTableRecord
100
AcDbLayerTableRecord
  2
Sichtbar schmal MD
 70
     0
 62
     7
  6
Continuous
370
    25
390
F
347
21
348
0
  0
LAYER
  5
C9
330
2
100
AcDbSymbolTableRecord
100
AcDbLayerTableRecord
  2
Skizziergeometrie MD
 70
     0
 62
     7
  6
Continuous
370
    25
390
F
347
21
348
0
  0
LAYER
  5
CA
330
2
100
AcDbSymbolTableRecord
100
AcDbLayerTableRecord
  2
Symbol MD
 70
     0
 62
     7
  6
Continuous
370
    25
390
F
347
21
348
0
  0
ENDTAB
  0
TABLE
  2
STYLE
  5
3
330
0
100
AcDbSymbolTable
 70
    13
  0
STYLE
  5
55
330
3
100
AcDbSymbolTableRecord
100
AcDbTextStyleTableRecord
  2
Standard
 70
     0
 40
0.0
 41
1.0
 50
0.0
 71
     0
 42
0.2
  3
isocpeur.ttf
  4

1001
ACAD
1000
ISOCPEUR
1071
      256
  0
STYLE
  5
5A
330
3
100
AcDbSymbolTableRecord
100
AcDbTextStyleTableRecord
  2
Annotative
 70
     0
 40
0.0
 41
1.0
 50
0.0
 71
     0
 42
0.2
  3
txt
  4

1001
AcadAnnotative
1000
AnnotativeData
1002
{
1070
     1
1070
     1
1002
}
  0
STYLE
  5
AC
330
3
100
AcDbSymbolTableRecord
100
AcDbTextStyleTableRecord
  2

 70
     1
 40
0.0
 41
1.0
 50
0.0
 71
     0
 42
0.2
  3
ltypeshp.shx
  4

  0
STYLE
  5
CF
330
3
100
AcDbSymbolTableRecord
100
AcDbTextStyleTableRecord
  2
Artikelnummer MD
 70
     0
 40
0.0
 41
1.0
 50
0.0
 71
     0
 42
0.2
  3
isocpeur.ttf
  4

1001
ACAD
1000
ISOCPEUR
1071
      256
  0
STYLE
  5
D0
330
3
100
AcDbSymbolTableRecord
100
AcDbTextStyleTableRecord
  2
Bemaßung MD 5mm
 70
     0
 40
0.0
 41
1.0
 50
0.0
 71
     0
 42
0.2
  3
isocpeur.ttf
  4

1001
ACAD
1000
ISOCPEUR
1071
      256
  0
STYLE
  5
D1
330
3
100
AcDbSymbolTableRecord
100
AcDbTextStyleTableRecord
  2
Bezeichnungstext MD
 70
     0
 40
0.0
 41
1.0
 50
0.0
 71
     0
 42
0.2
  3
isocpeur.ttf
  4

1001
ACAD
1000
ISOCPEUR
1071
      256
  0
STYLE
  5
D2
330
3
100
AcDbSymbolTableRecord
100
AcDbTextStyleTableRecord
  2
Ersatzteilliste MD
 70
     0
 40
0.0
 41
1.0
 50
0.0
 71
     0
 42
0.2
  3
isocpeur.ttf
  4

1001
ACAD
1000
ISOCPEUR
1071
      256
  0
STYLE
  5
D3
330
3
100
AcDbSymbolTableRecord
100
AcDbTextStyleTableRecord
  2
Ersatzteilliste MD_2
 70
     0
 40
0.0
 41
1.0
 50
0.0
 71
     0
 42
0.2
  3
isocpeur.ttf
  4

1001
ACAD
1000
ISOCPEUR
1071
      256
  0
STYLE
  5
D4
330
3
100
AcDbSymbolTableRecord
100
AcDbTextStyleTableRecord
  2
Notiztext MD
 70
     0
 40
0.0
 41
1.0
 50
0.0
 71
     0
 42
0.2
  3
isocpeur.ttf
  4

1001
ACAD
1000
ISOCPEUR
1071
      256
  0
STYLE
  5
D5
330
3
100
AcDbSymbolTableRecord
100
AcDbTextStyleTableRecord
  2
Positionsnummer MD
 70
     0
 40
0.0
 41
1.0
 50
0.0
 71
     0
 42
0.2
  3
isocpeur.ttf
  4

1001
ACAD
1000
ISOCPEUR
1071
      256
  0
STYLE
  5
107
330
3
100
AcDbSymbolTableRecord
100
AcDbTextStyleTableRecord
  2
Textstil51
 70
     0
 40
0.0
 41
1.0
 50
0.0
 71
     0
 42
0.2
  3
isocpeur.ttf
  4

1001
ACAD
1000
ISOCPEUR
1071
      256
  0
STYLE
  5
200
330
3
100
AcDbSymbolTableRecord
100
AcDbTextStyleTableRecord
  2
Textstil33
 70
     0
 40
0.0
 41
1.0
 50
0.0
 71
     0
 42
0.2
  3
isocpeur.ttf
  4

1001
ACAD
1000
ISOCPEUR
1071
      256
  0
STYLE
  5
203
330
3
100
AcDbSymbolTableRecord
100
AcDbTextStyleTableRecord
  2
Textstil34
 70
     0
 40
0.0
 41
1.0
 50
0.0
 71
     0
 42
0.2
  3
isocpeur.ttf
  4

1001
ACAD
1000
ISOCPEUR
1071
      256
  0
ENDTAB
  0
TABLE
  2
VIEW
  5
6
330
0
100
AcDbSymbolTable
 70
     0
  0
ENDTAB
  0
TABLE
  2
UCS
  5
7
330
0
100
AcDbSymbolTable
 70
     0
  0
ENDTAB
  0
TABLE
  2
APPID
  5
9
330
0
100
AcDbSymbolTable
 70
     3
  0
APPID
  5
56
330
9
100
AcDbSymbolTableRecord
100
AcDbRegAppTableRecord
  2
ACAD
 70
     0
  0
APPID
  5
5E
330
9
100
AcDbSymbolTableRecord
100
AcDbRegAppTableRecord
  2
AcadAnnotative
 70
     0
  0
APPID
  5
10A
330
9
100
AcDbSymbolTableRecord
100
AcDbRegAppTableRecord
  2
AcadAnnoPO
 70
     0
  0
ENDTAB
  0
TABLE
  2
DIMSTYLE
  5
A
330
0
100
AcDbSymbolTable
 70
    23
100
AcDbDimStyleTable
 71
     0
  0
DIMSTYLE
105
58
330
A
100
AcDbSymbolTableRecord
100
AcDbDimStyleTableRecord
  2
Standard
 70
     0
340
55
  0
DIMSTYLE
105
59
330
A
100
AcDbSymbolTableRecord
100
AcDbDimStyleTableRecord
  2
Annotative
 70
     0
340
55
1001
AcadAnnotative
1000
AnnotativeData
1002
{
1070
     1
1070
     1
1002
}
  0
DIMSTYLE
105
D6
330
A
100
AcDbSymbolTableRecord
100
AcDbDimStyleTableRecord
  2
Bemaßung allgemein MD
 70
     0
 41
2.5
 42
0.8
 43
5.999999999999999
 44
3.174999999999999
 45
0.00000001
 46
10.0
 73
     0
 74
     0
 77
     1
 78
     8
 79
     2
140
3.5
143
0.03937
146
0.7142857313156128
147
0.8
171
     3
172
     1
176
   256
177
   256
178
   256
271
     3
272
     3
274
     3
275
     1
278
    44
284
     8
340
D4
371
    -1
372
    -1
  0
DIMSTYLE
105
D7
330
A
100
AcDbSymbolTableRecord
100
AcDbDimStyleTableRecord
  2
Bemaßung allgemein MD$7
 70
     0
 41
2.5
 42
0.8
 43
5.999999999999999
 44
3.174999999999999
 45
0.00000001
 46
10.0
 73
     0
 74
     0
 77
     1
 78
     8
 79
     2
140
3.5
143
0.03937
146
0.7142857313156128
147
0.8
171
     3
172
     1
176
   256
177
   256
178
   256
271
     3
272
     3
274
     3
275
     1
278
    44
284
     8
340
D4
371
    -1
372
    -1
  0
DIMSTYLE
105
D8
330
A
100
AcDbSymbolTableRecord
100
AcDbDimStyleTableRecord
  2
Bemaßung allgemein MD 5mm
 70
     0
 41
2.5
 42
0.8
 43
5.999999999999999
 44
3.174999999999999
 45
0.00000001
 46
10.0
 73
     0
 74
     0
 77
     1
 78
     8
 79
     2
140
5.0
143
0.03937
146
0.5
147
0.8
171
     3
172
     1
176
   256
177
   256
178
   256
271
     2
272
     3
274
     3
275
     1
278
    44
284
     8
340
D0
371
    -1
372
    -1
  0
DIMSTYLE
105
D9
330
A
100
AcDbSymbolTableRecord
100
AcDbDimStyleTableRecord
  2
Bemaßung allgemein MD 5mm$7
 70
     0
 41
2.5
 42
0.8
 43
5.999999999999999
 44
3.174999999999999
 45
0.00000001
 46
10.0
 73
     0
 74
     0
 77
     1
 78
     8
 79
     2
140
5.0
143
0.03937
146
0.5
147
0.8
171
     3
172
     1
176
   256
177
   256
178
   256
271
     2
272
     3
274
     3
275
     1
278
    44
284
     8
340
D0
371
    -1
372
    -1
  0
DIMSTYLE
105
DA
330
A
100
AcDbSymbolTableRecord
100
AcDbDimStyleTableRecord
  2
Durchmesser MD
 70
     0
 41
2.5
 42
0.8
 43
5.999999999999999
 44
3.174999999999999
 45
0.00000001
 46
10.0
 73
     0
 74
     0
 77
     1
 78
     8
 79
     2
140
3.5
143
0.03937
146
0.7142857313156128
147
0.8
171
     3
172
     1
176
   256
177
   256
178
   256
271
     3
272
     3
274
     3
275
     1
278
    44
284
     8
340
D4
371
    -1
372
    -1
  0
DIMSTYLE
105
DB
330
A
100
AcDbSymbolTableRecord
100
AcDbDimStyleTableRecord
  2
Durchmesser MD$7
 70
     0
 41
2.5
 42
0.8
 43
5.999999999999999
 44
3.174999999999999
 45
0.00000001
 46
10.0
 73
     0
 74
     0
 77
     1
 78
     8
 79
     2
140
3.5
143
0.03937
146
0.7142857313156128
147
0.8
171
     3
172
     1
176
   256
177
   256
178
   256
271
     3
272
     3
274
     3
275
     1
278
    44
284
     8
340
D4
371
    -1
372
    -1
  0
DIMSTYLE
105
DC
330
A
100
AcDbSymbolTableRecord
100
AcDbDimStyleTableRecord
  2
Fase 45° MD
 70
     0
 41
2.5
 42
0.8
 43
5.999999999999999
 44
3.174999999999999
 45
0.00000001
 46
10.0
 73
     0
 74
     0
 77
     1
 78
     8
 79
     2
140
3.5
143
0.03937
146
0.7142857313156128
147
0.8
171
     3
172
     1
176
   256
177
   256
178
   256
271
     3
272
     3
274
     3
275
     1
278
    44
284
     8
340
D4
371
    -1
372
    -1
  0
DIMSTYLE
105
DD
330
A
100
AcDbSymbolTableRecord
100
AcDbDimStyleTableRecord
  2
Fase 45° MD$7
 70
     0
 41
2.5
 42
0.8
 43
5.999999999999999
 44
3.174999999999999
 45
0.00000001
 46
10.0
 73
     0
 74
     0
 77
     1
 78
     8
 79
     2
140
3.5
143
0.03937
146
0.7142857313156128
147
0.8
171
     3
172
     1
176
   256
177
   256
178
   256
271
     3
272
     3
274
     3
275
     1
278
    44
284
     8
340
D4
371
    -1
372
    -1
  0
DIMSTYLE
105
DE
330
A
100
AcDbSymbolTableRecord
100
AcDbDimStyleTableRecord
  2
Gewinde MD
 70
     0
 41
2.5
 42
0.8
 43
5.999999999999999
 44
3.174999999999999
 45
0.00000001
 46
10.0
 73
     0
 74
     0
 77
     1
 78
     8
 79
     2
140
3.5
143
0.03937
146
0.7142857313156128
147
0.8
171
     3
172
     1
176
   256
177
   256
178
   256
271
     3
272
     3
274
     3
275
     1
278
    44
284
     8
340
D4
371
    -1
372
    -1
  0
DIMSTYLE
105
DF
330
A
100
AcDbSymbolTableRecord
100
AcDbDimStyleTableRecord
  2
Gewinde MD$7
 70
     0
 41
2.5
 42
0.8
 43
5.999999999999999
 44
3.174999999999999
 45
0.00000001
 46
10.0
 73
     0
 74
     0
 77
     1
 78
     8
 79
     2
140
3.5
143
0.03937
146
0.7142857313156128
147
0.8
171
     3
172
     1
176
   256
177
   256
178
   256
271
     3
272
     3
274
     3
275
     1
278
    44
284
     8
340
D4
371
    -1
372
    -1
  0
DIMSTYLE
105
E0
330
A
100
AcDbSymbolTableRecord
100
AcDbDimStyleTableRecord
  2
Schlüsselweite MD
 70
     0
 41
2.5
 42
0.8
 43
5.999999999999999
 44
3.174999999999999
 45
0.00000001
 46
10.0
 48
0.000000001
 71
     1
 73
     0
 74
     0
 77
     1
 78
     8
 79
     2
140
3.5
143
0.03937
146
0.7142857313156128
147
0.8
171
     3
172
     1
176
   256
177
   256
178
   256
271
     3
272
     3
274
     3
275
     1
278
    44
284
     8
340
D4
371
    -1
372
    -1
  0
DIMSTYLE
105
E1
330
A
100
AcDbSymbolTableRecord
100
AcDbDimStyleTableRecord
  2
Schlüsselweite MD$7
 70
     0
 41
2.5
 42
0.8
 43
5.999999999999999
 44
3.174999999999999
 45
0.00000001
 46
10.0
 48
0.000000001
 71
     1
 73
     0
 74
     0
 77
     1
 78
     8
 79
     2
140
3.5
143
0.03937
146
0.7142857313156128
147
0.8
171
     3
172
     1
176
   256
177
   256
178
   256
271
     3
272
     3
274
     3
275
     1
278
    44
284
     8
340
D4
371
    -1
372
    -1
  0
DIMSTYLE
105
F1
330
A
100
AcDbSymbolTableRecord
100
AcDbDimStyleTableRecord
  2
Sonstiges Objekt MD
 70
     0
 41
5.0
 42
0.0
 43
5.999999999999999
 44
3.174999999999999
 45
0.00000001
 46
10.0
 77
     1
 78
     8
 79
     2
140
3.5
143
0.03937
147
0.8
171
     3
172
     1
176
   256
177
   256
178
   256
271
     2
272
     2
274
     3
278
    44
284
     8
286
     8
340
D4
341
E2
371
    -1
372
    -1
  0
DIMSTYLE
105
F2
330
A
100
AcDbSymbolTableRecord
100
AcDbDimStyleTableRecord
  2
Sonstiges Objekt MD$7
 70
     0
 41
5.0
 42
0.0
 43
5.999999999999999
 44
3.174999999999999
 45
0.00000001
 46
10.0
 77
     1
 78
     8
 79
     2
140
3.5
143
0.03937
147
0.8
171
     3
172
     1
176
   256
177
   256
178
   256
271
     2
272
     2
274
     3
278
    44
284
     8
286
     8
340
D4
341
E2
371
    25
372
    -1
  0
DIMSTYLE
105
F3
330
A
100
AcDbSymbolTableRecord
100
AcDbDimStyleTableRecord
  2
Winkel Dezimal MD
 70
     0
 41
2.5
 42
0.8
 43
5.999999999999999
 44
3.174999999999999
 45
0.00000001
 46
10.0
 73
     0
 74
     0
 77
     1
 78
     8
 79
     2
140
3.5
143
0.03937
146
0.7142857313156128
147
0.8
171
     3
172
     1
176
   256
177
   256
178
   256
271
     3
272
     3
274
     3
278
    44
284
     8
340
D4
371
    -1
372
    -1
  0
DIMSTYLE
105
F4
330
A
100
AcDbSymbolTableRecord
100
AcDbDimStyleTableRecord
  2
Winkel Dezimal MD$7
 70
     0
 41
2.5
 42
0.8
 43
5.999999999999999
 44
3.174999999999999
 45
0.00000001
 46
10.0
 73
     0
 74
     0
 77
     1
 78
     8
 79
     2
140
3.5
143
0.03937
146
0.7142857313156128
147
0.8
171
     3
172
     1
176
   256
177
   256
178
   256
271
     3
272
     3
274
     3
278
    44
284
     8
340
D4
371
    -1
372
    -1
  0
DIMSTYLE
105
F5
330
A
100
AcDbSymbolTableRecord
100
AcDbDimStyleTableRecord
  2
Alternativ MD
 70
     0
 41
2.5
340
55
  0
DIMSTYLE
105
100
330
A
100
AcDbSymbolTableRecord
100
AcDbDimStyleTableRecord
  2
Bezug MD
 70
     0
 41
2.5
340
55
  0
DIMSTYLE
105
101
330
A
100
AcDbSymbolTableRecord
100
AcDbDimStyleTableRecord
  2
keine Pfeilspitze MD
 70
     0
 41
2.5
340
55
  0
DIMSTYLE
105
102
330
A
100
AcDbSymbolTableRecord
100
AcDbDimStyleTableRecord
  2
kleiner Punkt MD
 70
     0
 41
2.5
340
55
  0
DIMSTYLE
105
103
330
A
100
AcDbSymbolTableRecord
100
AcDbDimStyleTableRecord
  2
Pfeil MD
 70
     0
 41
2.5
340
55
  0
ENDTAB
  0
TABLE
  2
BLOCK_RECORD
  5
1
330
0
100
AcDbSymbolTable
 70
    10
  0
BLOCK_RECORD
  5
70
330
1
100
AcDbSymbolTableRecord
100
AcDbBlockTableRecord
  2
*Model_Space
340
73
 70
     0
280
     1
281
     0
  0
BLOCK_RECORD
  5
6C
330
1
100
AcDbSymbolTableRecord
100
AcDbBlockTableRecord
  2
*Paper_Space
340
6F
 70
     0
280
     1
281
     0
  0
BLOCK_RECORD
  5
74
330
1
100
AcDbSymbolTableRecord
100
AcDbBlockTableRecord
  2
*Paper_Space0
340
77
 70
     0
280
     1
281
     0
  0
BLOCK_RECORD
  5
E2
330
1
100
AcDbSymbolTableRecord
100
AcDbBlockTableRecord
  2
Filled-1
340
0
 70
     0
280
     1
281
     0
  0
BLOCK_RECORD
  5
F6
330
1
100
AcDbSymbolTableRecord
100
AcDbBlockTableRecord
  2
DatumFilled45
340
0
 70
     0
280
     1
281
     0
  0
BLOCK_RECORD
  5
104
330
1
100
AcDbSymbolTableRecord
100
AcDbBlockTableRecord
  2
Beschriftung Motor variabel
340
0
 70
     0
280
     1
281
     0
  0
BLOCK_RECORD
  5
110
330
1
100
AcDbSymbolTableRecord
100
AcDbBlockTableRecord
  2
Logo MD
340
0
 70
     0
280
     1
281
     0
  0
BLOCK_RECORD
  5
1DA
330
1
100
AcDbSymbolTableRecord
100
AcDbBlockTableRecord
  2
Text 5 Zeilen
340
0
 70
     0
280
     1
281
     0
  0
BLOCK_RECORD
  5
1E2
330
1
100
AcDbSymbolTableRecord
100
AcDbBlockTableRecord
  2
Anzugsmoment + Loctite ETL
340
0
 70
     0
280
     1
281
     0
  0
BLOCK_RECORD
  5
206
330
1
100
AcDbSymbolTableRecord
100
AcDbBlockTableRecord
  2
Kopie von Text 5 Zeilen
340
0
 70
     0
280
     1
281
     0
  0
BLOCK_RECORD
  5
20E
330
1
100
AcDbSymbolTableRecord
100
AcDbBlockTableRecord
  2
Anzugsmoment ETL
340
0
 70
     0
280
     1
281
     0
  0
BLOCK_RECORD
  5
22E
330
1
100
AcDbSymbolTableRecord
100
AcDbBlockTableRecord
  2
Kopie von Kopie von Text 5 Zeilen
340
0
 70
     0
280
     1
281
     0
  0
ENDTAB
  0
ENDSEC
  0
SECTION
  2
BLOCKS
  0
BLOCK
  5
71
330
70
100
AcDbEntity
  8
0
100
AcDbBlockBegin
  2
*Model_Space
 70
     0
 10
0.0
 20
0.0
 30
0.0
  3
*Model_Space
  1

  0
ENDBLK
  5
72
330
70
100
AcDbEntity
  8
0
100
AcDbBlockEnd
  0
BLOCK
  5
6D
330
6C
100
AcDbEntity
 67
     1
  8
0
100
AcDbBlockBegin
  2
*Paper_Space
 70
     0
 10
0.0
 20
0.0
 30
0.0
  3
*Paper_Space
  1

  0
ENDBLK
  5
6E
330
6C
100
AcDbEntity
 67
     1
  8
0
100
AcDbBlockEnd
  0
BLOCK
  5
75
330
74
100
AcDbEntity
 67
     1
  8
0
100
AcDbBlockBegin
  2
*Paper_Space0
 70
     0
 10
0.0
 20
0.0
 30
0.0
  3
*Paper_Space0
  1

  0
ENDBLK
  5
76
330
74
100
AcDbEntity
 67
     1
  8
0
100
AcDbBlockEnd
  0
BLOCK
  5
E3
330
E2
100
AcDbEntity
  8
0
100
AcDbBlockBegin
  2
Filled-1
 70
     0
 10
0.0
 20
0.0
 30
0.0
  3
Filled-1
  1

  0
LINE
  5
E5
330
E2
100
AcDbEntity
  8
0
 62
     0
100
AcDbLine
 10
-1.0
 20
0.0
 30
0.0
 11
0.0
 21
0.0
 31
0.0
  0
POLYLINE
  5
E7
330
E2
100
AcDbEntity
  8
0
 62
     0
100
AcDb2dPolyline
 66
     1
 10
0.0
 20
0.0
 30
0.0
 70
   128
  0
VERTEX
  5
E8
330
E7
100
AcDbEntity
  8
0
 62
     0
100
AcDbVertex
100
AcDb2dVertex
 10
-1.0
 20
-0.1
 30
0.0
  0
VERTEX
  5
E9
330
E7
100
AcDbEntity
  8
0
 62
     0
100
AcDbVertex
100
AcDb2dVertex
 10
0.0
 20
0.0
 30
0.0
  0
VERTEX
  5
EB
330
E7
100
AcDbEntity
  8
0
 62
     0
100
AcDbVertex
100
AcDb2dVertex
 10
-1.0
 20
0.1
 30
0.0
  0
VERTEX
  5
EC
330
E7
100
AcDbEntity
  8
0
 62
     0
100
AcDbVertex
100
AcDb2dVertex
 10
-1.0
 20
-0.1
 30
0.0
  0
SEQEND
  5
EA
330
E7
100
AcDbEntity
  8
0
 62
     0
  0
SOLID
  5
ED
330
E2
100
AcDbEntity
  8
0
 62
     0
100
AcDbTrace
 10
-1.0
 20
-0.1
 30
0.0
 11
0.0
 21
0.0
 31
0.0
 12
-1.0
 22
0.1
 32
0.0
 13
-1.0
 23
-0.1
 33
0.0
  0
LINE
  5
EE
330
E2
100
AcDbEntity
  8
0
 62
     0
100
AcDbLine
 10
-1.0
 20
-0.1
 30
0.0
 11
0.0
 21
0.0
 31
0.0
  0
LINE
  5
EF
330
E2
100
AcDbEntity
  8
0
 62
     0
100
AcDbLine
 10
0.0
 20
0.0
 30
0.0
 11
-1.0
 21
0.1
 31
0.0
  0
LINE
  5
F0
330
E2
100
AcDbEntity
  8
0
 62
     0
100
AcDbLine
 10
-1.0
 20
0.1
 30
0.0
 11
-1.0
 21
-0.1
 31
0.0
  0
ENDBLK
  5
E4
330
E2
100
AcDbEntity
  8
0
100
AcDbBlockEnd
  0
BLOCK
  5
F7
330
F6
100
AcDbEntity
  8
0
100
AcDbBlockBegin
  2
DatumFilled45
 70
     0
 10
0.0
 20
0.0
 30
0.0
  3
DatumFilled45
  1

  0
POLYLINE
  5
F9
330
F6
100
AcDbEntity
  8
0
 62
     0
100
AcDb2dPolyline
 66
     1
 10
0.0
 20
0.0
 30
0.0
 70
   128
  0
VERTEX
  5
FA
330
F9
100
AcDbEntity
  8
0
 62
     0
100
AcDbVertex
100
AcDb2dVertex
 10
0.0
 20
1.0
 30
0.0
  0
VERTEX
  5
FB
330
F9
100
AcDbEntity
  8
0
 62
     0
100
AcDbVertex
100
AcDb2dVertex
 10
0.0
 20
-1.0
 30
0.0
  0
VERTEX
  5
FD
330
F9
100
AcDbEntity
  8
0
 62
     0
100
AcDbVertex
100
AcDb2dVertex
 10
-1.0
 20
0.0
 30
0.0
  0
VERTEX
  5
FE
330
F9
100
AcDbEntity
  8
0
 62
     0
100
AcDbVertex
100
AcDb2dVertex
 10
0.0
 20
1.0
 30
0.0
  0
SEQEND
  5
FC
330
F9
100
AcDbEntity
  8
0
 62
     0
  0
SOLID
  5
FF
330
F6
100
AcDbEntity
  8
0
 62
     0
100
AcDbTrace
 10
0.0
 20
1.0
 30
0.0
 11
0.0
 21
-1.0
 31
0.0
 12
-1.0
 22
0.0
 32
0.0
 13
0.0
 23
1.0
 33
0.0
  0
ENDBLK
  5
F8
330
F6
100
AcDbEntity
  8
0
100
AcDbBlockEnd
  0
BLOCK
  5
105
330
104
100
AcDbEntity
  8
0
100
AcDbBlockBegin
  2
Beschriftung Motor variabel
 70
     2
 10
0.0
 20
0.0
 30
0.0
  3
Beschriftung Motor variabel
  1

  0
ATTDEF
  5
108
330
104
100
AcDbEntity
  8
Symbol MD
100
AcDbText
 10
-27.99350500106811
 20
9.639393898872937
 30
0.0
 40
4.000000059604644
  1
MUD 82-1200 F100
  7
Textstil51
 11
-27.99350500106811
 21
8.999999970197674
 31
0.0
100
AcDbAttributeDefinition
280
     0
  3
Type
  2
Type
 70
     0
 74
     1
280
     0
 71
     4
 72
     0
 11
-27.99350500106811
 21
8.999999970197674
 31
0.0
101
Embedded Object
 10
-27.99350500106811
 20
8.999999970197674
 30
0.0
 40
4.000000059604644
 41
0.0
 46
0.0
 71
     7
 72
     5
  1
MUD 82-1200 F100
  7
Textstil51
 73
     1
 44
1.0
  0
ATTDEF
  5
10B
330
104
100
AcDbEntity
  8
Symbol MD
100
AcDbText
 10
-9.993505001068108
 20
1.559469639924062
 30
0.0
 40
3.499999940395355
  1
60031997
  7
Notiztext MD
 11
-9.993505001068108
 21
0.9999999701976669
 31
0.0
100
AcDbAttributeDefinition
280
     0
  3
Artikelnummer
  2
Artikelnummer
 70
     0
 74
     1
280
     0
 71
     4
 72
     0
 11
-9.993505001068108
 21
0.9999999701976669
 31
0.0
101
Embedded Object
 10
-9.993505001068108
 20
0.9999999701976669
 30
0.0
 40
3.499999940395355
 41
0.0
 46
0.0
 71
     7
 72
     5
  1
60031997
  7
Notiztext MD
 73
     1
 44
1.0
  0
MTEXT
  5
10C
330
104
100
AcDbEntity
  8
Symbol MD
100
AcDbMText
 10
-27.99350500106811
 20
-13.00000002980232
 30
0.0
 40
3.499999940395355
 41
0.0
 46
0.0
 71
     7
 72
     1
  1
\fISOCPEUR|b0|i0;Ser-Nr: XXXXXX / XXXX
  7
Notiztext MD
 73
     1
 44
1.0
  0
MTEXT
  5
10E
330
104
100
AcDbEntity
  8
Symbol MD
100
AcDbMText
 10
-27.99350500106811
 20
-6.000000029802325
 30
0.0
 40
3.499999940395355
 41
0.0
 46
0.0
 71
     7
 72
     1
  1
\fISOCPEUR|b0|i0;max. 6,3 bar
  7
Notiztext MD
 73
     1
 44
1.0
  0
MTEXT
  5
10F
330
104
100
AcDbEntity
  8
Symbol MD
100
AcDbMText
 10
-27.99350500106811
 20
0.9999999701976847
 30
0.0
 40
3.499999940395355
 41
0.0
 46
0.0
 71
     7
 72
     1
  1
\fISOCPEUR|b0|i0;Art-Nr:
  7
Notiztext MD
 73
     1
 44
1.0
  0
ENDBLK
  5
106
330
104
100
AcDbEntity
  8
0
100
AcDbBlockEnd
  0
BLOCK
  5
111
330
110
100
AcDbEntity
  8
0
100
AcDbBlockBegin
  2
Logo MD
 70
     0
 10
0.0
 20
0.0
 30
0.0
  3
Logo MD
  1

  0
LINE
  5
113
330
110
100
AcDbEntity
  8
Skizziergeometrie MD
100
AcDbLine
 10
-17.31136761332348
 20
4.434757641419491
 30
0.0
 11
-18.35536761332344
 21
2.294240430810701
 31
0.0
  0
LINE
  5
114
330
110
100
AcDbEntity
  8
Skizziergeometrie MD
100
AcDbLine
 10
-18.35536761332344
 20
2.294240430810701
 30
0.0
 11
-19.39936761332348
 21
4.434757641419482
 31
0.0
  0
LINE
  5
115
330
110
100
AcDbEntity
  8
Skizziergeometrie MD
100
AcDbLine
 10
-18.76136761332349
 20
0.9547576414195013
 30
0.0
 11
-17.94936761332349
 21
0.9547576414194924
 31
0.0
  0
LINE
  5
116
330
110
100
AcDbEntity
  8
Skizziergeometrie MD
100
AcDbLine
 10
-16.15136761332355
 20
0.9547576414194836
 30
0.0
 11
-16.15136761332353
 21
4.434757641419473
 31
0.0
  0
LINE
  5
117
330
110
100
AcDbEntity
  8
Skizziergeometrie MD
100
AcDbLine
 10
-16.96336761332352
 20
0.9547576414194924
 30
0.0
 11
-16.15136761332355
 21
0.9547576414194836
 31
0.0
  0
LINE
  5
118
330
110
100
AcDbEntity
  8
Skizziergeometrie MD
100
AcDbLine
 10
-16.96336761332352
 20
0.9547576414194924
 30
0.0
 11
-16.96336761332353
 21
2.97635722921667
 31
0.0
  0
LINE
  5
119
330
110
100
AcDbEntity
  8
Skizziergeometrie MD
100
AcDbLine
 10
-17.94936761332349
 20
0.9547576414194924
 30
0.0
 11
-16.96336761332353
 21
2.97635722921667
 31
0.0
  0
LINE
  5
11A
330
110
100
AcDbEntity
  8
Skizziergeometrie MD
100
AcDbLine
 10
-16.15136761332353
 20
4.434757641419473
 30
0.0
 11
-17.31136761332348
 21
4.434757641419491
 31
0.0
  0
LINE
  5
11B
330
110
100
AcDbEntity
  8
Skizziergeometrie MD
100
AcDbLine
 10
-19.74736761332345
 20
2.976357229216679
 30
0.0
 11
-19.74736761332344
 21
0.9547576414194924
 31
0.0
  0
LINE
  5
11C
330
110
100
AcDbEntity
  8
Skizziergeometrie MD
100
AcDbLine
 10
-18.76136761332349
 20
0.9547576414195013
 30
0.0
 11
-19.74736761332345
 21
2.976357229216679
 31
0.0
  0
LINE
  5
11D
330
110
100
AcDbEntity
  8
Skizziergeometrie MD
100
AcDbLine
 10
-20.55936761332353
 20
4.434757641419473
 30
0.0
 11
-20.55936761332353
 21
0.9547576414194747
 31
0.0
  0
LINE
  5
11E
330
110
100
AcDbEntity
  8
Skizziergeometrie MD
100
AcDbLine
 10
-19.39936761332348
 20
4.434757641419482
 30
0.0
 11
-20.55936761332353
 21
4.434757641419473
 31
0.0
  0
LINE
  5
11F
330
110
100
AcDbEntity
  8
Skizziergeometrie MD
100
AcDbLine
 10
-20.55936761332353
 20
0.9547576414194747
 30
0.0
 11
-19.74736761332344
 21
0.9547576414194924
 31
0.0
  0
ARC
  5
120
330
110
100
AcDbEntity
  8
Skizziergeometrie MD
100
AcDbCircle
 10
1.553540665153798
 20
1.934345070168648
 30
0.0
 40
0.4570425975202458
100
AcDbArc
 50
331.3355395479728
 51
11.72396983130892
  0
ARC
  5
121
330
110
100
AcDbEntity
  8
Skizziergeometrie MD
100
AcDbCircle
 10
1.642147938454909
 20
1.88931405321477
 30
0.0
 40
0.3844816368478083
100
AcDbArc
 50
21.0183222334137
 51
83.39296852598474
  0
ARC
  5
122
330
110
100
AcDbEntity
  8
Skizziergeometrie MD
100
AcDbCircle
 10
1.611424013948541
 20
1.931097036714977
 30
0.0
 40
0.4054614417244424
100
AcDbArc
 50
278.7578663398576
 51
327.8125122476933
  0
ARC
  5
123
330
110
100
AcDbEntity
  8
Skizziergeometrie MD
100
AcDbCircle
 10
1.265285364710422
 20
4.429231128728554
 30
0.0
 40
3.489118723013506
100
AcDbArc
 50
268.7247394624261
 51
283.3008820411725
  0
ARC
  5
124
330
110
100
AcDbEntity
  8
Skizziergeometrie MD
100
AcDbCircle
 10
1.447689500901647
 20
5.0502326825133
 30
0.0
 40
3.52708363744742
100
AcDbArc
 50
257.4040038370595
 51
273.6651460924187
  0
ARC
  5
125
330
110
100
AcDbEntity
  8
Skizziergeometrie MD
100
AcDbCircle
 10
2.092311670277933
 20
8.383497573340905
 30
0.0
 40
6.125719647533964
100
AcDbArc
 50
260.3660466637691
 51
266.2004658575505
  0
ARC
  5
126
330
110
100
AcDbEntity
  8
Skizziergeometrie MD
100
AcDbCircle
 10
1.563540770165348
 20
4.002588872021588
 30
0.0
 40
1.731114441187764
100
AcDbArc
 50
232.628982638488
 51
253.3368731497334
  0
ARC
  5
127
330
110
100
AcDbEntity
  8
Skizziergeometrie MD
100
AcDbCircle
 10
1.273745085585007
 20
2.98155089569601
 30
0.0
 40
1.471668828572101
100
AcDbArc
 50
108.9241660710531
 51
132.7158447178787
  0
ARC
  5
128
330
110
100
AcDbEntity
  8
Skizziergeometrie MD
100
AcDbCircle
 10
1.381316966327785
 20
3.674436968135976
 30
0.0
 40
1.360806176159423
100
AcDbArc
 50
205.5940045082629
 51
230.3394820629377
  0
LINE
  5
129
330
110
100
AcDbEntity
  8
Skizziergeometrie MD
100
AcDbLine
 10
-7.735307488065634
 20
4.434757641419464
 30
0.0
 11
-7.735307488065616
 21
0.9547576414194924
 31
0.0
  0
LINE
  5
12A
330
110
100
AcDbEntity
  8
Skizziergeometrie MD
100
AcDbLine
 10
-8.663307488065621
 20
0.9547576414194747
 30
0.0
 11
-7.735307488065616
 21
0.9547576414194924
 31
0.0
  0
LINE
  5
12B
330
110
100
AcDbEntity
  8
Skizziergeometrie MD
100
AcDbLine
 10
-7.735307488065634
 20
4.434757641419464
 30
0.0
 11
-8.663307488065621
 21
4.434757641419491
 31
0.0
  0
LINE
  5
12C
330
110
100
AcDbEntity
  8
Skizziergeometrie MD
100
AcDbLine
 10
-8.663307488065621
 20
4.434757641419491
 30
0.0
 11
-8.663307488065603
 21
2.29424043081071
 31
0.0
  0
LINE
  5
12D
330
110
100
AcDbEntity
  8
Skizziergeometrie MD
100
AcDbLine
 10
-10.2873074880656
 20
4.434757641419491
 30
0.0
 11
-8.663307488065603
 21
2.29424043081071
 31
0.0
  0
LINE
  5
12E
330
110
100
AcDbEntity
  8
Skizziergeometrie MD
100
AcDbLine
 10
-10.28730748806558
 20
2.738521983593464
 30
0.0
 11
-8.663307488065621
 21
0.9547576414194747
 31
0.0
  0
LINE
  5
12F
330
110
100
AcDbEntity
  8
Skizziergeometrie MD
100
AcDbLine
 10
-10.28730748806558
 20
2.738521983593464
 30
0.0
 11
-10.28730748806558
 21
0.9547576414194747
 31
0.0
  0
LINE
  5
130
330
110
100
AcDbEntity
  8
Skizziergeometrie MD
100
AcDbLine
 10
-10.2873074880656
 20
4.434757641419491
 30
0.0
 11
-11.21530748806557
 21
4.434757641419473
 31
0.0
  0
LINE
  5
131
330
110
100
AcDbEntity
  8
Skizziergeometrie MD
100
AcDbLine
 10
-11.21530748806555
 20
0.9547576414194836
 30
0.0
 11
-10.28730748806558
 21
0.9547576414194747
 31
0.0
  0
LINE
  5
132
330
110
100
AcDbEntity
  8
Skizziergeometrie MD
100
AcDbLine
 10
-11.21530748806557
 20
4.434757641419473
 30
0.0
 11
-11.21530748806555
 21
0.9547576414194836
 31
0.0
  0
LINE
  5
133
330
110
100
AcDbEntity
  8
Skizziergeometrie MD
100
AcDbLine
 10
-14.39494682000875
 20
1.650757641419531
 30
0.0
 11
-12.92939262938575
 21
1.650757641419478
 31
0.0
  0
LINE
  5
134
330
110
100
AcDbEntity
  8
Skizziergeometrie MD
100
AcDbLine
 10
-14.30965368781166
 20
4.434757641419482
 30
0.0
 11
-13.01468576158278
 21
4.434757641419482
 31
0.0
  0
LINE
  5
135
330
110
100
AcDbEntity
  8
Skizziergeometrie MD
100
AcDbLine
 10
-15.57627010305799
 20
0.9547576414195102
 30
0.0
 11
-14.64827010305802
 21
0.9547576414194924
 31
0.0
  0
LINE
  5
136
330
110
100
AcDbEntity
  8
Skizziergeometrie MD
100
AcDbLine
 10
-15.57627010305799
 20
0.9547576414195102
 30
0.0
 11
-14.30965368781166
 21
4.434757641419482
 31
0.0
  0
LINE
  5
137
330
110
100
AcDbEntity
  8
Skizziergeometrie MD
100
AcDbLine
 10
-14.64827010305802
 20
0.9547576414194924
 30
0.0
 11
-14.39494682000875
 21
1.650757641419531
 31
0.0
  0
LINE
  5
138
330
110
100
AcDbEntity
  8
Skizziergeometrie MD
100
AcDbLine
 10
-14.22606463130917
 20
2.114757641419497
 30
0.0
 11
-13.66216972469722
 21
3.664046164281398
 31
0.0
  0
LINE
  5
139
330
110
100
AcDbEntity
  8
Skizziergeometrie MD
100
AcDbLine
 10
-14.22606463130917
 20
2.114757641419497
 30
0.0
 11
-13.09827481808527
 21
2.114757641419497
 31
0.0
  0
LINE
  5
13A
330
110
100
AcDbEntity
  8
Skizziergeometrie MD
100
AcDbLine
 10
-13.09827481808527
 20
2.114757641419497
 30
0.0
 11
-13.66216972469722
 21
3.664046164281398
 31
0.0
  0
LINE
  5
13B
330
110
100
AcDbEntity
  8
Skizziergeometrie MD
100
AcDbLine
 10
-11.74806934633646
 20
0.9547576414194924
 30
0.0
 11
-13.01468576158278
 21
4.434757641419482
 31
0.0
  0
LINE
  5
13C
330
110
100
AcDbEntity
  8
Skizziergeometrie MD
100
AcDbLine
 10
-12.67606934633644
 20
0.9547576414194836
 30
0.0
 11
-11.74806934633646
 21
0.9547576414194924
 31
0.0
  0
LINE
  5
13D
330
110
100
AcDbEntity
  8
Skizziergeometrie MD
100
AcDbLine
 10
-12.67606934633644
 20
0.9547576414194836
 30
0.0
 11
-12.92939262938575
 21
1.650757641419478
 31
0.0
  0
LINE
  5
13E
330
110
100
AcDbEntity
  8
Skizziergeometrie MD
100
AcDbLine
 10
-6.997735938655678
 20
0.9547576414194836
 30
0.0
 11
-6.069735938655709
 21
0.9547576414194836
 31
0.0
  0
LINE
  5
13F
330
110
100
AcDbEntity
  8
Skizziergeometrie MD
100
AcDbLine
 10
-6.069735938655691
 20
4.434757641419482
 30
0.0
 11
-6.997735938655678
 21
4.434757641419491
 31
0.0
  0
LINE
  5
140
330
110
100
AcDbEntity
  8
Skizziergeometrie MD
100
AcDbLine
 10
-6.997735938655678
 20
4.434757641419491
 30
0.0
 11
-6.997735938655678
 21
0.9547576414194836
 31
0.0
  0
LINE
  5
141
330
110
100
AcDbEntity
  8
Skizziergeometrie MD
100
AcDbLine
 10
-6.069735938655709
 20
2.738521983593464
 30
0.0
 11
-6.069735938655709
 21
0.9547576414194836
 31
0.0
  0
LINE
  5
142
330
110
100
AcDbEntity
  8
Skizziergeometrie MD
100
AcDbLine
 10
-6.069735938655709
 20
2.738521983593464
 30
0.0
 11
-4.445735938655639
 21
0.9547576414194836
 31
0.0
  0
LINE
  5
143
330
110
100
AcDbEntity
  8
Skizziergeometrie MD
100
AcDbLine
 10
-6.069735938655691
 20
4.434757641419482
 30
0.0
 11
-4.445735938655639
 21
2.294240430810718
 31
0.0
  0
LINE
  5
144
330
110
100
AcDbEntity
  8
Skizziergeometrie MD
100
AcDbLine
 10
-3.517735938655652
 20
4.434757641419482
 30
0.0
 11
-3.51773593865567
 21
0.9547576414194924
 31
0.0
  0
LINE
  5
145
330
110
100
AcDbEntity
  8
Skizziergeometrie MD
100
AcDbLine
 10
-4.445735938655639
 20
0.9547576414194836
 30
0.0
 11
-3.51773593865567
 21
0.9547576414194924
 31
0.0
  0
LINE
  5
146
330
110
100
AcDbEntity
  8
Skizziergeometrie MD
100
AcDbLine
 10
-3.517735938655652
 20
4.434757641419482
 30
0.0
 11
-4.445735938655639
 21
4.434757641419482
 31
0.0
  0
LINE
  5
147
330
110
100
AcDbEntity
  8
Skizziergeometrie MD
100
AcDbLine
 10
-4.445735938655639
 20
4.434757641419482
 30
0.0
 11
-4.445735938655639
 21
2.294240430810718
 31
0.0
  0
ARC
  5
148
330
110
100
AcDbEntity
  8
Skizziergeometrie MD
100
AcDbCircle
 10
1.309736434192343
 20
4.159553775190003
 30
0.0
 40
3.220892458778623
100
AcDbArc
 50
248.3560010847984
 51
267.8274023014668
  0
LINE
  5
149
330
110
100
AcDbEntity
  8
Skizziergeometrie MD
100
AcDbLine
 10
-0.5003842469031295
 20
1.650757641419495
 30
0.0
 11
-0.5003842469031472
 21
0.9547576414195102
 31
0.0
  0
LINE
  5
14A
330
110
100
AcDbEntity
  8
Skizziergeometrie MD
100
AcDbLine
 10
0.1217474728520695
 20
1.165755108153314
 30
0.0
 11
0.121747472852034
 21
1.756842968201572
 31
0.0
  0
ARC
  5
14B
330
110
100
AcDbEntity
  8
Skizziergeometrie MD
100
AcDbCircle
 10
1.389131623543979
 20
5.382925776016502
 30
0.0
 40
3.841189804547038
100
AcDbArc
 50
250.7345188126709
 51
259.3390053129357
  0
LINE
  5
14C
330
110
100
AcDbEntity
  8
Skizziergeometrie MD
100
AcDbLine
 10
-2.008384246903114
 20
2.416357641419502
 30
0.0
 11
-2.008384246903114
 21
1.650757641419478
 31
0.0
  0
LINE
  5
14D
330
110
100
AcDbEntity
  8
Skizziergeometrie MD
100
AcDbLine
 10
-2.820384246903193
 20
4.434757641419491
 30
0.0
 11
-2.820384246903193
 21
0.9547576414194747
 31
0.0
  0
LINE
  5
14E
330
110
100
AcDbEntity
  8
Skizziergeometrie MD
100
AcDbLine
 10
-2.00838424690322
 20
3.738757641419461
 30
0.0
 11
-2.008384246903114
 21
2.97315764141949
 31
0.0
  0
LINE
  5
14F
330
110
100
AcDbEntity
  8
Skizziergeometrie MD
100
AcDbLine
 10
-2.008384246903114
 20
2.416357641419502
 30
0.0
 11
-0.5003842469031472
 21
2.416357641419493
 31
0.0
  0
LINE
  5
150
330
110
100
AcDbEntity
  8
Skizziergeometrie MD
100
AcDbLine
 10
-2.008384246903114
 20
1.650757641419478
 30
0.0
 11
-0.5003842469031295
 21
1.650757641419495
 31
0.0
  0
LINE
  5
151
330
110
100
AcDbEntity
  8
Skizziergeometrie MD
100
AcDbLine
 10
-0.5003842469031472
 20
2.973157641419481
 30
0.0
 11
-2.008384246903114
 21
2.97315764141949
 31
0.0
  0
LINE
  5
152
330
110
100
AcDbEntity
  8
Skizziergeometrie MD
100
AcDbLine
 10
-0.5003842469031472
 20
2.973157641419481
 30
0.0
 11
-0.5003842469031472
 21
2.416357641419493
 31
0.0
  0
LINE
  5
153
330
110
100
AcDbEntity
  8
Skizziergeometrie MD
100
AcDbLine
 10
-0.5003842469031472
 20
3.738757641419478
 30
0.0
 11
-2.00838424690322
 21
3.738757641419461
 31
0.0
  0
LINE
  5
154
330
110
100
AcDbEntity
  8
Skizziergeometrie MD
100
AcDbLine
 10
-0.5003842469031472
 20
4.434757641419508
 30
0.0
 11
-0.5003842469031472
 21
3.738757641419478
 31
0.0
  0
LINE
  5
155
330
110
100
AcDbEntity
  8
Skizziergeometrie MD
100
AcDbLine
 10
-0.5003842469031472
 20
4.434757641419508
 30
0.0
 11
-2.820384246903193
 21
4.434757641419491
 31
0.0
  0
ARC
  5
156
330
110
100
AcDbEntity
  8
Skizziergeometrie MD
100
AcDbCircle
 10
0.9886816489375238
 20
3.375319637275335
 30
0.0
 40
0.8831780097770545
100
AcDbArc
 50
179.5885658599057
 51
199.0826692789079
  0
ARC
  5
157
330
110
100
AcDbEntity
  8
Skizziergeometrie MD
100
AcDbCircle
 10
2.447450381482267
 20
3.449922296775334
 30
0.0
 40
2.342918567867358
100
AcDbArc
 50
170.8565973958725
 51
181.669543553105
  0
ARC
  5
158
330
110
100
AcDbEntity
  8
Skizziergeometrie MD
100
AcDbCircle
 10
0.636836145280002
 20
3.689160978033942
 30
0.0
 40
0.5198531530168706
100
AcDbArc
 50
134.0454032738122
 51
165.1691195883359
  0
LINE
  5
159
330
110
100
AcDbEntity
  8
Skizziergeometrie MD
100
AcDbLine
 10
-2.820384246903193
 20
0.9547576414194747
 30
0.0
 11
-0.5003842469031472
 21
0.9547576414195102
 31
0.0
  0
LINE
  5
15A
330
110
100
AcDbEntity
  8
Skizziergeometrie MD
100
AcDbLine
 10
3.539480586207313
 20
0.9547576414194836
 30
0.0
 11
4.351480586207321
 21
0.9547576414194747
 31
0.0
  0
ARC
  5
15B
330
110
100
AcDbEntity
  8
Skizziergeometrie MD
100
AcDbCircle
 10
1.310926526898272
 20
3.473035832474717
 30
0.0
 40
0.457042597520243
100
AcDbArc
 50
151.3355395480101
 51
191.7239698313071
  0
ARC
  5
15C
330
110
100
AcDbEntity
  8
Skizziergeometrie MD
100
AcDbCircle
 10
1.222319253597143
 20
3.518066849428667
 30
0.0
 40
0.3844816368478088
100
AcDbArc
 50
201.018322233423
 51
263.3929685260032
  0
ARC
  5
15D
330
110
100
AcDbEntity
  8
Skizziergeometrie MD
100
AcDbCircle
 10
1.253043178103583
 20
3.476283865928477
 30
0.0
 40
0.4054614417244096
100
AcDbArc
 50
98.75786633985814
 51
147.8125122477498
  0
ARC
  5
15E
330
110
100
AcDbEntity
  8
Skizziergeometrie MD
100
AcDbCircle
 10
0.7721555217741294
 20
-2.976116670697459
 30
0.0
 40
6.125719647533964
100
AcDbArc
 50
80.36604666376712
 51
86.20046585754947
  0
ARC
  5
15F
330
110
100
AcDbEntity
  8
Skizziergeometrie MD
100
AcDbCircle
 10
1.300926421886678
 20
1.404792030621893
 30
0.0
 40
1.731114441187764
100
AcDbArc
 50
52.62898263848888
 51
73.33687314972518
  0
ARC
  5
160
330
110
100
AcDbEntity
  8
Skizziergeometrie MD
100
AcDbCircle
 10
1.599181827341737
 20
0.9781497739148559
 30
0.0
 40
3.489118723013506
100
AcDbArc
 50
88.72473946245063
 51
103.3008820411695
  0
ARC
  5
161
330
110
100
AcDbEntity
  8
Skizziergeometrie MD
100
AcDbCircle
 10
1.416777691150352
 20
0.3571482201301368
 30
0.0
 40
3.527083637447387
100
AcDbArc
 50
77.40400383706507
 51
93.66514609241674
  0
ARC
  5
162
330
110
100
AcDbEntity
  8
Skizziergeometrie MD
100
AcDbCircle
 10
1.554730757859816
 20
1.247827127453415
 30
0.0
 40
3.220892458778597
100
AcDbArc
 50
68.35600108479933
 51
87.82740230149334
  0
LINE
  5
163
330
110
100
AcDbEntity
  8
Skizziergeometrie MD
100
AcDbLine
 10
2.742719719200037
 20
4.241625794490104
 30
0.0
 11
2.742719719200055
 21
3.650537934441837
 31
0.0
  0
LINE
  5
164
330
110
100
AcDbEntity
  8
Skizziergeometrie MD
100
AcDbLine
 10
2.688874901408508
 20
-1.219268496928362
 30
0.0
 11
0.6573565815884752
 21
-1.219268496928371
 31
0.0
  0
LINE
  5
165
330
110
100
AcDbEntity
  8
Skizziergeometrie MD
100
AcDbLine
 10
2.688874901408526
 20
-2.379268496928341
 30
0.0
 11
2.688874901408508
 21
-1.219268496928362
 31
0.0
  0
LINE
  5
166
330
110
100
AcDbEntity
  8
Skizziergeometrie MD
100
AcDbLine
 10
2.688874901408526
 20
-2.379268496928341
 30
0.0
 11
0.8893565815884318
 21
-2.379268496928359
 31
0.0
  0
LINE
  5
167
330
110
100
AcDbEntity
  8
Skizziergeometrie MD
100
AcDbLine
 10
1.817356581588418
 20
-2.959268496928331
 30
0.0
 11
3.500874901408499
 21
-2.95926849692834
 31
0.0
  0
LINE
  5
168
330
110
100
AcDbEntity
  8
Skizziergeometrie MD
100
AcDbLine
 10
0.8893565815884318
 20
-3.307268496928346
 30
0.0
 11
1.817356581588418
 21
-3.307268496928355
 31
0.0
  0
LINE
  5
169
330
110
100
AcDbEntity
  8
Skizziergeometrie MD
100
AcDbLine
 10
1.817356581588418
 20
-3.307268496928355
 30
0.0
 11
1.817356581588418
 21
-2.959268496928331
 31
0.0
  0
LINE
  5
16A
330
110
100
AcDbEntity
  8
Skizziergeometrie MD
100
AcDbLine
 10
0.6573565815884752
 20
-4.467268496928378
 30
0.0
 11
3.500874901408517
 21
-4.467268496928369
 31
0.0
  0
LINE
  5
16B
330
110
100
AcDbEntity
  8
Skizziergeometrie MD
100
AcDbLine
 10
3.500874901408517
 20
-4.467268496928369
 30
0.0
 11
3.500874901408499
 21
-2.95926849692834
 31
0.0
  0
ARC
  5
16C
330
110
100
AcDbEntity
  8
Skizziergeometrie MD
100
AcDbCircle
 10
1.875785543114636
 20
2.03206126536811
 30
0.0
 40
0.8831780097769998
100
AcDbArc
 50
359.5885658598925
 51
19.08266927892371
  0
ARC
  5
16D
330
110
100
AcDbEntity
  8
Skizziergeometrie MD
100
AcDbCircle
 10
0.4170168105697148
 20
1.957458605867339
 30
0.0
 40
2.342918567867507
100
AcDbArc
 50
350.8565973958879
 51
1.669543553118977
  0
ARC
  5
16E
330
110
100
AcDbEntity
  8
Skizziergeometrie MD
100
AcDbCircle
 10
1.590722106467152
 20
2.425830006947373
 30
0.0
 40
1.471668828572101
100
AcDbArc
 50
288.9241660710607
 51
312.7158447178804
  0
ARC
  5
16F
330
110
100
AcDbEntity
  8
Skizziergeometrie MD
100
AcDbCircle
 10
2.227631046772247
 20
1.718219924609538
 30
0.0
 40
0.5198531530168706
100
AcDbArc
 50
314.0454032738024
 51
345.1691195883126
  0
LINE
  5
170
330
110
100
AcDbEntity
  8
Skizziergeometrie MD
100
AcDbLine
 10
5.337480586207279
 20
0.9547576414194836
 30
0.0
 11
4.351480586207303
 21
2.976357229216644
 31
0.0
  0
LINE
  5
171
330
110
100
AcDbEntity
  8
Skizziergeometrie MD
100
AcDbLine
 10
4.699480586207256
 20
4.434757641419482
 30
0.0
 11
3.539480586207313
 21
4.434757641419482
 31
0.0
  0
LINE
  5
172
330
110
100
AcDbEntity
  8
Skizziergeometrie MD
100
AcDbLine
 10
3.539480586207313
 20
4.434757641419482
 30
0.0
 11
3.539480586207313
 21
0.9547576414194836
 31
0.0
  0
ARC
  5
173
330
110
100
AcDbEntity
  8
Skizziergeometrie MD
100
AcDbCircle
 10
1.475335568508091
 20
0.0244551266269433
 30
0.0
 40
3.841189804547012
100
AcDbArc
 50
70.73451881267041
 51
79.33900531294185
  0
ARC
  5
174
330
110
100
AcDbEntity
  8
Skizziergeometrie MD
100
AcDbCircle
 10
1.483150225724392
 20
1.732943934507451
 30
0.0
 40
1.360806176159391
100
AcDbArc
 50
25.59400450827445
 51
50.3394820629451
  0
LINE
  5
175
330
110
100
AcDbEntity
  8
Skizziergeometrie MD
100
AcDbLine
 10
4.351480586207303
 20
2.976357229216644
 30
0.0
 11
4.351480586207321
 21
0.9547576414194747
 31
0.0
  0
LINE
  5
176
330
110
100
AcDbEntity
  8
Skizziergeometrie MD
100
AcDbLine
 10
7.947480586207307
 20
0.9547576414194836
 30
0.0
 11
7.947480586207307
 21
4.434757641419482
 31
0.0
  0
LINE
  5
177
330
110
100
AcDbEntity
  8
Skizziergeometrie MD
100
AcDbLine
 10
9.450578096472836
 20
0.9547576414195013
 30
0.0
 11
9.70390137952207
 21
1.650757641419513
 31
0.0
  0
LINE
  5
178
330
110
100
AcDbEntity
  8
Skizziergeometrie MD
100
AcDbLine
 10
8.522578096472779
 20
0.9547576414194836
 30
0.0
 11
9.789194511719214
 21
4.434757641419473
 31
0.0
  0
LINE
  5
179
330
110
100
AcDbEntity
  8
Skizziergeometrie MD
100
AcDbLine
 10
7.135480586207316
 20
0.9547576414194836
 30
0.0
 11
7.947480586207307
 21
0.9547576414194836
 31
0.0
  0
LINE
  5
17A
330
110
100
AcDbEntity
  8
Skizziergeometrie MD
100
AcDbLine
 10
7.135480586207316
 20
0.9547576414194836
 30
0.0
 11
7.135480586207316
 21
2.97635722921667
 31
0.0
  0
LINE
  5
17B
330
110
100
AcDbEntity
  8
Skizziergeometrie MD
100
AcDbLine
 10
6.149480586207287
 20
0.9547576414194747
 30
0.0
 11
7.135480586207316
 21
2.97635722921667
 31
0.0
  0
LINE
  5
17C
330
110
100
AcDbEntity
  8
Skizziergeometrie MD
100
AcDbLine
 10
7.947480586207307
 20
4.434757641419482
 30
0.0
 11
6.787480586207292
 21
4.434757641419473
 31
0.0
  0
LINE
  5
17D
330
110
100
AcDbEntity
  8
Skizziergeometrie MD
100
AcDbLine
 10
5.337480586207279
 20
0.9547576414194836
 30
0.0
 11
6.149480586207287
 21
0.9547576414194747
 31
0.0
  0
LINE
  5
17E
330
110
100
AcDbEntity
  8
Skizziergeometrie MD
100
AcDbLine
 10
6.787480586207292
 20
4.434757641419473
 30
0.0
 11
5.74348058620731
 21
2.29424043081071
 31
0.0
  0
LINE
  5
17F
330
110
100
AcDbEntity
  8
Skizziergeometrie MD
100
AcDbLine
 10
5.74348058620731
 20
2.29424043081071
 30
0.0
 11
4.699480586207256
 21
4.434757641419482
 31
0.0
  0
LINE
  5
180
330
110
100
AcDbEntity
  8
Skizziergeometrie MD
100
AcDbLine
 10
8.522578096472779
 20
0.9547576414194836
 30
0.0
 11
9.450578096472836
 21
0.9547576414195013
 31
0.0
  0
LINE
  5
181
330
110
100
AcDbEntity
  8
Skizziergeometrie MD
100
AcDbLine
 10
9.87278356822169
 20
2.11475764141948
 30
0.0
 11
10.43667847483362
 21
3.664046164281389
 31
0.0
  0
LINE
  5
182
330
110
100
AcDbEntity
  8
Skizziergeometrie MD
100
AcDbLine
 10
9.87278356822169
 20
2.11475764141948
 30
0.0
 11
11.00057338144558
 21
2.114757641419497
 31
0.0
  0
LINE
  5
183
330
110
100
AcDbEntity
  8
Skizziergeometrie MD
100
AcDbLine
 10
9.789194511719214
 20
4.434757641419473
 30
0.0
 11
11.08416243794797
 21
4.434757641419482
 31
0.0
  0
LINE
  5
184
330
110
100
AcDbEntity
  8
Skizziergeometrie MD
100
AcDbLine
 10
9.70390137952207
 20
1.650757641419513
 30
0.0
 11
11.16945557014513
 21
1.650757641419478
 31
0.0
  0
LINE
  5
185
330
110
100
AcDbEntity
  8
Skizziergeometrie MD
100
AcDbLine
 10
11.00057338144558
 20
2.114757641419497
 30
0.0
 11
10.43667847483362
 21
3.664046164281389
 31
0.0
  0
LINE
  5
186
330
110
100
AcDbEntity
  8
Skizziergeometrie MD
100
AcDbLine
 10
11.42277885319431
 20
0.9547576414195013
 30
0.0
 11
11.16945557014513
 21
1.650757641419478
 31
0.0
  0
LINE
  5
187
330
110
100
AcDbEntity
  8
Skizziergeometrie MD
100
AcDbLine
 10
12.3507788531944
 20
0.9547576414194836
 30
0.0
 11
11.08416243794797
 21
4.434757641419482
 31
0.0
  0
LINE
  5
188
330
110
100
AcDbEntity
  8
Skizziergeometrie MD
100
AcDbLine
 10
11.42277885319431
 20
0.9547576414195013
 30
0.0
 11
12.3507788531944
 21
0.9547576414194836
 31
0.0
  0
LINE
  5
189
330
110
100
AcDbEntity
  8
Skizziergeometrie MD
100
AcDbLine
 10
15.43554071146526
 20
0.9547576414194836
 30
0.0
 11
16.36354071146521
 21
0.9547576414194658
 31
0.0
  0
LINE
  5
18A
330
110
100
AcDbEntity
  8
Skizziergeometrie MD
100
AcDbLine
 10
16.36354071146523
 20
4.434757641419473
 30
0.0
 11
15.43554071146521
 21
4.4347576414195
 31
0.0
  0
LINE
  5
18B
330
110
100
AcDbEntity
  8
Skizziergeometrie MD
100
AcDbLine
 10
12.88354071146519
 20
4.434757641419491
 30
0.0
 11
12.8835407114652
 21
0.9547576414194836
 31
0.0
  0
LINE
  5
18C
330
110
100
AcDbEntity
  8
Skizziergeometrie MD
100
AcDbLine
 10
13.81154071146526
 20
2.738521983593473
 30
0.0
 11
13.81154071146526
 21
0.954757641419448
 31
0.0
  0
LINE
  5
18D
330
110
100
AcDbEntity
  8
Skizziergeometrie MD
100
AcDbLine
 10
12.8835407114652
 20
0.9547576414194836
 30
0.0
 11
13.81154071146526
 21
0.954757641419448
 31
0.0
  0
LINE
  5
18E
330
110
100
AcDbEntity
  8
Skizziergeometrie MD
100
AcDbLine
 10
13.81154071146526
 20
4.434757641419482
 30
0.0
 11
12.88354071146519
 21
4.434757641419491
 31
0.0
  0
LINE
  5
18F
330
110
100
AcDbEntity
  8
Skizziergeometrie MD
100
AcDbLine
 10
13.81154071146526
 20
2.738521983593473
 30
0.0
 11
15.43554071146526
 21
0.9547576414194836
 31
0.0
  0
LINE
  5
190
330
110
100
AcDbEntity
  8
Skizziergeometrie MD
100
AcDbLine
 10
13.81154071146526
 20
4.434757641419482
 30
0.0
 11
15.43554071146524
 21
2.294240430810701
 31
0.0
  0
LINE
  5
191
330
110
100
AcDbEntity
  8
Skizziergeometrie MD
100
AcDbLine
 10
15.43554071146521
 20
4.4347576414195
 30
0.0
 11
15.43554071146524
 21
2.294240430810701
 31
0.0
  0
LINE
  5
192
330
110
100
AcDbEntity
  8
Skizziergeometrie MD
100
AcDbLine
 10
16.36354071146523
 20
4.434757641419473
 30
0.0
 11
16.36354071146521
 21
0.9547576414194658
 31
0.0
  0
LINE
  5
193
330
110
100
AcDbEntity
  8
Skizziergeometrie MD
100
AcDbLine
 10
17.10111226087508
 20
4.4347576414195
 30
0.0
 11
17.1011122608751
 21
0.9547576414194924
 31
0.0
  0
LINE
  5
194
330
110
100
AcDbEntity
  8
Skizziergeometrie MD
100
AcDbLine
 10
18.02911226087512
 20
4.434757641419517
 30
0.0
 11
17.10111226087508
 21
4.4347576414195
 31
0.0
  0
LINE
  5
195
330
110
100
AcDbEntity
  8
Skizziergeometrie MD
100
AcDbLine
 10
17.1011122608751
 20
0.9547576414194924
 30
0.0
 11
18.02911226087514
 21
0.9547576414194658
 31
0.0
  0
LINE
  5
196
330
110
100
AcDbEntity
  8
Skizziergeometrie MD
100
AcDbLine
 10
18.02911226087516
 20
2.738521983593464
 30
0.0
 11
18.02911226087514
 21
0.9547576414194658
 31
0.0
  0
LINE
  5
197
330
110
100
AcDbEntity
  8
Skizziergeometrie MD
100
AcDbLine
 10
18.02911226087516
 20
2.738521983593464
 30
0.0
 11
19.65311226087514
 21
0.9547576414194658
 31
0.0
  0
LINE
  5
198
330
110
100
AcDbEntity
  8
Skizziergeometrie MD
100
AcDbLine
 10
18.02911226087512
 20
4.434757641419517
 30
0.0
 11
19.65311226087512
 21
2.294240430810718
 31
0.0
  0
LINE
  5
199
330
110
100
AcDbEntity
  8
Skizziergeometrie MD
100
AcDbLine
 10
19.65311226087512
 20
4.434757641419491
 30
0.0
 11
19.65311226087512
 21
2.294240430810718
 31
0.0
  0
LINE
  5
19A
330
110
100
AcDbEntity
  8
Skizziergeometrie MD
100
AcDbLine
 10
20.58111226087505
 20
4.434757641419491
 30
0.0
 11
20.58111226087511
 21
0.9547576414194747
 31
0.0
  0
LINE
  5
19B
330
110
100
AcDbEntity
  8
Skizziergeometrie MD
100
AcDbLine
 10
20.58111226087505
 20
4.434757641419491
 30
0.0
 11
19.65311226087512
 21
4.434757641419491
 31
0.0
  0
LINE
  5
19C
330
110
100
AcDbEntity
  8
Skizziergeometrie MD
100
AcDbLine
 10
19.65311226087514
 20
0.9547576414194658
 30
0.0
 11
20.58111226087511
 21
0.9547576414194747
 31
0.0
  0
LINE
  5
19D
330
110
100
AcDbEntity
  8
Skizziergeometrie MD
100
AcDbLine
 10
-11.78114689185111
 20
-1.219268496928345
 30
0.0
 11
-15.37714689185112
 21
-1.219268496928354
 31
0.0
  0
LINE
  5
19E
330
110
100
AcDbEntity
  8
Skizziergeometrie MD
100
AcDbLine
 10
-11.78114689185111
 20
-1.219268496928345
 30
0.0
 11
-11.78114689185112
 21
-1.915268496928366
 31
0.0
  0
LINE
  5
19F
330
110
100
AcDbEntity
  8
Skizziergeometrie MD
100
AcDbLine
 10
-11.78114689185112
 20
-1.915268496928366
 30
0.0
 11
-13.98514689185111
 21
-1.915268496928348
 31
0.0
  0
LINE
  5
1A0
330
110
100
AcDbEntity
  8
Skizziergeometrie MD
100
AcDbLine
 10
-13.98514689185111
 20
-1.915268496928348
 30
0.0
 11
-13.98514689185111
 21
-2.611268496928333
 31
0.0
  0
LINE
  5
1A1
330
110
100
AcDbEntity
  8
Skizziergeometrie MD
100
AcDbLine
 10
-12.12914689185107
 20
-2.611268496928342
 30
0.0
 11
-13.98514689185111
 21
-2.611268496928333
 31
0.0
  0
LINE
  5
1A2
330
110
100
AcDbEntity
  8
Skizziergeometrie MD
100
AcDbLine
 10
-12.12914689185107
 20
-2.611268496928342
 30
0.0
 11
-12.12914689185106
 21
-3.075268496928362
 31
0.0
  0
LINE
  5
1A3
330
110
100
AcDbEntity
  8
Skizziergeometrie MD
100
AcDbLine
 10
-13.98514689185111
 20
-3.075268496928345
 30
0.0
 11
-12.12914689185106
 21
-3.075268496928362
 31
0.0
  0
LINE
  5
1A4
330
110
100
AcDbEntity
  8
Skizziergeometrie MD
100
AcDbLine
 10
-13.98514689185111
 20
-3.075268496928345
 30
0.0
 11
-13.98514689185111
 21
-3.77126849692833
 31
0.0
  0
LINE
  5
1A5
330
110
100
AcDbEntity
  8
Skizziergeometrie MD
100
AcDbLine
 10
-13.98514689185111
 20
-3.77126849692833
 30
0.0
 11
-11.78114689185111
 21
-3.771268496928339
 31
0.0
  0
LINE
  5
1A6
330
110
100
AcDbEntity
  8
Skizziergeometrie MD
100
AcDbLine
 10
-11.78114689185111
 20
-3.771268496928339
 30
0.0
 11
-11.78114689185112
 21
-4.46726849692836
 31
0.0
  0
LINE
  5
1A7
330
110
100
AcDbEntity
  8
Skizziergeometrie MD
100
AcDbLine
 10
-15.37714689185111
 20
-4.467268496928378
 30
0.0
 11
-11.78114689185112
 21
-4.46726849692836
 31
0.0
  0
LINE
  5
1A8
330
110
100
AcDbEntity
  8
Skizziergeometrie MD
100
AcDbLine
 10
-6.449957764664384
 20
-1.219268496928345
 30
0.0
 11
-7.609957764664416
 21
-1.219268496928362
 31
0.0
  0
LINE
  5
1A9
330
110
100
AcDbEntity
  8
Skizziergeometrie MD
100
AcDbLine
 10
-7.377957764664442
 20
-4.467268496928369
 30
0.0
 11
-6.449957764664366
 21
-4.467268496928369
 31
0.0
  0
LINE
  5
1AA
330
110
100
AcDbEntity
  8
Skizziergeometrie MD
100
AcDbLine
 10
-8.537957764664385
 20
-2.611268496928325
 30
0.0
 11
-7.609957764664416
 21
-1.219268496928362
 31
0.0
  0
LINE
  5
1AB
330
110
100
AcDbEntity
  8
Skizziergeometrie MD
100
AcDbLine
 10
-9.465957764664354
 20
-1.219268496928362
 30
0.0
 11
-8.537957764664385
 21
-2.611268496928325
 31
0.0
  0
LINE
  5
1AC
330
110
100
AcDbEntity
  8
Skizziergeometrie MD
100
AcDbLine
 10
-10.62595776466438
 20
-1.219268496928345
 30
0.0
 11
-10.6259577646644
 21
-4.46726849692836
 31
0.0
  0
LINE
  5
1AD
330
110
100
AcDbEntity
  8
Skizziergeometrie MD
100
AcDbLine
 10
-10.6259577646644
 20
-4.46726849692836
 30
0.0
 11
-9.697957764664435
 21
-4.46726849692836
 31
0.0
  0
LINE
  5
1AE
330
110
100
AcDbEntity
  8
Skizziergeometrie MD
100
AcDbLine
 10
-9.465957764664354
 20
-1.219268496928362
 30
0.0
 11
-10.62595776466438
 21
-1.219268496928345
 31
0.0
  0
LINE
  5
1AF
330
110
100
AcDbEntity
  8
Skizziergeometrie MD
100
AcDbLine
 10
-9.697957764664417
 20
-3.017268496928302
 30
0.0
 11
-9.697957764664435
 21
-4.46726849692836
 31
0.0
  0
LINE
  5
1B0
330
110
100
AcDbEntity
  8
Skizziergeometrie MD
100
AcDbLine
 10
-9.697957764664417
 20
-3.017268496928302
 30
0.0
 11
-8.537957764664385
 21
-4.46726849692836
 31
0.0
  0
LINE
  5
1B1
330
110
100
AcDbEntity
  8
Skizziergeometrie MD
100
AcDbLine
 10
-7.377957764664442
 20
-3.0172684969284
 30
0.0
 11
-7.377957764664442
 21
-4.467268496928369
 31
0.0
  0
LINE
  5
1B2
330
110
100
AcDbEntity
  8
Skizziergeometrie MD
100
AcDbLine
 10
-6.449957764664384
 20
-1.219268496928345
 30
0.0
 11
-6.449957764664366
 21
-4.467268496928369
 31
0.0
  0
LINE
  5
1B3
330
110
100
AcDbEntity
  8
Skizziergeometrie MD
100
AcDbLine
 10
-5.781055442448335
 20
-4.46726849692836
 30
0.0
 11
-4.389055442448333
 21
-4.46726849692836
 31
0.0
  0
LINE
  5
1B4
330
110
100
AcDbEntity
  8
Skizziergeometrie MD
100
AcDbLine
 10
-5.781055442448335
 20
-4.46726849692836
 30
0.0
 11
-4.389055442448333
 21
-4.46726849692836
 31
0.0
  0
LINE
  5
1B5
330
110
100
AcDbEntity
  8
Skizziergeometrie MD
100
AcDbLine
 10
-5.781055442448335
 20
-4.46726849692836
 30
0.0
 11
-4.389055442448333
 21
-4.46726849692836
 31
0.0
  0
LINE
  5
1B6
330
110
100
AcDbEntity
  8
Skizziergeometrie MD
100
AcDbLine
 10
-4.389055442448333
 20
-1.219268496928362
 30
0.0
 11
-5.781055442448335
 21
-4.46726849692836
 31
0.0
  0
LINE
  5
1B7
330
110
100
AcDbEntity
  8
Skizziergeometrie MD
100
AcDbLine
 10
-4.389055442448333
 20
-1.219268496928362
 30
0.0
 11
-5.781055442448335
 21
-4.46726849692836
 31
0.0
  0
LINE
  5
1B8
330
110
100
AcDbEntity
  8
Skizziergeometrie MD
100
AcDbLine
 10
-5.781055442448335
 20
-4.46726849692836
 30
0.0
 11
-4.389055442448333
 21
-1.219268496928362
 31
0.0
  0
LINE
  5
1B9
330
110
100
AcDbEntity
  8
Skizziergeometrie MD
100
AcDbLine
 10
-8.537957764664385
 20
-4.46726849692836
 30
0.0
 11
-7.377957764664442
 21
-3.0172684969284
 31
0.0
  0
ARC
  5
1BA
330
110
100
AcDbEntity
  8
Skizziergeometrie MD
100
AcDbCircle
 10
0.8893565815884318
 20
-2.843268496928352
 30
0.0
 40
0.4639999999999872
100
AcDbArc
 50
90.0
 51
270.0
  0
ARC
  5
1BB
330
110
100
AcDbEntity
  8
Skizziergeometrie MD
100
AcDbCircle
 10
0.6573565815884752
 20
-2.84326849692837
 30
0.0
 40
1.623999999999999
100
AcDbArc
 50
90.0
 51
270.0
  0
LINE
  5
1BC
330
110
100
AcDbEntity
  8
Skizziergeometrie MD
100
AcDbLine
 10
-2.533055442448288
 20
-4.46726849692836
 30
0.0
 11
-1.141055442448299
 21
-4.467268496928351
 31
0.0
  0
LINE
  5
1BD
330
110
100
AcDbEntity
  8
Skizziergeometrie MD
100
AcDbLine
 10
-2.533055442448288
 20
-4.46726849692836
 30
0.0
 11
-1.141055442448299
 21
-4.467268496928351
 31
0.0
  0
LINE
  5
1BE
330
110
100
AcDbEntity
  8
Skizziergeometrie MD
100
AcDbLine
 10
-2.533055442448288
 20
-4.46726849692836
 30
0.0
 11
-1.141055442448299
 21
-4.467268496928351
 31
0.0
  0
LINE
  5
1BF
330
110
100
AcDbEntity
  8
Skizziergeometrie MD
100
AcDbLine
 10
-1.141055442448299
 20
-4.467268496928351
 30
0.0
 11
-2.533055442448306
 21
-1.219268496928362
 31
0.0
  0
LINE
  5
1C0
330
110
100
AcDbEntity
  8
Skizziergeometrie MD
100
AcDbLine
 10
-1.141055442448299
 20
-4.467268496928351
 30
0.0
 11
-2.533055442448306
 21
-1.219268496928362
 31
0.0
  0
LINE
  5
1C1
330
110
100
AcDbEntity
  8
Skizziergeometrie MD
100
AcDbLine
 10
-2.533055442448306
 20
-1.219268496928362
 30
0.0
 11
-1.141055442448299
 21
-4.467268496928351
 31
0.0
  0
LINE
  5
1C2
330
110
100
AcDbEntity
  8
Skizziergeometrie MD
100
AcDbLine
 10
-4.389055442448333
 20
-4.46726849692836
 30
0.0
 11
-4.182833220226145
 21
-4.003268496928358
 31
0.0
  0
LINE
  5
1C3
330
110
100
AcDbEntity
  8
Skizziergeometrie MD
100
AcDbLine
 10
-2.739277664670565
 20
-4.00326849692834
 30
0.0
 11
-2.533055442448288
 21
-4.46726849692836
 31
0.0
  0
LINE
  5
1C4
330
110
100
AcDbEntity
  8
Skizziergeometrie MD
100
AcDbLine
 10
-2.739277664670565
 20
-4.00326849692834
 30
0.0
 11
-2.533055442448288
 21
-4.46726849692836
 31
0.0
  0
LINE
  5
1C5
330
110
100
AcDbEntity
  8
Skizziergeometrie MD
100
AcDbLine
 10
-2.739277664670565
 20
-4.00326849692834
 30
0.0
 11
-2.533055442448288
 21
-4.46726849692836
 31
0.0
  0
LINE
  5
1C6
330
110
100
AcDbEntity
  8
Skizziergeometrie MD
100
AcDbLine
 10
-2.533055442448306
 20
-1.219268496928362
 30
0.0
 11
-3.362036082440118
 21
-1.219268496928362
 31
0.0
  0
LINE
  5
1C7
330
110
100
AcDbEntity
  8
Skizziergeometrie MD
100
AcDbLine
 10
-3.461055442448364
 20
-2.379268496928377
 30
0.0
 11
-2.976433220226093
 21
-3.469668496928353
 31
0.0
  0
LINE
  5
1C8
330
110
100
AcDbEntity
  8
Skizziergeometrie MD
100
AcDbLine
 10
-3.945677664670599
 20
-3.469668496928379
 30
0.0
 11
-3.461055442448364
 21
-2.379268496928377
 31
0.0
  0
LINE
  5
1C9
330
110
100
AcDbEntity
  8
Skizziergeometrie MD
100
AcDbLine
 10
-4.389055442448333
 20
-1.219268496928362
 30
0.0
 11
-2.533055442448306
 21
-1.219268496928362
 31
0.0
  0
LINE
  5
1CA
330
110
100
AcDbEntity
  8
Skizziergeometrie MD
100
AcDbLine
 10
-3.810046114701153
 20
-1.219268496928362
 30
0.0
 11
-4.389055442448333
 21
-1.219268496928362
 31
0.0
  0
LINE
  5
1CB
330
110
100
AcDbEntity
  8
Skizziergeometrie MD
100
AcDbLine
 10
-3.945677664670599
 20
-3.469668496928379
 30
0.0
 11
-2.976433220226093
 21
-3.469668496928353
 31
0.0
  0
LINE
  5
1CC
330
110
100
AcDbEntity
  8
Skizziergeometrie MD
100
AcDbLine
 10
-4.182833220226145
 20
-4.003268496928358
 30
0.0
 11
-2.739277664670565
 21
-4.00326849692834
 31
0.0
  0
LINE
  5
1CD
330
110
100
AcDbEntity
  8
Skizziergeometrie MD
100
AcDbLine
 10
-4.182833220226145
 20
-4.003268496928358
 30
0.0
 11
-2.739277664670565
 21
-4.00326849692834
 31
0.0
  0
LINE
  5
1CE
330
110
100
AcDbEntity
  8
Skizziergeometrie MD
100
AcDbLine
 10
-4.182833220226145
 20
-4.003268496928358
 30
0.0
 11
-2.739277664670565
 21
-4.00326849692834
 31
0.0
  0
LINE
  5
1CF
330
110
100
AcDbEntity
  8
Skizziergeometrie MD
100
AcDbLine
 10
-4.389055442448333
 20
-4.46726849692836
 30
0.0
 11
-4.182833220226145
 21
-4.003268496928358
 31
0.0
  0
LINE
  5
1D0
330
110
100
AcDbEntity
  8
Skizziergeometrie MD
100
AcDbLine
 10
-4.389055442448333
 20
-4.46726849692836
 30
0.0
 11
-4.182833220226145
 21
-4.003268496928358
 31
0.0
  0
LINE
  5
1D1
330
110
100
AcDbEntity
  8
Skizziergeometrie MD
100
AcDbLine
 10
-15.37714689185112
 20
-1.219268496928354
 30
0.0
 11
-15.37714689185111
 21
-4.467268496928378
 31
0.0
  0
ARC
  5
1D2
330
110
100
AcDbEntity
  8
Skizziergeometrie MD
100
AcDbCircle
 10
-17.7971122608751
 20
-2.843268496928343
 30
0.0
 40
1.623999999999999
100
AcDbArc
 50
270.0
 51
90.0
  0
ARC
  5
1D3
330
110
100
AcDbEntity
  8
Skizziergeometrie MD
100
AcDbCircle
 10
-18.26111226087508
 20
-2.843268496928352
 30
0.0
 40
0.4639999999999873
100
AcDbArc
 50
270.0
 51
90.0
  0
LINE
  5
1D4
330
110
100
AcDbEntity
  8
Skizziergeometrie MD
100
AcDbLine
 10
-19.1891122608751
 20
-3.307268496928346
 30
0.0
 11
-18.26111226087514
 21
-3.307268496928346
 31
0.0
  0
LINE
  5
1D5
330
110
100
AcDbEntity
  8
Skizziergeometrie MD
100
AcDbLine
 10
-18.26111226087513
 20
-2.379268496928368
 30
0.0
 11
-19.1891122608751
 21
-2.379268496928368
 31
0.0
  0
LINE
  5
1D6
330
110
100
AcDbEntity
  8
Skizziergeometrie MD
100
AcDbLine
 10
-19.1891122608751
 20
-2.379268496928368
 30
0.0
 11
-19.1891122608751
 21
-3.307268496928346
 31
0.0
  0
LINE
  5
1D7
330
110
100
AcDbEntity
  8
Skizziergeometrie MD
100
AcDbLine
 10
-20.58111226087511
 20
-4.467268496928351
 30
0.0
 11
-17.7971122608751
 21
-4.467268496928342
 31
0.0
  0
LINE
  5
1D8
330
110
100
AcDbEntity
  8
Skizziergeometrie MD
100
AcDbLine
 10
-17.79711226087509
 20
-1.219268496928345
 30
0.0
 11
-20.58111226087511
 21
-1.219268496928354
 31
0.0
  0
LINE
  5
1D9
330
110
100
AcDbEntity
  8
Skizziergeometrie MD
100
AcDbLine
 10
-20.58111226087511
 20
-1.219268496928354
 30
0.0
 11
-20.58111226087511
 21
-4.467268496928351
 31
0.0
  0
ENDBLK
  5
112
330
110
100
AcDbEntity
  8
0
100
AcDbBlockEnd
  0
BLOCK
  5
1DB
330
1DA
100
AcDbEntity
  8
0
100
AcDbBlockBegin
  2
Text 5 Zeilen
 70
     2
 10
0.0
 20
0.0
 30
0.0
  3
Text 5 Zeilen
  1

  0
ATTDEF
  5
1DD
330
1DA
100
AcDbEntity
  8
Symbol MD
100
AcDbText
 10
-2.448051869869232
 20
10.25000002980231
 30
0.0
 40
3.499999940395355
  1
3x
  7
Notiztext MD
 11
-2.448051869869232
 21
13.74999997019767
 31
0.0
100
AcDbAttributeDefinition
280
     0
  3
Text_Zeile_1
  2
Text_Zeile_1
 70
     0
 74
     3
280
     0
 71
     4
 72
     0
 11
-2.448051869869232
 21
13.74999997019767
 31
0.0
101
Embedded Object
 10
-2.448051869869232
 20
13.74999997019767
 30
0.0
 40
3.499999940395355
 41
0.0
 46
0.0
 71
     1
 72
     5
  1
3x
  7
Notiztext MD
 73
     1
 44
1.0
  0
ATTDEF
  5
1DE
330
1DA
100
AcDbEntity
  8
Symbol MD
100
AcDbText
 10
-2.448051869869214
 20
4.250000029802318
 30
0.0
 40
3.499999940395355
  1

  7
Notiztext MD
 11
-2.448051869869214
 21
7.749999970197674
 31
0.0
100
AcDbAttributeDefinition
280
     0
  3
Text_Zeile_2
  2
Text_Zeile_2
 70
     0
 74
     3
280
     0
 71
     4
 72
     0
 11
-2.448051869869214
 21
7.749999970197674
 31
0.0
101
Embedded Object
 10
-2.448051869869214
 20
7.749999970197674
 30
0.0
 40
3.499999940395355
 41
0.0
 46
0.0
 71
     1
 72
     5
  1

  7
Notiztext MD
 73
     1
 44
1.0
  0
ATTDEF
  5
1DF
330
1DA
100
AcDbEntity
  8
Symbol MD
100
AcDbText
 10
-2.448051869869214
 20
-1.749999970197677
 30
0.0
 40
3.499999940395355
  1

  7
Notiztext MD
 11
-2.448051869869214
 21
1.749999970197677
 31
0.0
100
AcDbAttributeDefinition
280
     0
  3
Text_Zeile_3
  2
Text_Zeile_3
 70
     0
 74
     3
280
     0
 71
     4
 72
     0
 11
-2.448051869869214
 21
1.749999970197677
 31
0.0
101
Embedded Object
 10
-2.448051869869214
 20
1.749999970197677
 30
0.0
 40
3.499999940395355
 41
0.0
 46
0.0
 71
     1
 72
     5
  1

  7
Notiztext MD
 73
     1
 44
1.0
  0
ATTDEF
  5
1E0
330
1DA
100
AcDbEntity
  8
Symbol MD
100
AcDbText
 10
-2.448051869869214
 20
-7.749999970197674
 30
0.0
 40
3.499999940395355
  1

  7
Notiztext MD
 11
-2.448051869869214
 21
-4.250000029802318
 31
0.0
100
AcDbAttributeDefinition
280
     0
  3
Text_Zeile_4
  2
Text_Zeile_4
 70
     0
 74
     3
280
     0
 71
     4
 72
     0
 11
-2.448051869869214
 21
-4.250000029802318
 31
0.0
101
Embedded Object
 10
-2.448051869869214
 20
-4.250000029802318
 30
0.0
 40
3.499999940395355
 41
0.0
 46
0.0
 71
     1
 72
     5
  1

  7
Notiztext MD
 73
     1
 44
1.0
  0
ATTDEF
  5
1E1
330
1DA
100
AcDbEntity
  8
Symbol MD
100
AcDbText
 10
-2.448051869869214
 20
-13.74999997019767
 30
0.0
 40
3.499999940395355
  1

  7
Notiztext MD
 11
-2.448051869869214
 21
-10.25000002980231
 31
0.0
100
AcDbAttributeDefinition
280
     0
  3
Text_Zeile_5
  2
Text_Zeile_5
 70
     0
 74
     3
280
     0
 71
     4
 72
     0
 11
-2.448051869869214
 21
-10.25000002980231
 31
0.0
101
Embedded Object
 10
-2.448051869869214
 20
-10.25000002980231
 30
0.0
 40
3.499999940395355
 41
0.0
 46
0.0
 71
     1
 72
     5
  1

  7
Notiztext MD
 73
     1
 44
1.0
  0
ENDBLK
  5
1DC
330
1DA
100
AcDbEntity
  8
0
100
AcDbBlockEnd
  0
BLOCK
  5
1E3
330
1E2
100
AcDbEntity
  8
0
100
AcDbBlockBegin
  2
Anzugsmoment + Loctite ETL
 70
     2
 10
0.0
 20
0.0
 30
0.0
  3
Anzugsmoment + Loctite ETL
  1

  0
HATCH
  5
1EE
330
1E2
100
AcDbEntity
  8
Schraffur MD
100
AcDbHatch
 10
0.0
 20
0.0
 30
0.0
210
0.0
220
0.0
230
1.0
  2
SOLID
 70
     1
 71
     0
 91
        1
 92
        1
 93
        9
 72
     2
 10
-9.086737237182358
 20
13.74168988756382
 40
8.0
 50
214.1930771251396
 51
243.2099568642829
 73
     1
 72
     1
 10
-12.69251659926716
 20
6.600376619546284
 11
-10.33229405907887
 21
8.960599159734572
 72
     2
 10
-14.19599736423515
 20
7.925322979324489
 40
4.0
 50
344.9999999999999
 51
472.9756871629578
 73
     0
 72
     1
 10
-15.7573593128807
 20
4.242640687119285
 11
-19.99999999999999
 21
0.0
 72
     1
 10
-19.99999999999999
 20
0.0
 11
-20.49999999999999
 21
0.0
 72
     4
 94
        4
 73
     0
 74
     0
 95
       10
 96
        5
 40
0.0
 40
0.0
 40
0.0
 40
0.0
 40
0.0
 40
1.0
 40
1.0
 40
1.0
 40
1.0
 40
1.0
 10
-20.5
 20
0.0000000000000178
 10
-21.92263084943602
 20
-0.3856372893018811
 10
-21.23524774414511
 20
1.831957815136684
 10
-22.37346536970233
 20
1.563310390801966
 10
-22.48532273418277
 20
2.464424734123085
 97
        0
 72
     1
 10
-22.48532273418275
 20
2.464424734123071
 11
-18.24268204706347
 21
6.707065421242357
 72
     2
 10
-14.37897874190719
 20
7.74234160165244
 40
4.0
 50
165.0
 51
285.0
 73
     0
 72
     1
 10
-13.34370256149711
 20
11.60604490680871
 11
-15.7039251016854
 21
9.245822366620426
 97
        0
 75
     0
 76
     1
 98
        1
 10
0.0
 20
0.0
450
        0
451
        0
460
0.0
461
0.0
452
        0
462
0.0
453
        0
470

  0
LINE
  5
1EF
330
1E2
100
AcDbEntity
  8
Skizziergeometrie MD
100
AcDbLine
 10
-13.34370256149711
 20
11.60604490680871
 30
0.0
 11
-15.7039251016854
 21
9.245822366620428
 31
0.0
  0
LINE
  5
1F0
330
1E2
100
AcDbEntity
  8
Skizziergeometrie MD
100
AcDbLine
 10
-12.69251659926716
 20
6.600376619546284
 30
0.0
 11
-10.33229405907887
 21
8.960599159734572
 31
0.0
  0
ARC
  5
1F1
330
1E2
100
AcDbEntity
  8
Skizziergeometrie MD
100
AcDbCircle
 10
-14.37897874190719
 20
7.74234160165244
 30
0.0
 40
4.0
100
AcDbArc
 50
75.0
 51
194.9999999999999
  0
ARC
  5
1F2
330
1E2
100
AcDbEntity
  8
Skizziergeometrie MD
100
AcDbCircle
 10
-14.19599736423515
 20
7.925322979324489
 30
0.0
 40
4.0
100
AcDbArc
 50
247.0243128370421
 51
14.99999999999995
  0
LINE
  5
1F3
330
1E2
100
AcDbEntity
  8
Skizziergeometrie MD
100
AcDbLine
 10
-18.24268204706347
 20
6.707065421242357
 30
0.0
 11
-22.48532273418275
 21
2.464424734123071
 31
0.0
  0
LINE
  5
1F4
330
1E2
100
AcDbEntity
  8
Skizziergeometrie MD
100
AcDbLine
 10
-15.7573593128807
 20
4.242640687119285
 30
0.0
 11
-19.99999999999999
 21
0.0
 31
0.0
  0
ARC
  5
1F5
330
1E2
100
AcDbEntity
  8
Skizziergeometrie MD
100
AcDbCircle
 10
-9.086737237182358
 20
13.74168988756382
 30
0.0
 40
8.0
100
AcDbArc
 50
214.1930771251396
 51
243.2099568642829
  0
LINE
  5
1F6
330
1E2
100
AcDbEntity
  8
Skizziergeometrie MD
100
AcDbLine
 10
-19.99999999999999
 20
0.0
 30
0.0
 11
-20.49999999999999
 21
0.0
 31
0.0
  0
SPLINE
  5
1F7
330
1E2
100
AcDbEntity
  8
Skizziergeometrie MD
100
AcDbSpline
210
0.0
220
0.0
230
1.0
 70
     8
 71
     4
 72
    10
 73
     5
 74
     0
 42
0.000000001
 43
0.0000000001
 40
0.0
 40
0.0
 40
0.0
 40
0.0
 40
0.0
 40
1.0
 40
1.0
 40
1.0
 40
1.0
 40
1.0
 10
-22.48532273418277
 20
2.464424734123085
 30
0.0
 10
-22.37346536970233
 20
1.563310390801966
 30
0.0
 10
-21.23524774414511
 20
1.831957815136684
 30
0.0
 10
-21.92263084943602
 20
-0.3856372893018811
 30
0.0
 10
-20.5
 20
0.0000000000000178
 30
0.0
  0
LINE
  5
1F8
330
1E2
100
AcDbEntity
  8
Skizziergeometrie MD
100
AcDbLine
 10
-21.5
 20
14.0
 30
0.0
 11
21.5
 21
14.0
 31
0.0
  0
LINE
  5
1F9
330
1E2
100
AcDbEntity
  8
Skizziergeometrie MD
100
AcDbLine
 10
26.5
 20
9.000000000000003
 30
0.0
 11
26.5
 21
-9.000000000000003
 31
0.0
  0
LINE
  5
1FA
330
1E2
100
AcDbEntity
  8
Skizziergeometrie MD
100
AcDbLine
 10
21.5
 20
-14.00000000000001
 30
0.0
 11
-21.5
 21
-14.00000000000001
 31
0.0
  0
LINE
  5
1FB
330
1E2
100
AcDbEntity
  8
Skizziergeometrie MD
100
AcDbLine
 10
-26.49999999999999
 20
-9.000000000000003
 30
0.0
 11
-26.5
 21
9.000000000000003
 31
0.0
  0
ARC
  5
1FC
330
1E2
100
AcDbEntity
  8
Skizziergeometrie MD
100
AcDbCircle
 10
-21.5
 20
-9.000000000000003
 30
0.0
 40
5.0
100
AcDbArc
 50
180.0
 51
270.0
  0
ARC
  5
1FD
330
1E2
100
AcDbEntity
  8
Skizziergeometrie MD
100
AcDbCircle
 10
-21.5
 20
9.000000000000003
 30
0.0
 40
5.0
100
AcDbArc
 50
90.0
 51
180.0
  0
ARC
  5
1FE
330
1E2
100
AcDbEntity
  8
Skizziergeometrie MD
100
AcDbCircle
 10
21.5
 20
9.000000000000003
 30
0.0
 40
5.0
100
AcDbArc
 50
0.0
 51
90.0
  0
ARC
  5
1FF
330
1E2
100
AcDbEntity
  8
Skizziergeometrie MD
100
AcDbCircle
 10
21.5
 20
-9.000000000000003
 30
0.0
 40
5.0
100
AcDbArc
 50
270.0
 51
0.0
  0
ATTDEF
  5
201
330
1E2
100
AcDbEntity
  8
Symbol MD
100
AcDbText
 10
0.2000004772096911
 20
2.000000000000001
 30
0.0
 40
6.99999988079071
  1
20
  7
Textstil33
 72
     2
 11
10.00000000000001
 21
8.999999880790712
 31
0.0
100
AcDbAttributeDefinition
280
     0
  3
Anzugsmoment
  2
Anzugsmoment
 70
     0
 74
     3
280
     0
 71
     4
 72
     0
 11
10.00000000000001
 21
8.999999880790712
 31
0.0
101
Embedded Object
 10
10.00000000000001
 20
8.999999880790712
 30
0.0
 40
6.99999988079071
 41
0.0
 46
0.0
 71
     3
 72
     5
  1
20
  7
Textstil33
 73
     1
 44
1.0
  0
MTEXT
  5
202
330
1E2
100
AcDbEntity
  8
Symbol MD
100
AcDbMText
 10
11.5
 20
2.000000000000001
 30
0.0
 40
6.99999988079071
 41
0.0
 46
0.0
 71
     7
 72
     1
  1
\fISOCPEUR|b0|i0;\H7.0000;Nm
  7
Notiztext MD
 73
     1
 44
1.0
  0
ATTDEF
  5
204
330
1E2
100
AcDbEntity
  8
Symbol MD
100
AcDbText
 10
6.500000000000003
 20
-10.00000023841858
 30
0.0
 40
6.000000238418579
  1
243
  7
Textstil34
 11
6.500000000000003
 21
-4.000000000000003
 31
0.0
100
AcDbAttributeDefinition
280
     0
  3
Loctite
  2
Loctite
 70
     0
 74
     3
280
     0
 71
     4
 72
     0
 11
6.500000000000003
 21
-4.000000000000003
 31
0.0
101
Embedded Object
 10
6.500000000000003
 20
-4.000000000000003
 30
0.0
 40
6.000000238418579
 41
0.0
 46
0.0
 71
     1
 72
     5
  1
243
  7
Textstil34
 73
     1
 44
1.0
  0
MTEXT
  5
205
330
1E2
100
AcDbEntity
  8
Symbol MD
100
AcDbMText
 10
-22.5
 20
-4.000000000000003
 30
0.0
 40
6.000000238418579
 41
0.0
 46
0.0
 71
     1
 72
     1
  1
\fISOCPEUR|b0|i0;\H6.0000;Loctite
  7
Notiztext MD
 73
     1
 44
1.0
  0
ENDBLK
  5
1E4
330
1E2
100
AcDbEntity
  8
0
100
AcDbBlockEnd
  0
BLOCK
  5
207
330
206
100
AcDbEntity
  8
0
100
AcDbBlockBegin
  2
Kopie von Text 5 Zeilen
 70
     2
 10
0.0
 20
0.0
 30
0.0
  3
Kopie von Text 5 Zeilen
  1

  0
ATTDEF
  5
209
330
206
100
AcDbEntity
  8
Symbol MD
100
AcDbText
 10
-20.99025964736938
 20
10.25000002980231
 30
0.0
 40
3.499999940395355
  1
Montage Dichtlippe 
  7
Notiztext MD
 11
-20.99025964736938
 21
13.74999997019767
 31
0.0
100
AcDbAttributeDefinition
280
     0
  3
Text_Zeile_1
  2
Text_Zeile_1
 70
     0
 74
     3
280
     0
 71
     4
 72
     0
 11
-20.99025964736938
 21
13.74999997019767
 31
0.0
101
Embedded Object
 10
-20.99025964736938
 20
13.74999997019767
 30
0.0
 40
3.499999940395355
 41
0.0
 46
0.0
 71
     1
 72
     5
  1
Montage Dichtlippe 
  7
Notiztext MD
 73
     1
 44
1.0
  0
ATTDEF
  5
20A
330
206
100
AcDbEntity
  8
Symbol MD
100
AcDbText
 10
-20.99025964736937
 20
4.250000029802318
 30
0.0
 40
3.499999940395355
  1
nach hinten
  7
Notiztext MD
 11
-20.99025964736937
 21
7.749999970197674
 31
0.0
100
AcDbAttributeDefinition
280
     0
  3
Text_Zeile_2
  2
Text_Zeile_2
 70
     0
 74
     3
280
     0
 71
     4
 72
     0
 11
-20.99025964736937
 21
7.749999970197674
 31
0.0
101
Embedded Object
 10
-20.99025964736937
 20
7.749999970197674
 30
0.0
 40
3.499999940395355
 41
0.0
 46
0.0
 71
     1
 72
     5
  1
nach hinten
  7
Notiztext MD
 73
     1
 44
1.0
  0
ATTDEF
  5
20B
330
206
100
AcDbEntity
  8
Symbol MD
100
AcDbText
 10
-20.99025964736937
 20
-1.749999970197677
 30
0.0
 40
3.499999940395355
  1

  7
Notiztext MD
 11
-20.99025964736937
 21
1.749999970197677
 31
0.0
100
AcDbAttributeDefinition
280
     0
  3
Text_Zeile_3
  2
Text_Zeile_3
 70
     0
 74
     3
280
     0
 71
     4
 72
     0
 11
-20.99025964736937
 21
1.749999970197677
 31
0.0
101
Embedded Object
 10
-20.99025964736937
 20
1.749999970197677
 30
0.0
 40
3.499999940395355
 41
0.0
 46
0.0
 71
     1
 72
     5
  1

  7
Notiztext MD
 73
     1
 44
1.0
  0
ATTDEF
  5
20C
330
206
100
AcDbEntity
  8
Symbol MD
100
AcDbText
 10
-20.99025964736937
 20
-7.749999970197674
 30
0.0
 40
3.499999940395355
  1

  7
Notiztext MD
 11
-20.99025964736937
 21
-4.250000029802318
 31
0.0
100
AcDbAttributeDefinition
280
     0
  3
Text_Zeile_4
  2
Text_Zeile_4
 70
     0
 74
     3
280
     0
 71
     4
 72
     0
 11
-20.99025964736937
 21
-4.250000029802318
 31
0.0
101
Embedded Object
 10
-20.99025964736937
 20
-4.250000029802318
 30
0.0
 40
3.499999940395355
 41
0.0
 46
0.0
 71
     1
 72
     5
  1

  7
Notiztext MD
 73
     1
 44
1.0
  0
ATTDEF
  5
20D
330
206
100
AcDbEntity
  8
Symbol MD
100
AcDbText
 10
-20.99025964736937
 20
-13.74999997019767
 30
0.0
 40
3.499999940395355
  1

  7
Notiztext MD
 11
-20.99025964736937
 21
-10.25000002980231
 31
0.0
100
AcDbAttributeDefinition
280
     0
  3
Text_Zeile_5
  2
Text_Zeile_5
 70
     0
 74
     3
280
     0
 71
     4
 72
     0
 11
-20.99025964736937
 21
-10.25000002980231
 31
0.0
101
Embedded Object
 10
-20.99025964736937
 20
-10.25000002980231
 30
0.0
 40
3.499999940395355
 41
0.0
 46
0.0
 71
     1
 72
     5
  1

  7
Notiztext MD
 73
     1
 44
1.0
  0
ENDBLK
  5
208
330
206
100
AcDbEntity
  8
0
100
AcDbBlockEnd
  0
BLOCK
  5
20F
330
20E
100
AcDbEntity
  8
0
100
AcDbBlockBegin
  2
Anzugsmoment ETL
 70
     2
 10
0.0
 20
0.0
 30
0.0
  3
Anzugsmoment ETL
  1

  0
HATCH
  5
21A
330
20E
100
AcDbEntity
  8
Schraffur MD
100
AcDbHatch
 10
0.0
 20
0.0
 30
0.0
210
0.0
220
0.0
230
1.0
  2
SOLID
 70
     1
 71
     0
 91
        1
 92
        1
 93
        9
 72
     2
 10
-9.586737237182365
 20
8.241689887563818
 40
8.0
 50
214.1930771251396
 51
243.2099568642829
 73
     1
 72
     1
 10
-13.19251659926716
 20
1.100376619546281
 11
-10.83229405907888
 21
3.460599159734569
 72
     2
 10
-14.69599736423515
 20
2.425322979324486
 40
4.0
 50
344.9999999999999
 51
472.9756871629578
 73
     0
 72
     1
 10
-16.25735931288071
 20
-1.257359312880717
 11
-20.5
 21
-5.500000000000002
 72
     1
 10
-20.5
 20
-5.500000000000002
 11
-21.0
 21
-5.500000000000002
 72
     4
 94
        4
 73
     0
 74
     0
 95
       10
 96
        5
 40
0.0
 40
0.0
 40
0.0
 40
0.0
 40
0.0
 40
1.0
 40
1.0
 40
1.0
 40
1.0
 40
1.0
 10
-21.00000000000001
 20
-5.500000000000011
 10
-22.67742965990922
 20
-6.071013397838886
 10
-21.30383512119264
 20
-4.037201714681621
 10
-23.08950883214095
 20
-3.934639894698204
 10
-22.98532273418274
 20
-3.03557526587693
 97
        0
 72
     1
 10
-22.98532273418276
 20
-3.03557526587693
 11
-18.74268204706348
 21
1.207065421242354
 72
     2
 10
-14.8789787419072
 20
2.242341601652437
 40
4.0
 50
165.0
 51
285.0
 73
     0
 72
     1
 10
-13.84370256149711
 20
6.106044906808714
 11
-16.20392510168541
 21
3.745822366620426
 97
        0
 75
     0
 76
     1
 98
        1
 10
0.0
 20
0.0
450
        0
451
        0
460
0.0
461
0.0
452
        0
462
0.0
453
        0
470

  0
LINE
  5
21B
330
20E
100
AcDbEntity
  8
Skizziergeometrie MD
100
AcDbLine
 10
-13.84370256149711
 20
6.106044906808714
 30
0.0
 11
-16.20392510168541
 21
3.745822366620426
 31
0.0
  0
LINE
  5
21C
330
20E
100
AcDbEntity
  8
Skizziergeometrie MD
100
AcDbLine
 10
-13.19251659926716
 20
1.100376619546281
 30
0.0
 11
-10.83229405907888
 21
3.460599159734569
 31
0.0
  0
ARC
  5
21D
330
20E
100
AcDbEntity
  8
Skizziergeometrie MD
100
AcDbCircle
 10
-14.8789787419072
 20
2.242341601652437
 30
0.0
 40
4.0
100
AcDbArc
 50
75.0
 51
194.9999999999999
  0
ARC
  5
21E
330
20E
100
AcDbEntity
  8
Skizziergeometrie MD
100
AcDbCircle
 10
-14.69599736423515
 20
2.425322979324486
 30
0.0
 40
4.0
100
AcDbArc
 50
247.0243128370421
 51
14.99999999999995
  0
LINE
  5
21F
330
20E
100
AcDbEntity
  8
Skizziergeometrie MD
100
AcDbLine
 10
-18.74268204706347
 20
1.207065421242354
 30
0.0
 11
-22.98532273418276
 21
-3.03557526587693
 31
0.0
  0
LINE
  5
220
330
20E
100
AcDbEntity
  8
Skizziergeometrie MD
100
AcDbLine
 10
-16.25735931288071
 20
-1.257359312880717
 30
0.0
 11
-20.5
 21
-5.500000000000002
 31
0.0
  0
ARC
  5
221
330
20E
100
AcDbEntity
  8
Skizziergeometrie MD
100
AcDbCircle
 10
-9.586737237182365
 20
8.241689887563818
 30
0.0
 40
8.0
100
AcDbArc
 50
214.1930771251396
 51
243.209956864283
  0
LINE
  5
222
330
20E
100
AcDbEntity
  8
Skizziergeometrie MD
100
AcDbLine
 10
-20.5
 20
-5.500000000000002
 30
0.0
 11
-21.0
 21
-5.500000000000002
 31
0.0
  0
SPLINE
  5
223
330
20E
100
AcDbEntity
  8
Skizziergeometrie MD
100
AcDbSpline
210
0.0
220
0.0
230
1.0
 70
     8
 71
     4
 72
    10
 73
     5
 74
     0
 42
0.000000001
 43
0.0000000001
 40
0.0
 40
0.0
 40
0.0
 40
0.0
 40
0.0
 40
1.0
 40
1.0
 40
1.0
 40
1.0
 40
1.0
 10
-22.98532273418274
 20
-3.03557526587693
 30
0.0
 10
-23.08950883214095
 20
-3.934639894698204
 30
0.0
 10
-21.30383512119264
 20
-4.037201714681621
 30
0.0
 10
-22.67742965990922
 20
-6.071013397838886
 30
0.0
 10
-21.00000000000001
 20
-5.500000000000011
 30
0.0
  0
LINE
  5
224
330
20E
100
AcDbEntity
  8
Skizziergeometrie MD
100
AcDbLine
 10
-21.5
 20
8.5
 30
0.0
 11
21.50000000000001
 21
8.5
 31
0.0
  0
LINE
  5
225
330
20E
100
AcDbEntity
  8
Skizziergeometrie MD
100
AcDbLine
 10
26.5
 20
3.5
 30
0.0
 11
26.5
 21
-3.5
 31
0.0
  0
LINE
  5
226
330
20E
100
AcDbEntity
  8
Skizziergeometrie MD
100
AcDbLine
 10
21.5
 20
-8.5
 30
0.0
 11
-21.5
 21
-8.5
 31
0.0
  0
LINE
  5
227
330
20E
100
AcDbEntity
  8
Skizziergeometrie MD
100
AcDbLine
 10
-26.49999999999999
 20
-3.5
 30
0.0
 11
-26.49999999999999
 21
3.5
 31
0.0
  0
ARC
  5
228
330
20E
100
AcDbEntity
  8
Skizziergeometrie MD
100
AcDbCircle
 10
-21.5
 20
-3.5
 30
0.0
 40
5.0
100
AcDbArc
 50
180.0
 51
270.0
  0
ARC
  5
229
330
20E
100
AcDbEntity
  8
Skizziergeometrie MD
100
AcDbCircle
 10
-21.5
 20
3.5
 30
0.0
 40
5.0
100
AcDbArc
 50
90.0
 51
180.0
  0
ARC
  5
22A
330
20E
100
AcDbEntity
  8
Skizziergeometrie MD
100
AcDbCircle
 10
21.5
 20
3.5
 30
0.0
 40
5.0
100
AcDbArc
 50
0.0
 51
90.0
  0
ARC
  5
22B
330
20E
100
AcDbEntity
  8
Skizziergeometrie MD
100
AcDbCircle
 10
21.5
 20
-3.5
 30
0.0
 40
5.0
100
AcDbArc
 50
270.0
 51
0.0
  0
ATTDEF
  5
22C
330
20E
100
AcDbEntity
  8
Symbol MD
100
AcDbText
 10
-0.2999995227903249
 20
-3.5
 30
0.0
 40
6.99999988079071
  1
60
  7
Textstil33
 72
     2
 11
9.499999999999992
 21
3.499999880790709
 31
0.0
100
AcDbAttributeDefinition
280
     0
  3
Anzugsmoment
  2
Anzugsmoment
 70
     0
 74
     3
280
     0
 71
     4
 72
     0
 11
9.499999999999992
 21
3.499999880790709
 31
0.0
101
Embedded Object
 10
9.499999999999992
 20
3.499999880790709
 30
0.0
 40
6.99999988079071
 41
0.0
 46
0.0
 71
     3
 72
     5
  1
60
  7
Textstil33
 73
     1
 44
1.0
  0
MTEXT
  5
22D
330
20E
100
AcDbEntity
  8
Symbol MD
100
AcDbMText
 10
11.49999999999999
 20
-3.5
 30
0.0
 40
6.99999988079071
 41
0.0
 46
0.0
 71
     7
 72
     1
  1
\fISOCPEUR|b0|i0;\H7.0000;Nm
  7
Notiztext MD
 73
     1
 44
1.0
  0
ENDBLK
  5
210
330
20E
100
AcDbEntity
  8
0
100
AcDbBlockEnd
  0
BLOCK
  5
22F
330
22E
100
AcDbEntity
  8
0
100
AcDbBlockBegin
  2
Kopie von Kopie von Text 5 Zeilen
 70
     2
 10
0.0
 20
0.0
 30
0.0
  3
Kopie von Kopie von Text 5 Zeilen
  1

  0
ATTDEF
  5
231
330
22E
100
AcDbEntity
  8
Symbol MD
100
AcDbText
 10
-19.93831157684326
 20
10.25000002980231
 30
0.0
 40
3.499999940395355
  1
Passfeder
  7
Notiztext MD
 11
-19.93831157684326
 21
13.74999997019767
 31
0.0
100
AcDbAttributeDefinition
280
     0
  3
Text_Zeile_1
  2
Text_Zeile_1
 70
     0
 74
     3
280
     0
 71
     4
 72
     0
 11
-19.93831157684326
 21
13.74999997019767
 31
0.0
101
Embedded Object
 10
-19.93831157684326
 20
13.74999997019767
 30
0.0
 40
3.499999940395355
 41
0.0
 46
0.0
 71
     1
 72
     5
  1
Passfeder
  7
Notiztext MD
 73
     1
 44
1.0
  0
ATTDEF
  5
232
330
22E
100
AcDbEntity
  8
Symbol MD
100
AcDbText
 10
-19.93831157684324
 20
4.250000029802318
 30
0.0
 40
3.499999940395355
  1
feather key 
  7
Notiztext MD
 11
-19.93831157684324
 21
7.749999970197674
 31
0.0
100
AcDbAttributeDefinition
280
     0
  3
Text_Zeile_2
  2
Text_Zeile_2
 70
     0
 74
     3
280
     0
 71
     4
 72
     0
 11
-19.93831157684324
 21
7.749999970197674
 31
0.0
101
Embedded Object
 10
-19.93831157684324
 20
7.749999970197674
 30
0.0
 40
3.499999940395355
 41
0.0
 46
0.0
 71
     1
 72
     5
  1
feather key 
  7
Notiztext MD
 73
     1
 44
1.0
  0
ATTDEF
  5
233
330
22E
100
AcDbEntity
  8
Symbol MD
100
AcDbText
 10
-19.93831157684324
 20
-1.749999970197677
 30
0.0
 40
3.499999940395355
  1
DIN 6885 - 6x6x32
  7
Notiztext MD
 11
-19.93831157684324
 21
1.749999970197677
 31
0.0
100
AcDbAttributeDefinition
280
     0
  3
Text_Zeile_3
  2
Text_Zeile_3
 70
     0
 74
     3
280
     0
 71
     4
 72
     0
 11
-19.93831157684324
 21
1.749999970197677
 31
0.0
101
Embedded Object
 10
-19.93831157684324
 20
1.749999970197677
 30
0.0
 40
3.499999940395355
 41
0.0
 46
0.0
 71
     1
 72
     5
  1
DIN 6885 - 6x6x32
  7
Notiztext MD
 73
     1
 44
1.0
  0
ATTDEF
  5
234
330
22E
100
AcDbEntity
  8
Symbol MD
100
AcDbText
 10
-19.93831157684324
 20
-7.749999970197674
 30
0.0
 40
3.499999940395355
  1

  7
Notiztext MD
 11
-19.93831157684324
 21
-4.250000029802318
 31
0.0
100
AcDbAttributeDefinition
280
     0
  3
Text_Zeile_4
  2
Text_Zeile_4
 70
     0
 74
     3
280
     0
 71
     4
 72
     0
 11
-19.93831157684324
 21
-4.250000029802318
 31
0.0
101
Embedded Object
 10
-19.93831157684324
 20
-4.250000029802318
 30
0.0
 40
3.499999940395355
 41
0.0
 46
0.0
 71
     1
 72
     5
  1

  7
Notiztext MD
 73
     1
 44
1.0
  0
ATTDEF
  5
235
330
22E
100
AcDbEntity
  8
Symbol MD
100
AcDbText
 10
-19.93831157684324
 20
-13.74999997019767
 30
0.0
 40
3.499999940395355
  1

  7
Notiztext MD
 11
-19.93831157684324
 21
-10.25000002980231
 31
0.0
100
AcDbAttributeDefinition
280
     0
  3
Text_Zeile_5
  2
Text_Zeile_5
 70
     0
 74
     3
280
     0
 71
     4
 72
     0
 11
-19.93831157684324
 21
-10.25000002980231
 31
0.0
101
Embedded Object
 10
-19.93831157684324
 20
-10.25000002980231
 30
0.0
 40
3.499999940395355
 41
0.0
 46
0.0
 71
     1
 72
     5
  1

  7
Notiztext MD
 73
     1
 44
1.0
  0
ENDBLK
  5
230
330
22E
100
AcDbEntity
  8
0
100
AcDbBlockEnd
  0
ENDSEC
  0
SECTION
  2
ENTITIES
  0
LINE
  5
236
330
70
100
AcDbEntity
  8
Sichtbar MD
100
AcDbLine
 10
380.5563853637189
 20
170.0005516713313
 30
0.0
 11
380.5563853637189
 21
146.0213940547676
 31
0.0
  0
SPLINE
  5
237
330
70
100
AcDbEntity
  8
Sichtbar MD
100
AcDbSpline
210
0.0
220
0.0
230
1.0
 70
    12
 71
     2
 72
     6
 73
     3
 74
     0
 42
0.000000001
 43
0.0000000001
 40
0.0
 40
0.0
 40
0.0
 40
0.0828004736235522
 40
0.0828004736235522
 40
0.0828004736235522
 10
365.5563853637188
 20
169.2288157929536
 30
0.0
 41
1.0
 10
365.7013972877894
 20
169.6127446972722
 30
0.0
 41
1.00008356283839
 10
365.8563853637189
 20
170.0005516713313
 30
0.0
 41
1.0
  0
SPLINE
  5
238
330
70
100
AcDbEntity
  8
Sichtbar MD
100
AcDbSpline
210
0.0
220
0.0
230
1.0
 70
    12
 71
     2
 72
     6
 73
     3
 74
     0
 42
0.000000001
 43
0.0000000001
 40
0.0
 40
0.0
 40
0.0
 40
0.0828004736235522
 40
0.0828004736235522
 40
0.0828004736235522
 10
365.8563853637189
 20
146.0213940547676
 30
0.0
 41
1.0
 10
365.7013972877894
 20
146.4092010288267
 30
0.0
 41
1.00008356283839
 10
365.5563853637188
 20
146.7931299331453
 30
0.0
 41
1.0
  0
LINE
  5
239
330
70
100
AcDbEntity
  8
Sichtbar MD
100
AcDbLine
 10
380.5563853637189
 20
146.0213940547676
 30
0.0
 11
365.8563853637189
 21
146.0213940547676
 31
0.0
  0
LINE
  5
23A
330
70
100
AcDbEntity
  8
Sichtbar MD
100
AcDbLine
 10
365.8563853637189
 20
170.0005516713313
 30
0.0
 11
380.5563853637189
 21
170.0005516713313
 31
0.0
  0
LINE
  5
23B
330
70
100
AcDbEntity
  8
Sichtbar MD
100
AcDbLine
 10
365.5563853637188
 20
169.2288157929536
 30
0.0
 11
365.5563853637188
 21
146.7931299331453
 31
0.0
  0
LINE
  5
23C
330
70
100
AcDbEntity
  8
Sichtbar MD
100
AcDbLine
 10
380.5563853637189
 20
128.0109728630495
 30
0.0
 11
380.5563853637189
 21
146.0213940547676
 31
0.0
  0
LINE
  5
23D
330
70
100
AcDbEntity
  8
Sichtbar MD
100
AcDbLine
 10
380.5563853637189
 20
170.0005516713313
 30
0.0
 11
380.5563853637189
 21
188.0109728630495
 31
0.0
  0
LINE
  5
23E
330
70
100
AcDbEntity
  8
Sichtbar MD
100
AcDbLine
 10
339.5563853637189
 20
128.0109728630495
 30
0.0
 11
339.5563853637189
 21
188.0109728630495
 31
0.0
  0
LINE
  5
23F
330
70
100
AcDbEntity
  8
Sichtbar MD
100
AcDbLine
 10
365.8563853637189
 20
188.0109728630495
 30
0.0
 11
380.5563853637189
 21
188.0109728630495
 31
0.0
  0
LINE
  5
240
330
70
100
AcDbEntity
  8
Sichtbar MD
100
AcDbLine
 10
365.8563853637189
 20
128.0109728630495
 30
0.0
 11
380.5563853637189
 21
128.0109728630495
 31
0.0
  0
LINE
  5
241
330
70
100
AcDbEntity
  8
Sichtbar MD
100
AcDbLine
 10
339.5563853637189
 20
188.0109728630495
 30
0.0
 11
365.2563853637189
 21
188.0109728630495
 31
0.0
  0
LINE
  5
242
330
70
100
AcDbEntity
  8
Sichtbar MD
100
AcDbLine
 10
339.5563853637189
 20
128.0109728630495
 30
0.0
 11
365.2563853637189
 21
128.0109728630495
 31
0.0
  0
LINE
  5
243
330
70
100
AcDbEntity
  8
Sichtbar MD
100
AcDbLine
 10
365.8563853637189
 20
170.0005516713313
 30
0.0
 11
365.8563853637189
 21
188.0109728630495
 31
0.0
  0
LINE
  5
244
330
70
100
AcDbEntity
  8
Sichtbar MD
100
AcDbLine
 10
365.8563853637189
 20
128.0109728630495
 30
0.0
 11
365.8563853637189
 21
146.0213940547676
 31
0.0
  0
LINE
  5
245
330
70
100
AcDbEntity
  8
Sichtbar MD
100
AcDbLine
 10
365.5563853637188
 20
187.7109728630495
 30
0.0
 11
365.5563853637188
 21
169.2288157929536
 31
0.0
  0
LINE
  5
246
330
70
100
AcDbEntity
  8
Sichtbar MD
100
AcDbLine
 10
365.5563853637188
 20
146.7931299331453
 30
0.0
 11
365.5563853637188
 21
128.3109728630494
 31
0.0
  0
LINE
  5
247
330
70
100
AcDbEntity
  8
Sichtbar MD
100
AcDbLine
 10
365.2563853637189
 20
188.0109728630495
 30
0.0
 11
365.2563853637189
 21
128.0109728630495
 31
0.0
  0
LINE
  5
248
330
70
100
AcDbEntity
  8
Sichtbar MD
100
AcDbLine
 10
365.5563853637188
 20
187.7109728630495
 30
0.0
 11
365.8563853637189
 21
188.0109728630495
 31
0.0
  0
LINE
  5
249
330
70
100
AcDbEntity
  8
Sichtbar MD
100
AcDbLine
 10
365.5563853637188
 20
128.3109728630494
 30
0.0
 11
365.8563853637189
 21
128.0109728630495
 31
0.0
  0
LINE
  5
24A
330
70
100
AcDbEntity
  8
Sichtbar MD
100
AcDbLine
 10
365.5563853637188
 20
128.3109728630494
 30
0.0
 11
365.2563853637189
 21
128.0109728630495
 31
0.0
  0
LINE
  5
24B
330
70
100
AcDbEntity
  8
Sichtbar MD
100
AcDbLine
 10
365.5563853637188
 20
187.7109728630495
 30
0.0
 11
365.2563853637189
 21
188.0109728630495
 31
0.0
  0
SPLINE
  5
24C
330
70
100
AcDbEntity
  8
Sichtbar MD
100
AcDbSpline
210
0.0
220
0.0
230
1.0
 70
    12
 71
     2
 72
     6
 73
     3
 74
     0
 42
0.000000001
 43
0.0000000001
 40
0.0
 40
0.0
 40
0.0
 40
0.0828004736235539
 40
0.0828004736235539
 40
0.0828004736235539
 10
314.5563853637189
 20
169.2288157929536
 30
0.0
 41
1.0
 10
314.7013972877894
 20
169.6127446972723
 30
0.0
 41
1.000083562832504
 10
314.8563853637189
 20
170.0005516713313
 30
0.0
 41
1.0
  0
SPLINE
  5
24D
330
70
100
AcDbEntity
  8
Sichtbar MD
100
AcDbSpline
210
0.0
220
0.0
230
1.0
 70
    12
 71
     2
 72
     6
 73
     3
 74
     0
 42
0.000000001
 43
0.0000000001
 40
0.0
 40
0.0
 40
0.0
 40
0.0828004736235539
 40
0.0828004736235539
 40
0.0828004736235539
 10
314.8563853637189
 20
146.0213940547676
 30
0.0
 41
1.0
 10
314.7013972877894
 20
146.4092010288266
 30
0.0
 41
1.000083562832504
 10
314.5563853637189
 20
146.7931299331453
 30
0.0
 41
1.0
  0
LINE
  5
24E
330
70
100
AcDbEntity
  8
Sichtbar MD
100
AcDbLine
 10
331.2563853637188
 20
146.0213940547676
 30
0.0
 11
314.8563853637189
 21
146.0213940547676
 31
0.0
  0
SPLINE
  5
24F
330
70
100
AcDbEntity
  8
Sichtbar MD
100
AcDbSpline
210
0.0
220
0.0
230
1.0
 70
    12
 71
     2
 72
     6
 73
     3
 74
     0
 42
0.000000001
 43
0.0000000001
 40
0.0
 40
0.0
 40
0.0
 40
0.0828004736235494
 40
0.0828004736235494
 40
0.0828004736235494
 10
331.5563853637188
 20
146.7931299331453
 30
0.0
 41
1.0
 10
331.4113734396484
 20
146.4092010288271
 30
0.0
 41
1.000083562835592
 10
331.2563853637188
 20
146.0213940547677
 30
0.0
 41
1.0
  0
SPLINE
  5
250
330
70
100
AcDbEntity
  8
Sichtbar MD
100
AcDbSpline
210
0.0
220
0.0
230
1.0
 70
    12
 71
     2
 72
     6
 73
     3
 74
     0
 42
0.000000001
 43
0.0000000001
 40
0.0
 40
0.0
 40
0.0
 40
0.0828004736235494
 40
0.0828004736235494
 40
0.0828004736235494
 10
331.2563853637188
 20
170.0005516713313
 30
0.0
 41
1.0
 10
331.4113734396484
 20
169.6127446972718
 30
0.0
 41
1.000083562835592
 10
331.5563853637188
 20
169.2288157929536
 30
0.0
 41
1.0
  0
LINE
  5
251
330
70
100
AcDbEntity
  8
Sichtbar MD
100
AcDbLine
 10
314.8563853637189
 20
170.0005516713313
 30
0.0
 11
331.2563853637188
 21
170.0005516713313
 31
0.0
  0
LINE
  5
252
330
70
100
AcDbEntity
  8
Sichtbar MD
100
AcDbLine
 10
314.5563853637189
 20
146.7931299331453
 30
0.0
 11
314.5563853637189
 21
169.2288157929536
 31
0.0
  0
LINE
  5
253
330
70
100
AcDbEntity
  8
Sichtbar MD
100
AcDbLine
 10
331.5563853637188
 20
146.7931299331453
 30
0.0
 11
331.5563853637188
 21
169.2288157929536
 31
0.0
  0
LINE
  5
254
330
70
100
AcDbEntity
  8
Sichtbar MD
100
AcDbLine
 10
314.5563853637189
 20
128.3109728630494
 30
0.0
 11
314.5563853637189
 21
146.7931299331453
 31
0.0
  0
LINE
  5
255
330
70
100
AcDbEntity
  8
Sichtbar MD
100
AcDbLine
 10
314.8563853637189
 20
128.0109728630495
 30
0.0
 11
314.8563853637189
 21
146.0213940547676
 31
0.0
  0
LINE
  5
256
330
70
100
AcDbEntity
  8
Sichtbar MD
100
AcDbLine
 10
314.8563853637189
 20
170.0005516713313
 30
0.0
 11
314.8563853637189
 21
188.0109728630495
 31
0.0
  0
LINE
  5
257
330
70
100
AcDbEntity
  8
Sichtbar MD
100
AcDbLine
 10
314.5563853637189
 20
169.2288157929536
 30
0.0
 11
314.5563853637189
 21
187.7109728630495
 31
0.0
  0
LINE
  5
258
330
70
100
AcDbEntity
  8
Sichtbar MD
100
AcDbLine
 10
331.2563853637188
 20
146.0213940547676
 30
0.0
 11
331.2563853637188
 21
128.0109728630494
 31
0.0
  0
LINE
  5
259
330
70
100
AcDbEntity
  8
Sichtbar MD
100
AcDbLine
 10
331.2563853637188
 20
188.0109728630495
 30
0.0
 11
331.2563853637188
 21
170.0005516713313
 31
0.0
  0
LINE
  5
25A
330
70
100
AcDbEntity
  8
Sichtbar MD
100
AcDbLine
 10
331.5563853637188
 20
128.3109728630494
 30
0.0
 11
331.5563853637188
 21
146.7931299331453
 31
0.0
  0
LINE
  5
25B
330
70
100
AcDbEntity
  8
Sichtbar MD
100
AcDbLine
 10
331.5563853637188
 20
169.2288157929536
 30
0.0
 11
331.5563853637188
 21
187.7109728630495
 31
0.0
  0
LINE
  5
25C
330
70
100
AcDbEntity
  8
Sichtbar MD
100
AcDbLine
 10
314.2563853637188
 20
188.0109728630495
 30
0.0
 11
314.2563853637188
 21
128.0109728630494
 31
0.0
  0
LINE
  5
25D
330
70
100
AcDbEntity
  8
Sichtbar MD
100
AcDbLine
 10
331.8563853637188
 20
128.0109728630494
 30
0.0
 11
331.8563853637188
 21
188.0109728630495
 31
0.0
  0
LINE
  5
25E
330
70
100
AcDbEntity
  8
Sichtbar MD
100
AcDbLine
 10
314.5563853637189
 20
128.3109728630494
 30
0.0
 11
314.8563853637189
 21
128.0109728630494
 31
0.0
  0
LINE
  5
25F
330
70
100
AcDbEntity
  8
Sichtbar MD
100
AcDbLine
 10
314.5563853637189
 20
187.7109728630495
 30
0.0
 11
314.8563853637189
 21
188.0109728630495
 31
0.0
  0
LINE
  5
260
330
70
100
AcDbEntity
  8
Sichtbar MD
100
AcDbLine
 10
331.5563853637188
 20
128.3109728630494
 30
0.0
 11
331.2563853637188
 21
128.0109728630494
 31
0.0
  0
LINE
  5
261
330
70
100
AcDbEntity
  8
Sichtbar MD
100
AcDbLine
 10
331.5563853637188
 20
187.7109728630495
 30
0.0
 11
331.2563853637188
 21
188.0109728630495
 31
0.0
  0
LINE
  5
262
330
70
100
AcDbEntity
  8
Sichtbar MD
100
AcDbLine
 10
314.5563853637189
 20
128.3109728630494
 30
0.0
 11
314.2563853637188
 21
128.0109728630494
 31
0.0
  0
LINE
  5
263
330
70
100
AcDbEntity
  8
Sichtbar MD
100
AcDbLine
 10
314.5563853637189
 20
187.7109728630495
 30
0.0
 11
314.2563853637188
 21
188.0109728630495
 31
0.0
  0
LINE
  5
264
330
70
100
AcDbEntity
  8
Sichtbar MD
100
AcDbLine
 10
331.5563853637188
 20
187.7109728630495
 30
0.0
 11
331.8563853637188
 21
188.0109728630495
 31
0.0
  0
LINE
  5
265
330
70
100
AcDbEntity
  8
Sichtbar MD
100
AcDbLine
 10
331.5563853637188
 20
128.3109728630494
 30
0.0
 11
331.8563853637188
 21
128.0109728630494
 31
0.0
  0
LINE
  5
266
330
70
100
AcDbEntity
  8
Sichtbar MD
100
AcDbLine
 10
339.5563853637188
 20
128.0109728630494
 30
0.0
 11
339.5563853637188
 21
188.0109728630495
 31
0.0
  0
LINE
  5
267
330
70
100
AcDbEntity
  8
Sichtbar MD
100
AcDbLine
 10
282.0563853637188
 20
128.0109728630494
 30
0.0
 11
282.0563853637188
 21
188.0109728630495
 31
0.0
  0
LINE
  5
268
330
70
100
AcDbEntity
  8
Sichtbar MD
100
AcDbLine
 10
314.8563853637189
 20
128.0109728630494
 30
0.0
 11
331.2563853637188
 21
128.0109728630494
 31
0.0
  0
LINE
  5
269
330
70
100
AcDbEntity
  8
Sichtbar MD
100
AcDbLine
 10
314.8563853637189
 20
188.0109728630495
 30
0.0
 11
331.2563853637188
 21
188.0109728630495
 31
0.0
  0
LINE
  5
26A
330
70
100
AcDbEntity
  8
Sichtbar MD
100
AcDbLine
 10
331.8563853637188
 20
188.0109728630495
 30
0.0
 11
339.5563853637188
 21
188.0109728630495
 31
0.0
  0
LINE
  5
26B
330
70
100
AcDbEntity
  8
Sichtbar MD
100
AcDbLine
 10
331.8563853637188
 20
128.0109728630494
 30
0.0
 11
339.5563853637188
 21
128.0109728630494
 31
0.0
  0
LINE
  5
26C
330
70
100
AcDbEntity
  8
Sichtbar MD
100
AcDbLine
 10
282.0563853637188
 20
188.0109728630495
 30
0.0
 11
314.2563853637188
 21
188.0109728630495
 31
0.0
  0
LINE
  5
26D
330
70
100
AcDbEntity
  8
Sichtbar MD
100
AcDbLine
 10
282.0563853637188
 20
128.0109728630494
 30
0.0
 11
314.2563853637188
 21
128.0109728630494
 31
0.0
  0
SPLINE
  5
26E
330
70
100
AcDbEntity
  8
Sichtbar MD
100
AcDbSpline
210
0.0
220
0.0
230
1.0
 70
     8
 71
     3
 72
    14
 73
    10
 74
     0
 42
0.000000001
 43
0.0000000001
 40
-0.4554105954977345
 40
-0.4554105954977345
 40
-0.4554105954977345
 40
-0.4554105954977345
 40
-0.3415789750175846
 40
-0.3415789750175846
 40
-0.2277473545374344
 40
-0.2277473545374344
 40
-0.1138736772687172
 40
-0.1138736772687172
 40
0.0
 40
0.0
 40
0.0
 40
0.0
 10
142.5563853637189
 20
167.5109728630494
 30
0.0
 10
142.5563853637189
 20
167.5109728630494
 30
0.0
 10
142.6327449867874
 20
167.4860003754903
 30
0.0
 10
142.9397283209652
 20
167.3958206285252
 30
0.0
 10
143.1702135462537
 20
167.3317749093513
 30
0.0
 10
143.7000143473889
 20
167.2104075778562
 30
0.0
 10
144.0355953953251
 20
167.1449056640479
 30
0.0
 10
144.7738664437946
 20
167.051341474623
 30
0.0
 10
145.1768064394899
 20
167.0248510517095
 30
0.0
 10
145.5563853637189
 20
167.0248510517095
 30
0.0
  0
SPLINE
  5
26F
330
70
100
AcDbEntity
  8
Sichtbar MD
100
AcDbSpline
210
0.0
220
0.0
230
1.0
 70
     8
 71
     3
 72
    10
 73
     6
 74
     0
 42
0.000000001
 43
0.0000000001
 40
0.910821190995469
 40
0.910821190995469
 40
0.910821190995469
 40
0.910821190995469
 40
1.024694868264186
 40
1.024694868264186
 40
1.121809407368731
 40
1.121809407368731
 40
1.121809407368731
 40
1.121809407368731
 10
171.5563853637189
 20
167.0248510517095
 30
0.0
 10
171.935964287948
 20
167.0248510517095
 30
0.0
 10
172.3389042836433
 20
167.051341474623
 30
0.0
 10
173.0228485254237
 20
167.1380205997582
 30
0.0
 10
173.3138046804831
 20
167.1915195974501
 30
0.0
 10
173.556385360373
 20
167.2440655186344
 30
0.0
  0
SPLINE
  5
270
330
70
100
AcDbEntity
  8
Sichtbar MD
100
AcDbSpline
210
0.0
220
0.0
230
1.0
 70
     8
 71
     3
 72
    12
 73
     8
 74
     0
 42
0.000000001
 43
0.0000000001
 40
1.121997376255993
 40
1.121997376255993
 40
1.121997376255993
 40
1.121997376255993
 40
1.138761261690739
 40
1.138761261690739
 40
1.252611001538313
 40
1.252611001538313
 40
1.366460741385888
 40
1.366460741385888
 40
1.366460741385888
 40
1.366460741385888
 10
173.5563853637251
 20
167.1411426314615
 30
0.0
 10
173.5981892792617
 20
167.1503123144786
 30
0.0
 10
173.6387124903304
 20
167.1594507354083
 30
0.0
 10
173.9425230506476
 20
167.2298278883088
 30
0.0
 10
174.1730001196525
 20
167.2945706459301
 30
0.0
 10
174.4800019951014
 20
167.3857288077892
 30
0.0
 10
174.5563853637189
 20
167.4109728630495
 30
0.0
 10
174.5563853637189
 20
167.4109728630495
 30
0.0
  0
LINE
  5
271
330
70
100
AcDbEntity
  8
Sichtbar MD
100
AcDbLine
 10
171.5563853637189
 20
167.0248510517095
 30
0.0
 11
145.5563853637189
 21
167.0248510517095
 31
0.0
  0
LINE
  5
272
330
70
100
AcDbEntity
  8
Sichtbar MD
100
AcDbLine
 10
137.5563853637189
 20
149.5109728630495
 30
0.0
 11
137.5563853637189
 21
166.5109728630495
 31
0.0
  0
LINE
  5
273
330
70
100
AcDbEntity
  8
Sichtbar MD
100
AcDbLine
 10
138.5563853637189
 20
167.5109728630494
 30
0.0
 11
138.5563853637189
 21
148.5109728630495
 31
0.0
  0
LINE
  5
274
330
70
100
AcDbEntity
  8
Sichtbar MD
100
AcDbLine
 10
137.5563853637189
 20
166.5109728630494
 30
0.0
 11
138.5563853637189
 21
167.5109728630494
 31
0.0
  0
LINE
  5
275
330
70
100
AcDbEntity
  8
Sichtbar MD
100
AcDbLine
 10
137.5563853637189
 20
149.5109728630495
 30
0.0
 11
138.5563853637189
 21
148.5109728630495
 31
0.0
  0
LINE
  5
276
330
70
100
AcDbEntity
  8
Sichtbar MD
100
AcDbLine
 10
173.5563853637189
 20
148.5109728630495
 30
0.0
 11
173.5563853637189
 21
167.2440655183629
 31
0.0
  0
LINE
  5
277
330
70
100
AcDbEntity
  8
Sichtbar MD
100
AcDbLine
 10
174.5563853637189
 20
167.4109728630495
 30
0.0
 11
177.5563853637189
 21
167.4109728630495
 31
0.0
  0
LINE
  5
278
330
70
100
AcDbEntity
  8
Sichtbar MD
100
AcDbLine
 10
173.556385363719
 20
148.6109728630495
 30
0.0
 11
177.5563853637189
 21
148.6109728630495
 31
0.0
  0
LINE
  5
279
330
70
100
AcDbEntity
  8
Sichtbar MD
100
AcDbLine
 10
138.5563853637189
 20
167.5109728630494
 30
0.0
 11
142.5563853637189
 21
167.5109728630494
 31
0.0
  0
LINE
  5
27A
330
70
100
AcDbEntity
  8
Sichtbar MD
100
AcDbLine
 10
138.5563853637189
 20
148.5109728630495
 30
0.0
 11
173.556385363719
 21
148.5109728630495
 31
0.0
  0
LINE
  5
27B
330
70
100
AcDbEntity
  8
Sichtbar MD
100
AcDbLine
 10
174.5563853637189
 20
170.0109728630494
 30
0.0
 11
171.5563853637189
 21
170.0109728630494
 31
0.0
  0
LINE
  5
27C
330
70
100
AcDbEntity
  8
Sichtbar MD
100
AcDbLine
 10
145.5563853637189
 20
170.0109728630494
 30
0.0
 11
142.5563853637189
 21
170.0109728630494
 31
0.0
  0
LINE
  5
27D
330
70
100
AcDbEntity
  8
Sichtbar MD
100
AcDbLine
 10
145.5563853637189
 20
170.0109728630494
 30
0.0
 11
171.5563853637188
 21
170.0109728630494
 31
0.0
  0
LINE
  5
27E
330
70
100
AcDbEntity
  8
Sichtbar MD
100
AcDbLine
 10
174.5563853637188
 20
170.0109728630494
 30
0.0
 11
174.5563853637188
 21
167.4109728630495
 31
0.0
  0
LINE
  5
27F
330
70
100
AcDbEntity
  8
Sichtbar MD
100
AcDbLine
 10
142.5563853637189
 20
170.0109728630494
 30
0.0
 11
142.5563853637189
 21
167.5109728630494
 31
0.0
  0
SPLINE
  5
280
330
70
100
AcDbEntity
  8
Sichtbar MD
100
AcDbSpline
210
0.0
220
0.0
230
1.0
 70
     8
 71
     3
 72
    14
 73
    10
 74
     0
 42
0.000000001
 43
0.0000000001
 40
0.0
 40
0.0
 40
0.0
 40
0.0
 40
0.1036514201262903
 40
0.1036514201262903
 40
0.2073028402525807
 40
0.2073028402525807
 40
0.3109540116488628
 40
0.3109540116488628
 40
0.4146051830451445
 40
0.4146051830451445
 40
0.4146051830451448
 40
0.4146051830451448
 10
248.056385363719
 20
187.8846653030542
 30
0.0
 10
247.7108806299646
 20
187.8846653030542
 30
0.0
 10
247.3424794354416
 20
187.8912767004556
 30
0.0
 10
246.6649939896701
 20
187.9151342045773
 30
0.0
 10
246.3558931709523
 20
187.9320334037442
 30
0.0
 10
245.8677908456045
 20
187.9637379512951
 30
0.0
 10
245.6561821834762
 20
187.9806061191452
 30
0.0
 10
245.375474087148
 20
188.0043925989691
 30
0.0
 10
245.306385363719
 20
188.0109728630495
 30
0.0
 10
245.306385363719
 20
188.0109728630495
 30
0.0
  0
SPLINE
  5
281
330
70
100
AcDbEntity
  8
Sichtbar MD
100
AcDbSpline
210
0.0
220
0.0
230
1.0
 70
     8
 71
     3
 72
    14
 73
    10
 74
     0
 42
0.000000001
 43
0.0000000001
 40
1.243815549135434
 40
1.243815549135434
 40
1.243815549136098
 40
1.243815549136098
 40
1.347466720531716
 40
1.347466720531716
 40
1.451117891927998
 40
1.451117891927998
 40
1.554769312054288
 40
1.554769312054288
 40
1.658420732180579
 40
1.658420732180579
 40
1.658420732180579
 40
1.658420732180579
 10
250.806385363719
 20
188.0109728630495
 30
0.0
 10
250.8063853637181
 20
188.0109728630493
 30
0.0
 10
250.7372966402891
 20
188.004392598969
 30
0.0
 10
250.4565885439618
 20
187.9806061191452
 30
0.0
 10
250.2449798818334
 20
187.9637379512951
 30
0.0
 10
249.7568775564857
 20
187.9320334037442
 30
0.0
 10
249.4477767377679
 20
187.9151342045773
 30
0.0
 10
248.7702912919963
 20
187.8912767004556
 30
0.0
 10
248.4018900974732
 20
187.8846653030542
 30
0.0
 10
248.056385363719
 20
187.8846653030542
 30
0.0
  0
LINE
  5
282
330
70
100
AcDbEntity
  8
Sichtbar MD
100
AcDbLine
 10
282.0563853637188
 20
128.0109728630494
 30
0.0
 11
282.0563853637188
 21
188.0109728630494
 31
0.0
  0
LINE
  5
283
330
70
100
AcDbEntity
  8
Sichtbar MD
100
AcDbLine
 10
243.5563853637189
 20
169.2288157929536
 30
0.0
 11
243.5563853637189
 21
146.7931299331453
 31
0.0
  0
SPLINE
  5
284
330
70
100
AcDbEntity
  8
Sichtbar MD
100
AcDbSpline
210
0.0
220
0.0
230
1.0
 70
    12
 71
     2
 72
     6
 73
     3
 74
     0
 42
0.000000001
 43
0.0000000001
 40
0.0
 40
0.0
 40
0.0
 40
0.0828004736235481
 40
0.0828004736235481
 40
0.0828004736235481
 10
243.8563853637189
 20
146.0213940547676
 30
0.0
 41
1.0
 10
243.7013972877895
 20
146.4092010288267
 30
0.0
 41
1.000083562833749
 10
243.5563853637189
 20
146.7931299331453
 30
0.0
 41
1.0
  0
LINE
  5
285
330
70
100
AcDbEntity
  8
Sichtbar MD
100
AcDbLine
 10
261.2563853637189
 20
146.0213940547676
 30
0.0
 11
243.856385363719
 21
146.0213940547676
 31
0.0
  0
SPLINE
  5
286
330
70
100
AcDbEntity
  8
Sichtbar MD
100
AcDbSpline
210
0.0
220
0.0
230
1.0
 70
    12
 71
     2
 72
     6
 73
     3
 74
     0
 42
0.000000001
 43
0.0000000001
 40
0.0
 40
0.0
 40
0.0
 40
0.0828004736235466
 40
0.0828004736235466
 40
0.0828004736235466
 10
261.5563853637189
 20
146.7931299331453
 30
0.0
 41
1.0
 10
261.4113734396484
 20
146.4092010288269
 30
0.0
 41
1.000083562828504
 10
261.2563853637189
 20
146.0213940547676
 30
0.0
 41
1.0
  0
SPLINE
  5
287
330
70
100
AcDbEntity
  8
Sichtbar MD
100
AcDbSpline
210
0.0
220
0.0
230
1.0
 70
    12
 71
     2
 72
     6
 73
     3
 74
     0
 42
0.000000001
 43
0.0000000001
 40
0.0
 40
0.0
 40
0.0
 40
0.0828004736235466
 40
0.0828004736235466
 40
0.0828004736235466
 10
261.256385363719
 20
170.0005516713312
 30
0.0
 41
1.0
 10
261.4113734396484
 20
169.6127446972719
 30
0.0
 41
1.000083562835293
 10
261.5563853637189
 20
169.2288157929536
 30
0.0
 41
1.0
  0
LINE
  5
288
330
70
100
AcDbEntity
  8
Sichtbar MD
100
AcDbLine
 10
243.856385363719
 20
170.0005516713313
 30
0.0
 11
261.256385363719
 21
170.0005516713313
 31
0.0
  0
SPLINE
  5
289
330
70
100
AcDbEntity
  8
Sichtbar MD
100
AcDbSpline
210
0.0
220
0.0
230
1.0
 70
    12
 71
     2
 72
     6
 73
     3
 74
     0
 42
0.000000001
 43
0.0000000001
 40
0.0
 40
0.0
 40
0.0
 40
0.0828004736235481
 40
0.0828004736235481
 40
0.0828004736235481
 10
243.556385363719
 20
169.2288157929536
 30
0.0
 41
1.0
 10
243.7013972877894
 20
169.6127446972719
 30
0.0
 41
1.000083562835594
 10
243.856385363719
 20
170.0005516713313
 30
0.0
 41
1.0
  0
LINE
  5
28A
330
70
100
AcDbEntity
  8
Sichtbar MD
100
AcDbLine
 10
261.5563853637189
 20
169.2288157929536
 30
0.0
 11
261.5563853637189
 21
146.7931299331452
 31
0.0
  0
LINE
  5
28B
330
70
100
AcDbEntity
  8
Sichtbar MD
100
AcDbLine
 10
243.856385363719
 20
128.0109728630494
 30
0.0
 11
243.856385363719
 21
146.0213940547676
 31
0.0
  0
LINE
  5
28C
330
70
100
AcDbEntity
  8
Sichtbar MD
100
AcDbLine
 10
243.5563853637189
 20
146.7931299331453
 30
0.0
 11
243.5563853637189
 21
128.3109728630494
 31
0.0
  0
LINE
  5
28D
330
70
100
AcDbEntity
  8
Sichtbar MD
100
AcDbLine
 10
243.5563853637189
 20
187.7109728630495
 30
0.0
 11
243.5563853637189
 21
169.2288157929536
 31
0.0
  0
LINE
  5
28E
330
70
100
AcDbEntity
  8
Sichtbar MD
100
AcDbLine
 10
243.856385363719
 20
170.0005516713313
 30
0.0
 11
243.856385363719
 21
188.0109728630495
 31
0.0
  0
LINE
  5
28F
330
70
100
AcDbEntity
  8
Sichtbar MD
100
AcDbLine
 10
261.2563853637189
 20
146.0213940547676
 30
0.0
 11
261.2563853637189
 21
128.0109728630494
 31
0.0
  0
LINE
  5
290
330
70
100
AcDbEntity
  8
Sichtbar MD
100
AcDbLine
 10
261.5563853637189
 20
146.7931299331453
 30
0.0
 11
261.5563853637189
 21
128.3109728630493
 31
0.0
  0
LINE
  5
291
330
70
100
AcDbEntity
  8
Sichtbar MD
100
AcDbLine
 10
243.256385363719
 20
188.0109728630495
 30
0.0
 11
243.256385363719
 21
128.0109728630494
 31
0.0
  0
LINE
  5
292
330
70
100
AcDbEntity
  8
Sichtbar MD
100
AcDbLine
 10
261.8563853637189
 20
128.0109728630494
 30
0.0
 11
261.8563853637189
 21
188.0109728630495
 31
0.0
  0
LINE
  5
293
330
70
100
AcDbEntity
  8
Sichtbar MD
100
AcDbLine
 10
261.5563853637189
 20
187.7109728630495
 30
0.0
 11
261.5563853637189
 21
169.2288157929536
 31
0.0
  0
LINE
  5
294
330
70
100
AcDbEntity
  8
Sichtbar MD
100
AcDbLine
 10
261.2563853637189
 20
188.0109728630494
 30
0.0
 11
261.2563853637189
 21
170.0005516713313
 31
0.0
  0
LINE
  5
295
330
70
100
AcDbEntity
  8
Sichtbar MD
100
AcDbLine
 10
243.5563853637189
 20
128.3109728630494
 30
0.0
 11
243.8563853637189
 21
128.0109728630494
 31
0.0
  0
LINE
  5
296
330
70
100
AcDbEntity
  8
Sichtbar MD
100
AcDbLine
 10
243.556385363719
 20
187.7109728630495
 30
0.0
 11
243.856385363719
 21
188.0109728630495
 31
0.0
  0
LINE
  5
297
330
70
100
AcDbEntity
  8
Sichtbar MD
100
AcDbLine
 10
261.5563853637189
 20
128.3109728630494
 30
0.0
 11
261.2563853637189
 21
128.0109728630494
 31
0.0
  0
LINE
  5
298
330
70
100
AcDbEntity
  8
Sichtbar MD
100
AcDbLine
 10
243.5563853637189
 20
128.3109728630494
 30
0.0
 11
243.256385363719
 21
128.0109728630494
 31
0.0
  0
LINE
  5
299
330
70
100
AcDbEntity
  8
Sichtbar MD
100
AcDbLine
 10
243.556385363719
 20
187.7109728630495
 30
0.0
 11
243.256385363719
 21
188.0109728630495
 31
0.0
  0
LINE
  5
29A
330
70
100
AcDbEntity
  8
Sichtbar MD
100
AcDbLine
 10
261.5563853637189
 20
187.7109728630495
 30
0.0
 11
261.8563853637189
 21
188.0109728630495
 31
0.0
  0
LINE
  5
29B
330
70
100
AcDbEntity
  8
Sichtbar MD
100
AcDbLine
 10
261.5563853637189
 20
128.3109728630494
 30
0.0
 11
261.8563853637189
 21
128.0109728630494
 31
0.0
  0
LINE
  5
29C
330
70
100
AcDbEntity
  8
Sichtbar MD
100
AcDbLine
 10
261.5563853637189
 20
187.7109728630495
 30
0.0
 11
261.256385363719
 21
188.0109728630495
 31
0.0
  0
LINE
  5
29D
330
70
100
AcDbEntity
  8
Sichtbar MD
100
AcDbLine
 10
243.8563853637189
 20
128.0109728630494
 30
0.0
 11
261.2563853637189
 21
128.0109728630494
 31
0.0
  0
LINE
  5
29E
330
70
100
AcDbEntity
  8
Sichtbar MD
100
AcDbLine
 10
243.8563853637189
 20
188.0109728630495
 30
0.0
 11
245.306385363719
 21
188.0109728630495
 31
0.0
  0
LINE
  5
29F
330
70
100
AcDbEntity
  8
Sichtbar MD
100
AcDbLine
 10
250.806385363719
 20
188.0109728630495
 30
0.0
 11
261.256385363719
 21
188.0109728630495
 31
0.0
  0
LINE
  5
2A0
330
70
100
AcDbEntity
  8
Sichtbar MD
100
AcDbLine
 10
212.5563853637191
 20
188.0109728630495
 30
0.0
 11
243.256385363719
 21
188.0109728630495
 31
0.0
  0
LINE
  5
2A1
330
70
100
AcDbEntity
  8
Sichtbar MD
100
AcDbLine
 10
212.5563853637191
 20
128.0109728630494
 30
0.0
 11
243.256385363719
 21
128.0109728630494
 31
0.0
  0
LINE
  5
2A2
330
70
100
AcDbEntity
  8
Sichtbar MD
100
AcDbLine
 10
261.8563853637189
 20
188.0109728630495
 30
0.0
 11
282.0563853637188
 21
188.0109728630494
 31
0.0
  0
LINE
  5
2A3
330
70
100
AcDbEntity
  8
Sichtbar MD
100
AcDbLine
 10
261.8563853637189
 20
128.0109728630494
 30
0.0
 11
282.0563853637188
 21
128.0109728630494
 31
0.0
  0
LINE
  5
2A4
330
70
100
AcDbEntity
  8
Sichtbar MD
100
AcDbLine
 10
212.5563853637191
 20
189.6337494647332
 30
0.0
 11
207.0563853637191
 21
189.6337494647332
 31
0.0
  0
LINE
  5
2A5
330
70
100
AcDbEntity
  8
Sichtbar MD
100
AcDbLine
 10
207.0563853637191
 20
193.0109728630495
 30
0.0
 11
207.0563853637191
 21
189.6337494647332
 31
0.0
  0
LINE
  5
2A6
330
70
100
AcDbEntity
  8
Sichtbar MD
100
AcDbLine
 10
212.5563853637191
 20
123.0109728630494
 30
0.0
 11
212.5563853637191
 21
189.6337494647332
 31
0.0
  0
LINE
  5
2A7
330
70
100
AcDbEntity
  8
Sichtbar MD
100
AcDbLine
 10
184.5563853637191
 20
169.9816778794479
 30
0.0
 11
184.5563853637191
 21
146.040267846651
 31
0.0
  0
LINE
  5
2A8
330
70
100
AcDbEntity
  8
Sichtbar MD
100
AcDbLine
 10
198.556385363719
 20
99.01097286304946
 30
0.0
 11
198.556385363719
 21
101.4073413031427
 31
0.0
  0
LINE
  5
2A9
330
70
100
AcDbEntity
  8
Sichtbar MD
100
AcDbLine
 10
184.5563853637191
 20
99.01097286304946
 30
0.0
 11
184.5563853637191
 21
101.4073413031427
 31
0.0
  0
LINE
  5
2AA
330
70
100
AcDbEntity
  8
Sichtbar MD
100
AcDbLine
 10
184.5563853637191
 20
214.6146044229562
 30
0.0
 11
184.5563853637191
 21
217.0109728630495
 31
0.0
  0
LINE
  5
2AB
330
70
100
AcDbEntity
  8
Sichtbar MD
100
AcDbLine
 10
181.5563853637191
 20
128.0109728630495
 30
0.0
 11
181.5563853637191
 21
188.0109728630495
 31
0.0
  0
LINE
  5
2AC
330
70
100
AcDbEntity
  8
Sichtbar MD
100
AcDbLine
 10
198.5563853637191
 20
214.6146044229562
 30
0.0
 11
198.5563853637191
 21
217.0109728630495
 31
0.0
  0
LINE
  5
2AD
330
70
100
AcDbEntity
  8
Sichtbar MD
100
AcDbLine
 10
198.5563853637191
 20
193.0109728630495
 30
0.0
 11
207.0563853637191
 21
193.0109728630495
 31
0.0
  0
LINE
  5
2AE
330
70
100
AcDbEntity
  8
Sichtbar MD
100
AcDbLine
 10
198.556385363719
 20
123.0109728630494
 30
0.0
 11
212.5563853637191
 21
123.0109728630494
 31
0.0
  0
LINE
  5
2AF
330
70
100
AcDbEntity
  8
Sichtbar MD
100
AcDbLine
 10
184.5563853637191
 20
99.01097286304946
 30
0.0
 11
198.556385363719
 21
99.01097286304946
 31
0.0
  0
LINE
  5
2B0
330
70
100
AcDbEntity
  8
Sichtbar MD
100
AcDbLine
 10
181.5563853637191
 20
188.0109728630495
 30
0.0
 11
184.5563853637191
 21
188.0109728630495
 31
0.0
  0
LINE
  5
2B1
330
70
100
AcDbEntity
  8
Sichtbar MD
100
AcDbLine
 10
181.5563853637191
 20
128.0109728630495
 30
0.0
 11
184.5563853637191
 21
128.0109728630495
 31
0.0
  0
LINE
  5
2B2
330
70
100
AcDbEntity
  8
Sichtbar MD
100
AcDbLine
 10
184.5563853637191
 20
217.0109728630495
 30
0.0
 11
198.5563853637191
 21
217.0109728630495
 31
0.0
  0
LINE
  5
2B3
330
70
100
AcDbEntity
  8
Sichtbar MD
100
AcDbLine
 10
198.5563853637191
 20
146.040267846651
 30
0.0
 11
198.556385363719
 21
101.4073413031427
 31
0.0
  0
LINE
  5
2B4
330
70
100
AcDbEntity
  8
Sichtbar MD
100
AcDbLine
 10
184.5563853637191
 20
101.4073413031428
 30
0.0
 11
184.5563853637191
 21
146.040267846651
 31
0.0
  0
LINE
  5
2B5
330
70
100
AcDbEntity
  8
Sichtbar MD
100
AcDbLine
 10
198.5563853637191
 20
101.4073413031427
 30
0.0
 11
184.5563853637191
 21
101.4073413031428
 31
0.0
  0
LINE
  5
2B6
330
70
100
AcDbEntity
  8
Sichtbar MD
100
AcDbLine
 10
198.5563853637191
 20
214.6146044229562
 30
0.0
 11
198.5563853637191
 21
169.9816778794479
 31
0.0
  0
LINE
  5
2B7
330
70
100
AcDbEntity
  8
Sichtbar MD
100
AcDbLine
 10
184.5563853637191
 20
214.6146044229562
 30
0.0
 11
198.5563853637191
 21
214.6146044229562
 31
0.0
  0
LINE
  5
2B8
330
70
100
AcDbEntity
  8
Sichtbar MD
100
AcDbLine
 10
184.5563853637191
 20
169.9816778794479
 30
0.0
 11
184.5563853637191
 21
214.6146044229562
 31
0.0
  0
LINE
  5
2B9
330
70
100
AcDbEntity
  8
Sichtbar MD
100
AcDbLine
 10
177.5563853637191
 20
144.0359728630494
 30
0.0
 11
177.5563853637191
 21
150.8485274007789
 31
0.0
  0
LINE
  5
2BA
330
70
100
AcDbEntity
  8
Sichtbar MD
100
AcDbLine
 10
177.5563853637191
 20
165.17341832532
 30
0.0
 11
177.5563853637191
 21
171.9859728630495
 31
0.0
  0
LINE
  5
2BB
330
70
100
AcDbEntity
  8
Sichtbar MD
100
AcDbLine
 10
181.3313853637191
 20
166.9692441806643
 30
0.0
 11
181.3313853637191
 21
172.9859728630495
 31
0.0
  0
LINE
  5
2BC
330
70
100
AcDbEntity
  8
Sichtbar MD
100
AcDbLine
 10
178.5563853637191
 20
166.9692441806643
 30
0.0
 11
178.5563853637191
 21
172.9859728630495
 31
0.0
  0
LINE
  5
2BD
330
70
100
AcDbEntity
  8
Sichtbar MD
100
AcDbLine
 10
178.5563853637191
 20
143.0359728630494
 30
0.0
 11
178.5563853637191
 21
149.0527015454347
 31
0.0
  0
LINE
  5
2BE
330
70
100
AcDbEntity
  8
Sichtbar MD
100
AcDbLine
 10
181.3313853637191
 20
143.0359728630494
 30
0.0
 11
181.3313853637191
 21
149.0527015454347
 31
0.0
  0
LINE
  5
2BF
330
70
100
AcDbEntity
  8
Sichtbar MD
100
AcDbLine
 10
181.5563853637191
 20
172.7609728630495
 30
0.0
 11
181.3313853637191
 21
172.9859728630495
 31
0.0
  0
LINE
  5
2C0
330
70
100
AcDbEntity
  8
Sichtbar MD
100
AcDbLine
 10
178.5563853637191
 20
172.9859728630495
 30
0.0
 11
181.3313853637191
 21
172.9859728630495
 31
0.0
  0
LINE
  5
2C1
330
70
100
AcDbEntity
  8
Sichtbar MD
100
AcDbLine
 10
177.5563853637191
 20
171.9859728630495
 30
0.0
 11
178.5563853637191
 21
172.9859728630495
 31
0.0
  0
LINE
  5
2C2
330
70
100
AcDbEntity
  8
Sichtbar MD
100
AcDbLine
 10
177.5563853637191
 20
144.0359728630495
 30
0.0
 11
178.5563853637191
 21
143.0359728630494
 31
0.0
  0
LINE
  5
2C3
330
70
100
AcDbEntity
  8
Sichtbar MD
100
AcDbLine
 10
178.5563853637191
 20
143.0359728630494
 30
0.0
 11
181.3313853637191
 21
143.0359728630494
 31
0.0
  0
LINE
  5
2C4
330
70
100
AcDbEntity
  8
Sichtbar MD
100
AcDbLine
 10
181.5563853637191
 20
143.2609728630495
 30
0.0
 11
181.3313853637191
 21
143.0359728630494
 31
0.0
  0
LINE
  5
2C5
330
70
100
AcDbEntity
  8
Sichtbar MD
100
AcDbLine
 10
177.5563853637191
 20
150.8485274007789
 30
0.0
 11
177.5563853637191
 21
165.17341832532
 31
0.0
  0
SPLINE
  5
2C6
330
70
100
AcDbEntity
  8
Sichtbar MD
100
AcDbSpline
210
0.0
220
0.0
230
1.0
 70
    12
 71
     2
 72
     6
 73
     3
 74
     0
 42
0.000000001
 43
0.0000000001
 40
0.0
 40
0.0
 40
0.0
 40
0.0442834848366001
 40
0.0442834848366001
 40
0.0442834848366001
 10
181.3313853637191
 20
166.9692441806643
 30
0.0
 41
1.0
 10
181.4463323917145
 20
166.7770941906493
 30
0.0
 41
1.000082332386148
 10
181.5563853637191
 20
166.5878312622537
 30
0.0
 41
1.0
  0
LINE
  5
2C7
330
70
100
AcDbEntity
  8
Sichtbar MD
100
AcDbLine
 10
178.5563853637191
 20
166.9692441806643
 30
0.0
 11
181.3313853637191
 21
166.9692441806643
 31
0.0
  0
SPLINE
  5
2C8
330
70
100
AcDbEntity
  8
Sichtbar MD
100
AcDbSpline
210
0.0
220
0.0
230
1.0
 70
    12
 71
     2
 72
     6
 73
     3
 74
     0
 42
0.000000001
 43
0.0000000001
 40
0.0
 40
0.0
 40
0.0
 40
0.2055753065435408
 40
0.2055753065435408
 40
0.2055753065435408
 10
177.5563853637191
 20
165.17341832532
 30
0.0
 41
1.0
 10
178.0006860458828
 20
166.040315262399
 30
0.0
 41
1.001929553778217
 10
178.5563853637191
 20
166.9692441806643
 30
0.0
 41
1.0
  0
SPLINE
  5
2C9
330
70
100
AcDbEntity
  8
Sichtbar MD
100
AcDbSpline
210
0.0
220
0.0
230
1.0
 70
    12
 71
     2
 72
     6
 73
     3
 74
     0
 42
0.000000001
 43
0.0000000001
 40
0.0
 40
0.0
 40
0.0
 40
0.205575306543541
 40
0.205575306543541
 40
0.205575306543541
 10
178.5563853637191
 20
149.0527015454347
 30
0.0
 41
1.0
 10
178.0006860458828
 20
149.9816304636999
 30
0.0
 41
1.001929553777997
 10
177.5563853637191
 20
150.8485274007789
 30
0.0
 41
1.0
  0
LINE
  5
2CA
330
70
100
AcDbEntity
  8
Sichtbar MD
100
AcDbLine
 10
181.3313853637191
 20
149.0527015454347
 30
0.0
 11
178.5563853637191
 21
149.0527015454347
 31
0.0
  0
SPLINE
  5
2CB
330
70
100
AcDbEntity
  8
Sichtbar MD
100
AcDbSpline
210
0.0
220
0.0
230
1.0
 70
    12
 71
     2
 72
     6
 73
     3
 74
     0
 42
0.000000001
 43
0.0000000001
 40
0.0
 40
0.0
 40
0.0
 40
0.0442834848366001
 40
0.0442834848366001
 40
0.0442834848366001
 10
181.5563853637191
 20
149.4341144638452
 30
0.0
 41
1.0
 10
181.4463323917145
 20
149.2448515354496
 30
0.0
 41
1.000082332387952
 10
181.3313853637191
 20
149.0527015454347
 30
0.0
 41
1.0
  0
CIRCLE
  5
2CC
330
70
100
AcDbEntity
  8
Sichtbar MD
100
AcDbCircle
 10
64.54388738769378
 20
142.0109728630495
 30
0.0
 40
9.3155
  0
CIRCLE
  5
2CD
330
70
100
AcDbEntity
  8
Sichtbar MD
100
AcDbCircle
 10
51.04388738769383
 20
169.0109728630495
 30
0.0
 40
7.475
  0
CIRCLE
  5
2CE
330
70
100
AcDbEntity
  8
Sichtbar MD
100
AcDbCircle
 10
78.04388738769384
 20
169.0109728630495
 30
0.0
 40
7.475
  0
LINE
  5
2CF
330
70
100
AcDbEntity
  8
Sichtbar MD
100
AcDbLine
 10
86.48581245624093
 20
159.2432375037935
 30
0.0
 11
86.48581245624093
 21
162.7432374441889
 31
0.0
  0
LINE
  5
2D0
330
70
100
AcDbEntity
  8
Sichtbar MD
100
AcDbLine
 10
86.48581245624093
 20
162.7432374441889
 30
0.0
 11
87.38775733553243
 21
162.7432374441889
 31
0.0
  0
SPLINE
  5
2D1
330
70
100
AcDbEntity
  8
Sichtbar MD
100
AcDbSpline
210
0.0
220
0.0
230
1.0
 70
     8
 71
     2
 72
     7
 73
     4
 74
     0
 42
0.000000001
 43
0.0000000001
 40
0.0
 40
0.0
 40
0.0
 40
1.0
 40
2.0
 40
2.0
 40
2.0
 10
87.38775733553243
 20
162.7432374441889
 30
0.0
 10
87.6884056286296
 20
162.7432374441889
 30
0.0
 10
88.09399719384561
 20
162.6780024371961
 30
0.0
 10
88.27835699621651
 20
162.558877641818
 30
0.0
  0
SPLINE
  5
2D2
330
70
100
AcDbEntity
  8
Sichtbar MD
100
AcDbSpline
210
0.0
220
0.0
230
1.0
 70
     8
 71
     2
 72
     7
 73
     4
 74
     0
 42
0.000000001
 43
0.0000000001
 40
0.0
 40
0.0
 40
0.0
 40
1.0
 40
2.0
 40
2.0
 40
2.0
 10
88.27835699621651
 20
162.558877641818
 30
0.0
 10
88.46271679858743
 20
162.4397528464399
 30
0.0
 10
88.67543964747694
 20
162.0681969370462
 30
0.0
 10
88.67543964747694
 20
161.7930753858158
 30
0.0
  0
SPLINE
  5
2D3
330
70
100
AcDbEntity
  8
Sichtbar MD
100
AcDbSpline
210
0.0
220
0.0
230
1.0
 70
     8
 71
     2
 72
     7
 73
     4
 74
     0
 42
0.000000001
 43
0.0000000001
 40
0.0
 40
0.0
 40
0.0
 40
1.0
 40
2.0
 40
2.0
 40
2.0
 10
88.67543964747694
 20
161.7930753858158
 30
0.0
 10
88.67543964747694
 20
161.4101742578147
 30
0.0
 10
88.28402960552024
 20
160.8911305065243
 30
0.0
 10
87.94934565660074
 20
160.7663331018424
 30
0.0
  0
LINE
  5
2D4
330
70
100
AcDbEntity
  8
Sichtbar MD
100
AcDbLine
 10
87.94934565660074
 20
160.7663331018424
 30
0.0
 11
89.19448339876732
 21
159.2432375037935
 31
0.0
  0
LINE
  5
2D5
330
70
100
AcDbEntity
  8
Sichtbar MD
100
AcDbLine
 10
89.19448339876732
 20
159.2432375037935
 30
0.0
 11
88.59035050792114
 21
159.2432375037935
 31
0.0
  0
LINE
  5
2D6
330
70
100
AcDbEntity
  8
Sichtbar MD
100
AcDbLine
 10
88.59035050792114
 20
159.2432375037935
 30
0.0
 11
87.48419169369569
 21
160.6358630878569
 31
0.0
  0
LINE
  5
2D7
330
70
100
AcDbEntity
  8
Sichtbar MD
100
AcDbLine
 10
87.48419169369569
 20
160.6358630878569
 30
0.0
 11
86.950966419146
 21
160.6358630878569
 31
0.0
  0
LINE
  5
2D8
330
70
100
AcDbEntity
  8
Sichtbar MD
100
AcDbLine
 10
86.950966419146
 20
160.6358630878569
 30
0.0
 11
86.950966419146
 21
159.2432375037935
 31
0.0
  0
LINE
  5
2D9
330
70
100
AcDbEntity
  8
Sichtbar MD
100
AcDbLine
 10
86.950966419146
 20
159.2432375037935
 30
0.0
 11
86.48581245624093
 21
159.2432375037935
 31
0.0
  0
LINE
  5
2DA
330
70
100
AcDbEntity
  8
Sichtbar MD
100
AcDbLine
 10
79.17655081423854
 20
144.4817845670505
 30
0.0
 11
79.17655081423854
 21
144.0676840878789
 31
0.0
  0
LINE
  5
2DB
330
70
100
AcDbEntity
  8
Sichtbar MD
100
AcDbLine
 10
79.17655081423854
 20
144.0676840878789
 30
0.0
 11
77.56836607663387
 21
144.0676840878789
 31
0.0
  0
LINE
  5
2DC
330
70
100
AcDbEntity
  8
Sichtbar MD
100
AcDbLine
 10
77.56836607663387
 20
144.0676840878789
 30
0.0
 11
77.56836607663387
 21
142.768656557327
 31
0.0
  0
LINE
  5
2DD
330
70
100
AcDbEntity
  8
Sichtbar MD
100
AcDbLine
 10
77.56836607663387
 20
142.768656557327
 30
0.0
 11
79.2928393049648
 21
142.768656557327
 31
0.0
  0
LINE
  5
2DE
330
70
100
AcDbEntity
  8
Sichtbar MD
100
AcDbLine
 10
79.2928393049648
 20
142.768656557327
 30
0.0
 11
79.2928393049648
 21
142.3545560781555
 31
0.0
  0
LINE
  5
2DF
330
70
100
AcDbEntity
  8
Sichtbar MD
100
AcDbLine
 10
79.2928393049648
 20
142.3545560781555
 30
0.0
 11
77.1032121137288
 21
142.3545560781555
 31
0.0
  0
LINE
  5
2E0
330
70
100
AcDbEntity
  8
Sichtbar MD
100
AcDbLine
 10
77.1032121137288
 20
142.3545560781555
 30
0.0
 11
77.1032121137288
 21
145.8545560185508
 31
0.0
  0
LINE
  5
2E1
330
70
100
AcDbEntity
  8
Sichtbar MD
100
AcDbLine
 10
77.1032121137288
 20
145.8545560185508
 30
0.0
 11
79.2928393049648
 21
145.8545560185508
 31
0.0
  0
LINE
  5
2E2
330
70
100
AcDbEntity
  8
Sichtbar MD
100
AcDbLine
 10
79.2928393049648
 20
145.8545560185508
 30
0.0
 11
79.2928393049648
 21
145.4404555393792
 31
0.0
  0
LINE
  5
2E3
330
70
100
AcDbEntity
  8
Sichtbar MD
100
AcDbLine
 10
79.2928393049648
 20
145.4404555393792
 30
0.0
 11
77.56836607663387
 21
145.4404555393792
 31
0.0
  0
LINE
  5
2E4
330
70
100
AcDbEntity
  8
Sichtbar MD
100
AcDbLine
 10
77.56836607663387
 20
145.4404555393792
 30
0.0
 11
77.56836607663387
 21
144.4817845670505
 31
0.0
  0
LINE
  5
2E5
330
70
100
AcDbEntity
  8
Sichtbar MD
100
AcDbLine
 10
77.56836607663387
 20
144.4817845670505
 30
0.0
 11
79.17655081423854
 21
144.4817845670505
 31
0.0
  0
LINE
  5
2E6
330
70
100
AcDbEntity
  8
Sichtbar MD
100
AcDbLine
 10
82.22274201033627
 20
142.3545560781555
 30
0.0
 11
81.68951673578659
 21
142.3545560781555
 31
0.0
  0
LINE
  5
2E7
330
70
100
AcDbEntity
  8
Sichtbar MD
100
AcDbLine
 10
81.68951673578659
 20
142.3545560781555
 30
0.0
 11
80.83862534022856
 21
143.7500179668706
 31
0.0
  0
LINE
  5
2E8
330
70
100
AcDbEntity
  8
Sichtbar MD
100
AcDbLine
 10
80.83862534022856
 20
143.7500179668706
 30
0.0
 11
79.97071611675936
 21
142.3545560781555
 31
0.0
  0
LINE
  5
2E9
330
70
100
AcDbEntity
  8
Sichtbar MD
100
AcDbLine
 10
79.97071611675936
 20
142.3545560781555
 30
0.0
 11
79.46869019338013
 21
142.3545560781555
 31
0.0
  0
LINE
  5
2EA
330
70
100
AcDbEntity
  8
Sichtbar MD
100
AcDbLine
 10
79.46869019338013
 20
142.3545560781555
 30
0.0
 11
80.58335792156114
 21
144.107392353005
 31
0.0
  0
LINE
  5
2EB
330
70
100
AcDbEntity
  8
Sichtbar MD
100
AcDbLine
 10
80.58335792156114
 20
144.107392353005
 30
0.0
 11
79.50272584920245
 21
145.8545560185508
 31
0.0
  0
LINE
  5
2EC
330
70
100
AcDbEntity
  8
Sichtbar MD
100
AcDbLine
 10
79.50272584920245
 20
145.8545560185508
 30
0.0
 11
80.03595112375213
 21
145.8545560185508
 31
0.0
  0
LINE
  5
2ED
330
70
100
AcDbEntity
  8
Sichtbar MD
100
AcDbLine
 10
80.03595112375213
 20
145.8545560185508
 30
0.0
 11
80.86982469139901
 21
144.4846208717024
 31
0.0
  0
LINE
  5
2EE
330
70
100
AcDbEntity
  8
Sichtbar MD
100
AcDbLine
 10
80.86982469139901
 20
144.4846208717024
 30
0.0
 11
81.72071608695704
 21
145.8545560185508
 31
0.0
  0
LINE
  5
2EF
330
70
100
AcDbEntity
  8
Sichtbar MD
100
AcDbLine
 10
81.72071608695704
 20
145.8545560185508
 30
0.0
 11
82.22274201033627
 21
145.8545560185508
 31
0.0
  0
LINE
  5
2F0
330
70
100
AcDbEntity
  8
Sichtbar MD
100
AcDbLine
 10
82.22274201033627
 20
145.8545560185508
 30
0.0
 11
81.12792841471827
 21
144.1300827902199
 31
0.0
  0
LINE
  5
2F1
330
70
100
AcDbEntity
  8
Sichtbar MD
100
AcDbLine
 10
81.12792841471827
 20
144.1300827902199
 30
0.0
 11
82.22274201033627
 21
142.3545560781555
 31
0.0
  0
LINE
  5
2F2
330
70
100
AcDbEntity
  8
Sichtbar MD
100
AcDbLine
 10
40.66347139608617
 20
163.2436428197633
 30
0.0
 11
40.66347139608617
 21
160.1577433585396
 31
0.0
  0
LINE
  5
2F3
330
70
100
AcDbEntity
  8
Sichtbar MD
100
AcDbLine
 10
40.66347139608617
 20
160.1577433585396
 30
0.0
 11
42.22627525926109
 21
160.1577433585396
 31
0.0
  0
LINE
  5
2F4
330
70
100
AcDbEntity
  8
Sichtbar MD
100
AcDbLine
 10
42.22627525926109
 20
160.1577433585396
 30
0.0
 11
42.22627525926109
 21
159.743642879368
 31
0.0
  0
LINE
  5
2F5
330
70
100
AcDbEntity
  8
Sichtbar MD
100
AcDbLine
 10
42.22627525926109
 20
159.743642879368
 30
0.0
 11
40.19831743318113
 21
159.743642879368
 31
0.0
  0
LINE
  5
2F6
330
70
100
AcDbEntity
  8
Sichtbar MD
100
AcDbLine
 10
40.19831743318113
 20
159.743642879368
 30
0.0
 11
40.19831743318113
 21
163.2436428197633
 31
0.0
  0
LINE
  5
2F7
330
70
100
AcDbEntity
  8
Sichtbar MD
100
AcDbLine
 10
40.19831743318113
 20
163.2436428197633
 30
0.0
 11
40.66347139608617
 21
163.2436428197633
 31
0.0
  0
LINE
  5
2F8
330
70
100
AcDbEntity
  8
Sichtbar MD
100
AcDbLine
 10
85.13846319244846
 20
142.3545560781555
 30
0.0
 11
84.67330922954339
 21
142.3545560781555
 31
0.0
  0
LINE
  5
2F9
330
70
100
AcDbEntity
  8
Sichtbar MD
100
AcDbLine
 10
84.67330922954339
 20
142.3545560781555
 30
0.0
 11
84.67330922954339
 21
144.0676840878789
 31
0.0
  0
LINE
  5
2FA
330
70
100
AcDbEntity
  8
Sichtbar MD
100
AcDbLine
 10
84.67330922954339
 20
144.0676840878789
 30
0.0
 11
83.06228818728687
 21
144.0676840878789
 31
0.0
  0
LINE
  5
2FB
330
70
100
AcDbEntity
  8
Sichtbar MD
100
AcDbLine
 10
83.06228818728687
 20
144.0676840878789
 30
0.0
 11
83.06228818728687
 21
142.3545560781555
 31
0.0
  0
LINE
  5
2FC
330
70
100
AcDbEntity
  8
Sichtbar MD
100
AcDbLine
 10
83.06228818728687
 20
142.3545560781555
 30
0.0
 11
82.59713422438181
 21
142.3545560781555
 31
0.0
  0
LINE
  5
2FD
330
70
100
AcDbEntity
  8
Sichtbar MD
100
AcDbLine
 10
82.59713422438181
 20
142.3545560781555
 30
0.0
 11
82.59713422438181
 21
145.8545560185508
 31
0.0
  0
LINE
  5
2FE
330
70
100
AcDbEntity
  8
Sichtbar MD
100
AcDbLine
 10
82.59713422438181
 20
145.8545560185508
 30
0.0
 11
83.06228818728687
 21
145.8545560185508
 31
0.0
  0
LINE
  5
2FF
330
70
100
AcDbEntity
  8
Sichtbar MD
100
AcDbLine
 10
83.06228818728687
 20
145.8545560185508
 30
0.0
 11
83.06228818728687
 21
144.4817845670505
 31
0.0
  0
LINE
  5
300
330
70
100
AcDbEntity
  8
Sichtbar MD
100
AcDbLine
 10
83.06228818728687
 20
144.4817845670505
 30
0.0
 11
84.67330922954339
 21
144.4817845670505
 31
0.0
  0
LINE
  5
301
330
70
100
AcDbEntity
  8
Sichtbar MD
100
AcDbLine
 10
84.67330922954339
 20
144.4817845670505
 30
0.0
 11
84.67330922954339
 21
145.8545560185508
 31
0.0
  0
LINE
  5
302
330
70
100
AcDbEntity
  8
Sichtbar MD
100
AcDbLine
 10
84.67330922954339
 20
145.8545560185508
 30
0.0
 11
85.13846319244846
 21
145.8545560185508
 31
0.0
  0
LINE
  5
303
330
70
100
AcDbEntity
  8
Sichtbar MD
100
AcDbLine
 10
85.13846319244846
 20
145.8545560185508
 30
0.0
 11
85.13846319244846
 21
142.3545560781555
 31
0.0
  0
SPLINE
  5
304
330
70
100
AcDbEntity
  8
Sichtbar MD
100
AcDbSpline
210
0.0
220
0.0
230
1.0
 70
     8
 71
     2
 72
     7
 73
     4
 74
     0
 42
0.000000001
 43
0.0000000001
 40
0.0
 40
0.0
 40
0.0
 40
1.0
 40
2.0
 40
2.0
 40
2.0
 10
87.35939428901383
 20
161.0244368251617
 30
0.0
 10
87.56077191929591
 20
161.0244368251617
 30
0.0
 10
87.8812743449561
 20
161.0953444414582
 30
0.0
 10
87.99189022637865
 20
161.2059603228807
 30
0.0
  0
SPLINE
  5
305
330
70
100
AcDbEntity
  8
Sichtbar MD
100
AcDbSpline
210
0.0
220
0.0
230
1.0
 70
     8
 71
     2
 72
     7
 73
     4
 74
     0
 42
0.000000001
 43
0.0000000001
 40
0.0
 40
0.0
 40
0.0
 40
1.0
 40
2.0
 40
2.0
 40
2.0
 10
87.99189022637865
 20
161.2059603228807
 30
0.0
 10
88.09399719384561
 20
161.302394681044
 30
0.0
 10
88.19043155200885
 20
161.5746799276226
 30
0.0
 10
88.19043155200885
 20
161.7562034253416
 30
0.0
  0
SPLINE
  5
306
330
70
100
AcDbEntity
  8
Sichtbar MD
100
AcDbSpline
210
0.0
220
0.0
230
1.0
 70
     8
 71
     2
 72
     7
 73
     4
 74
     0
 42
0.000000001
 43
0.0000000001
 40
0.0
 40
0.0
 40
0.0
 40
1.0
 40
2.0
 40
2.0
 40
2.0
 10
88.19043155200885
 20
161.7562034253416
 30
0.0
 10
88.19043155200885
 20
161.909363876542
 30
0.0
 10
88.08265197523816
 20
162.1447771626464
 30
0.0
 10
87.96919978916376
 20
162.2213573882466
 30
0.0
  0
SPLINE
  5
307
330
70
100
AcDbEntity
  8
Sichtbar MD
100
AcDbSpline
210
0.0
220
0.0
230
1.0
 70
     8
 71
     2
 72
     7
 73
     4
 74
     0
 42
0.000000001
 43
0.0000000001
 40
0.0
 40
0.0
 40
0.0
 40
1.0
 40
2.0
 40
2.0
 40
2.0
 10
87.96919978916376
 20
162.2213573882466
 30
0.0
 10
87.86992912634865
 20
162.2865923952394
 30
0.0
 10
87.60615279372567
 20
162.3404821836247
 30
0.0
 10
87.41328407739917
 20
162.3404821836247
 30
0.0
  0
LINE
  5
308
330
70
100
AcDbEntity
  8
Sichtbar MD
100
AcDbLine
 10
87.41328407739919
 20
162.3404821836247
 30
0.0
 11
86.950966419146
 21
162.3404821836247
 31
0.0
  0
LINE
  5
309
330
70
100
AcDbEntity
  8
Sichtbar MD
100
AcDbLine
 10
86.950966419146
 20
162.3404821836247
 30
0.0
 11
86.950966419146
 21
161.0244368251617
 31
0.0
  0
LINE
  5
30A
330
70
100
AcDbEntity
  8
Sichtbar MD
100
AcDbLine
 10
86.950966419146
 20
161.0244368251617
 30
0.0
 11
87.35939428901383
 21
161.0244368251617
 31
0.0
  0
LINE
  5
30B
330
70
100
AcDbEntity
  8
Sichtbar MD
100
AcDbLine
 10
37.04388738769413
 20
170.0005516713313
 30
0.0
 11
37.04388738769413
 21
146.0213940547676
 31
0.0
  0
LINE
  5
30C
330
70
100
AcDbEntity
  8
Sichtbar MD
100
AcDbLine
 10
92.04388738769411
 20
146.0213940547676
 30
0.0
 11
92.04388738769411
 21
170.0005516713313
 31
0.0
  0
ARC
  5
30D
330
70
100
AcDbEntity
  8
Sichtbar MD
100
AcDbCircle
 10
64.54388738768966
 20
158.0109728630494
 30
0.0
 40
29.7
100
AcDbArc
 50
157.8083934337273
 51
202.1916065662728
  0
ARC
  5
30E
330
70
100
AcDbEntity
  8
Sichtbar MD
100
AcDbCircle
 10
64.54388738768969
 20
158.0109728630494
 30
0.0
 40
29.69999999999999
100
AcDbArc
 50
337.8083934337273
 51
22.1916065662727
  0
ARC
  5
30F
330
70
100
AcDbEntity
  8
Sichtbar MD
100
AcDbCircle
 10
64.54388738769413
 20
158.0109728630494
 30
0.0
 40
30.00000000000002
100
AcDbArc
 50
203.5564643091013
 51
336.4435356908987
  0
ARC
  5
310
330
70
100
AcDbEntity
  8
Sichtbar MD
100
AcDbCircle
 10
64.54388738769411
 20
158.0109728630494
 30
0.0
 40
30.00000000000002
100
AcDbArc
 50
23.55646430910126
 51
156.4435356908987
  0
ARC
  5
311
330
70
100
AcDbEntity
  8
Sichtbar MD
100
AcDbCircle
 10
64.54388738768956
 20
158.0109728630494
 30
0.0
 40
30.0
100
AcDbArc
 50
156.4435356908987
 51
203.5564643091013
  0
ARC
  5
312
330
70
100
AcDbEntity
  8
Sichtbar MD
100
AcDbCircle
 10
64.54388738768956
 20
158.0109728630494
 30
0.0
 40
30.00000000000003
100
AcDbArc
 50
336.4435356908988
 51
23.55646430910129
  0
CIRCLE
  5
313
330
70
100
AcDbEntity
  8
Sichtbar MD
100
AcDbCircle
 10
74.82848914267311
 20
170.2676839529531
 30
0.0
 40
2.9
  0
CIRCLE
  5
314
330
70
100
AcDbEntity
  8
Sichtbar MD
100
AcDbCircle
 10
54.25928563270385
 20
170.2676839529531
 30
0.0
 40
2.9
  0
ARC
  5
315
330
70
100
AcDbEntity
  8
Sichtbar schmal MD
100
AcDbCircle
 10
51.04388738769409
 20
169.0109728630495
 30
0.0
 40
8.331000000000004
100
AcDbArc
 50
80.00000000000186
 51
349.9999999999508
  0
ARC
  5
316
330
70
100
AcDbEntity
  8
Sichtbar schmal MD
100
AcDbCircle
 10
78.0438873876941
 20
169.0109728630495
 30
0.0
 40
8.331000000000004
100
AcDbArc
 50
80.00000000000186
 51
349.9999999999508
  0
ARC
  5
317
330
70
100
AcDbEntity
  8
Sichtbar schmal MD
100
AcDbCircle
 10
64.54388738769411
 20
142.0109728630494
 30
0.0
 40
10.47750000000001
100
AcDbArc
 50
10.00000000004921
 51
279.9999999999981
  0
CIRCLE
  5
318
330
70
100
AcDbEntity
  8
Sichtbar MD
100
AcDbCircle
 10
75.24630108896284
 20
170.7656128409805
 30
0.0
 40
2.099999999999999
  0
CIRCLE
  5
319
330
70
100
AcDbEntity
  8
Sichtbar MD
100
AcDbCircle
 10
53.84147368640109
 20
170.7656128409804
 30
0.0
 40
2.099999999999999
  0
ARC
  5
31A
330
70
100
AcDbEntity
  8
Sichtbar MD
100
AcDbCircle
 10
64.54388738768193
 20
155.5109728630493
 30
0.0
 40
15.50000000000015
100
AcDbArc
 50
50.00588189226301
 51
60.24544073300982
  0
ARC
  5
31B
330
70
100
AcDbEntity
  8
Sichtbar MD
100
AcDbCircle
 10
64.54388738768338
 20
158.010972863049
 30
0.0
 40
18.75000000000062
100
AcDbArc
 50
46.95432897398486
 51
53.04567102601517
  0
ARC
  5
31C
330
70
100
AcDbEntity
  8
Sichtbar MD
100
AcDbCircle
 10
64.54388738768217
 20
155.5109728630492
 30
0.0
 40
15.5000000000003
100
AcDbArc
 50
119.7545592669905
 51
129.994118107737
  0
ARC
  5
31D
330
70
100
AcDbEntity
  8
Sichtbar MD
100
AcDbCircle
 10
64.54388738768395
 20
158.0109728630493
 30
0.0
 40
18.75000000000025
100
AcDbArc
 50
126.9543289739847
 51
133.0456710260158
  0
ARC
  5
31E
330
70
100
AcDbEntity
  8
Sichtbar MD
100
AcDbCircle
 10
64.54388738768734
 20
158.0109728630494
 30
0.0
 40
12.28867513459484
100
AcDbArc
 50
234.5231302382625
 51
305.476869761737
  0
ARC
  5
31F
330
70
100
AcDbEntity
  8
Sichtbar MD
100
AcDbCircle
 10
64.54388738768719
 20
158.0109728630494
 30
0.0
 40
12.00000000000002
100
AcDbArc
 50
234.6547419634086
 51
305.3452580365912
  0
ARC
  5
320
330
70
100
AcDbEntity
  8
Sichtbar MD
100
AcDbCircle
 10
64.54388738768734
 20
158.0109728630494
 30
0.0
 40
14.50000000000003
100
AcDbArc
 50
234.8677984366015
 51
305.1322015633979
  0
ARC
  5
321
330
70
100
AcDbEntity
  8
Sichtbar MD
100
AcDbCircle
 10
64.54388738768482
 20
158.0109728630495
 30
0.0
 40
20.00000000000007
100
AcDbArc
 50
284.4897625938846
 51
297.2009830076304
  0
ARC
  5
322
330
70
100
AcDbEntity
  8
Sichtbar MD
100
AcDbCircle
 10
64.54388738768486
 20
158.0109728630495
 30
0.0
 40
20.00000000000012
100
AcDbArc
 50
242.7990169923693
 51
255.5102374061153
  0
ARC
  5
323
330
70
100
AcDbEntity
  8
Sichtbar MD
100
AcDbCircle
 10
64.54388738768719
 20
158.0109728630494
 30
0.0
 40
9.750000000000001
100
AcDbArc
 50
237.8937525665789
 51
302.1062474334209
  0
ARC
  5
324
330
70
100
AcDbEntity
  8
Sichtbar MD
100
AcDbCircle
 10
64.54388738768719
 20
158.0109728630495
 30
0.0
 40
6.750000000000094
100
AcDbArc
 50
263.9174079481107
 51
276.082592051889
  0
ARC
  5
325
330
70
100
AcDbEntity
  8
Sichtbar MD
100
AcDbCircle
 10
64.54388738768709
 20
158.0109728630494
 30
0.0
 40
6.799999999999952
100
AcDbArc
 50
261.9606076654123
 51
278.0393923345875
  0
ARC
  5
326
330
70
100
AcDbEntity
  8
Sichtbar MD
100
AcDbCircle
 10
55.35149923226022
 20
148.8185847076244
 30
0.0
 40
11.00000000000009
100
AcDbArc
 50
274.4674998527586
 51
292.3801350519594
  0
ARC
  5
327
330
70
100
AcDbEntity
  8
Sichtbar MD
100
AcDbCircle
 10
64.54388738768537
 20
158.0109728630494
 30
0.0
 40
20.00000000000002
100
AcDbArc
 50
255.5102374061155
 51
284.4897625938845
  0
ARC
  5
328
330
70
100
AcDbEntity
  8
Sichtbar MD
100
AcDbCircle
 10
73.73627554311048
 20
148.8185847076243
 30
0.0
 40
10.99999999999993
100
AcDbArc
 50
247.6198649480404
 51
265.5325001472416
  0
LINE
  5
329
330
70
100
AcDbEntity
  8
Sichtbar MD
100
AcDbLine
 10
49.54388738764428
 20
183.9917349765826
 30
0.0
 11
49.54388738764428
 21
189.6337494647332
 31
0.0
  0
LINE
  5
32A
330
70
100
AcDbEntity
  8
Sichtbar MD
100
AcDbLine
 10
79.54388738764428
 20
189.6337494647332
 30
0.0
 11
79.54388738764428
 21
183.9917349765826
 31
0.0
  0
ARC
  5
32B
330
70
100
AcDbEntity
  8
Sichtbar MD
100
AcDbCircle
 10
64.54388738764264
 20
158.0109728630494
 30
0.0
 40
35.0
100
AcDbArc
 50
64.62306647484773
 51
115.3769335251523
  0
ARC
  5
32C
330
70
100
AcDbEntity
  8
Sichtbar MD
100
AcDbCircle
 10
64.54388738764428
 20
158.0109728630494
 30
0.0
 40
35.00000000000002
100
AcDbArc
 50
115.3769335251523
 51
64.62306647484765
  0
ARC
  5
32D
330
70
100
AcDbEntity
  8
Sichtbar MD
100
AcDbCircle
 10
64.54388738764011
 20
158.0109728630494
 30
0.0
 40
58.99999999999998
100
AcDbArc
 50
253.6141321831455
 51
286.3858678168545
  0
ARC
  5
32E
330
70
100
AcDbEntity
  8
Sichtbar MD
100
AcDbCircle
 10
64.54388738764013
 20
158.0109728630494
 30
0.0
 40
59.0000000000001
100
AcDbArc
 50
73.61413218314545
 51
106.3858678168545
  0
CIRCLE
  5
32F
330
70
100
AcDbEntity
  8
Sichtbar MD
100
AcDbCircle
 10
64.54388738764011
 20
108.0109728630494
 30
0.0
 40
5.150000000000001
  0
CIRCLE
  5
330
330
70
100
AcDbEntity
  8
Sichtbar MD
100
AcDbCircle
 10
64.54388738764013
 20
208.0109728630495
 30
0.0
 40
5.150000000000001
  0
LINE
  5
331
330
70
100
AcDbEntity
  8
Sichtbar MD
100
AcDbLine
 10
81.18807238511999
 20
101.4073413031427
 30
0.0
 11
97.43312911514692
 21
146.040267846651
 31
0.0
  0
LINE
  5
332
330
70
100
AcDbEntity
  8
Sichtbar MD
100
AcDbLine
 10
31.65464566013332
 20
146.040267846651
 30
0.0
 11
47.89970239016023
 21
101.4073413031427
 31
0.0
  0
LINE
  5
333
330
70
100
AcDbEntity
  8
Sichtbar MD
100
AcDbLine
 10
47.8997023901602
 20
214.6146044229562
 30
0.0
 11
31.6546456601333
 21
169.9816778794479
 31
0.0
  0
LINE
  5
334
330
70
100
AcDbEntity
  8
Sichtbar MD
100
AcDbLine
 10
97.43312911514694
 20
169.9816778794479
 30
0.0
 11
81.18807238512003
 21
214.6146044229562
 31
0.0
  0
LINE
  5
335
330
70
100
AcDbEntity
  8
Mittelpunktmarkierung MD
  6
Continuous
100
AcDbLine
 10
72.19388738764012
 20
208.0109728630495
 30
0.0
 11
56.89388738764012
 21
208.0109728630495
 31
0.0
  0
LINE
  5
336
330
70
100
AcDbEntity
  8
Mittelpunktmarkierung MD
  6
Continuous
100
AcDbLine
 10
64.54388738764013
 20
222.1331095541383
 30
0.0
 11
64.54388738764013
 21
200.3609728630495
 31
0.0
  0
LINE
  5
337
330
70
100
AcDbEntity
  8
Mittelpunktmarkierung MD
  6
Continuous
100
AcDbLine
 10
72.19388738764012
 20
108.0109728630494
 30
0.0
 11
56.8938873876401
 21
108.0109728630494
 31
0.0
  0
LINE
  5
338
330
70
100
AcDbEntity
  8
Mittelpunktmarkierung MD
  6
Continuous
100
AcDbLine
 10
64.54388738764011
 20
115.6609728630494
 30
0.0
 11
64.54388738764011
 21
93.43770187512005
 31
0.0
  0
LINE
  5
339
330
70
100
AcDbEntity
  8
Mittelpunktmarkierung MD
  6
Continuous
100
AcDbLine
 10
61.01888738769384
 20
169.0109728630494
 30
0.0
 11
41.06888738769383
 21
169.0109728630494
 31
0.0
  0
LINE
  5
33A
330
70
100
AcDbEntity
  8
Mittelpunktmarkierung MD
  6
Continuous
100
AcDbLine
 10
51.04388738769383
 20
178.9859728630494
 30
0.0
 11
51.04388738769383
 21
159.0359728630494
 31
0.0
  0
LINE
  5
33B
330
70
100
AcDbEntity
  8
Mittelpunktmarkierung MD
  6
Continuous
100
AcDbLine
 10
88.01888738769383
 20
169.0109728630494
 30
0.0
 11
68.06888738769385
 21
169.0109728630494
 31
0.0
  0
LINE
  5
33C
330
70
100
AcDbEntity
  8
Mittelpunktmarkierung MD
  6
Continuous
100
AcDbLine
 10
78.04388738769384
 20
178.9859728630494
 30
0.0
 11
78.04388738769384
 21
159.0359728630494
 31
0.0
  0
LINE
  5
33D
330
70
100
AcDbEntity
  8
Mittelpunktmarkierung MD
  6
Continuous
100
AcDbLine
 10
76.35938738769377
 20
142.0109728630494
 30
0.0
 11
52.72838738769376
 21
142.0109728630494
 31
0.0
  0
LINE
  5
33E
330
70
100
AcDbEntity
  8
Mittelpunktmarkierung MD
  6
Continuous
100
AcDbLine
 10
64.54388738769377
 20
153.8264728630494
 30
0.0
 11
64.54388738769377
 21
130.1954728630494
 31
0.0
  0
LINE
  5
33F
330
70
100
AcDbEntity
  8
Mittelpunktmarkierung MD
  6
Continuous
100
AcDbLine
 10
102.0438873876443
 20
158.0109728630494
 30
0.0
 11
27.04388738764427
 21
158.0109728630494
 31
0.0
  0
LINE
  5
340
330
70
100
AcDbEntity
  8
Mittelpunktmarkierung MD
  6
Continuous
100
AcDbLine
 10
64.54388738764428
 20
206.9161456764175
 30
0.0
 11
64.54388738764428
 21
107.8289390307939
 31
0.0
  0
LINE
  5
341
330
70
100
AcDbEntity
  8
Mittellinie MD
  6
Continuous
100
AcDbLine
 10
135.3004466294718
 20
158.0109728630495
 30
0.0
 11
383.6662933870733
 21
158.0109728630493
 31
0.0
  0
LINE
  5
342
330
70
100
AcDbEntity
  8
Skizziergeometrie MD
100
AcDbLine
 10
365.8563853637189
 20
170.0005516713313
 30
0.0
 11
380.5563853637189
 21
146.0213940547676
 31
0.0
  0
LINE
  5
343
330
70
100
AcDbEntity
  8
Skizziergeometrie MD
100
AcDbLine
 10
365.8563853637189
 20
146.0213940547676
 30
0.0
 11
380.5563853637189
 21
170.0005516713313
 31
0.0
  0
LINE
  5
344
330
70
100
AcDbEntity
  8
Skizziergeometrie MD
100
AcDbLine
 10
314.8563853637189
 20
170.0005516713313
 30
0.0
 11
331.2563853637189
 21
146.0213940547676
 31
0.0
  0
LINE
  5
345
330
70
100
AcDbEntity
  8
Skizziergeometrie MD
100
AcDbLine
 10
331.2563853637189
 20
170.0005516713313
 30
0.0
 11
314.8563853637189
 21
146.0213940547676
 31
0.0
  0
LINE
  5
346
330
70
100
AcDbEntity
  8
Skizziergeometrie MD
100
AcDbLine
 10
243.856385363719
 20
170.0005516713313
 30
0.0
 11
261.2563853637189
 21
146.0213940547676
 31
0.0
  0
LINE
  5
347
330
70
100
AcDbEntity
  8
Skizziergeometrie MD
100
AcDbLine
 10
243.856385363719
 20
146.0213940547676
 30
0.0
 11
261.256385363719
 21
170.0005516713312
 31
0.0
  0
LINE
  5
348
330
70
100
AcDbEntity
  8
Skizziergeometrie MD
100
AcDbLine
 10
178.5563853637191
 20
166.9692441806643
 30
0.0
 11
181.3313853637191
 21
149.0527015454347
 31
0.0
  0
LINE
  5
349
330
70
100
AcDbEntity
  8
Skizziergeometrie MD
100
AcDbLine
 10
178.5563853637191
 20
149.0527015454347
 30
0.0
 11
181.3313853637191
 21
166.9692441806643
 31
0.0
  0
ENDSEC
  0
SECTION
  2
OBJECTS
  0
DICTIONARY
  5
C
330
0
100
AcDbDictionary
281
     1
  3
ACAD_CIP_PREVIOUS_PRODUCT_INFO
350
34A
  3
ACAD_COLOR
350
63
  3
ACAD_DETAILVIEWSTYLE
350
6A
  3
ACAD_GROUP
350
D
  3
ACAD_LAYOUT
350
62
  3
ACAD_MATERIAL
350
10
  3
ACAD_MLEADERSTYLE
350
66
  3
ACAD_MLINESTYLE
350
5F
  3
ACAD_PLOTSETTINGS
350
61
  3
ACAD_PLOTSTYLENAME
350
E
  3
ACAD_SCALELIST
350
42
  3
ACAD_SECTIONVIEWSTYLE
350
68
  3
ACAD_TABLESTYLE
350
64
  3
ACAD_VISUALSTYLE
350
29
  3
ACDB_RECOMPOSE_DATA
350
353
  3
AcDbVariableDictionary
350
34B
  0
XRECORD
  5
34A
102
{ACAD_REACTORS
330
C
102
}
330
C
100
AcDbXrecord
280
     1
300
INVPROSA
300
2018
300

  0
DICTIONARY
  5
63
102
{ACAD_REACTORS
330
C
102
}
330
C
100
AcDbDictionary
281
     1
  0
DICTIONARY
  5
6A
102
{ACAD_REACTORS
330
C
102
}
330
C
100
AcDbDictionary
281
     1
  3
Imperial24
350
6B
  0
DICTIONARY
  5
D
102
{ACAD_REACTORS
330
C
102
}
330
C
100
AcDbDictionary
281
     1
  0
DICTIONARY
  5
62
102
{ACAD_REACTORS
330
C
102
}
330
C
100
AcDbDictionary
281
     1
  3
Layout1
350
6F
  3
Layout2
350
77
  3
Model
350
73
  0
DICTIONARY
  5
10
102
{ACAD_REACTORS
330
C
102
}
330
C
100
AcDbDictionary
281
     1
  3
ByBlock
350
19
  3
ByLayer
350
11
  3
Global
350
21
  0
DICTIONARY
  5
66
102
{ACAD_REACTORS
330
C
102
}
330
C
100
AcDbDictionary
281
     1
  3
Standard
350
67
  0
DICTIONARY
  5
5F
102
{ACAD_REACTORS
330
C
102
}
330
C
100
AcDbDictionary
281
     1
  3
Standard
350
60
  0
DICTIONARY
  5
61
102
{ACAD_REACTORS
330
C
102
}
330
C
100
AcDbDictionary
281
     1
  0
ACDBDICTIONARYWDFLT
  5
E
102
{ACAD_REACTORS
330
C
102
}
330
C
100
AcDbDictionary
281
     1
  3
Normal
350
F
100
AcDbDictionaryWithDefault
340
F
  0
DICTIONARY
  5
42
102
{ACAD_REACTORS
330
C
102
}
330
C
100
AcDbDictionary
281
     1
  3
A0
350
43
  3
A1
350
44
  3
A2
350
45
  3
A3
350
46
  3
A4
350
47
  3
A5
350
48
  3
A6
350
49
  3
A7
350
4A
  3
A8
350
4B
  3
A9
350
4C
  3
B0
350
4D
  3
B1
350
4E
  3
B2
350
4F
  3
B3
350
50
  3
B4
350
51
  3
B5
350
52
  3
B6
350
53
  0
DICTIONARY
  5
68
102
{ACAD_REACTORS
330
C
102
}
330
C
100
AcDbDictionary
281
     1
  3
Imperial24
350
69
  0
DICTIONARY
  5
64
102
{ACAD_REACTORS
330
C
102
}
330
C
100
AcDbDictionary
281
     1
  3
Standard
350
65
  0
DICTIONARY
  5
29
102
{ACAD_REACTORS
330
C
102
}
330
C
100
AcDbDictionary
281
     1
  3
2dWireframe
350
2F
  3
Basic
350
2E
  3
Brighten
350
35
  3
ColorChange
350
39
  3
Conceptual
350
32
  3
Dim
350
34
  3
EdgeColorOff
350
41
  3
Facepattern
350
38
  3
Flat
350
2A
  3
FlatWithEdges
350
2B
  3
Gouraud
350
2C
  3
GouraudWithEdges
350
2D
  3
Hidden
350
31
  3
JitterOff
350
3F
  3
Linepattern
350
37
  3
OverhangOff
350
40
  3
Realistic
350
33
  3
Shaded
350
3E
  3
Shaded with edges
350
3D
  3
Shades of Gray
350
3A
  3
Sketchy
350
3B
  3
Thicken
350
36
  3
Wireframe
350
30
  3
X-Ray
350
3C
  0
XRECORD
  5
353
102
{ACAD_REACTORS
330
C
102
}
330
C
100
AcDbXrecord
280
     1
 90
        1
330
65
  0
DICTIONARY
  5
34B
102
{ACAD_REACTORS
330
C
102
}
330
C
100
AcDbDictionary
281
     1
  3
CANNOSCALE
350
350
  3
CMLEADERSTYLE
350
34D
  3
CTABLESTYLE
350
34C
  3
CVIEWDETAILSTYLE
350
34E
  3
CVIEWSECTIONSTYLE
350
34F
  0
ACDBDETAILVIEWSTYLE
  5
6B
102
{ACAD_REACTORS
330
6A
102
}
330
6A
100
AcDbModelDocViewStyle
 70
     0
  3
Imperial24
290
     1
300
Imperial24
 90
        0
100
AcDbDetailViewStyle
 70
     0
 71
     0
 90
        3
 71
     1
340
55
 62
   256
 40
0.24
340
0
 62
   256
 40
0.24
300

 40
0.36
280
     3
 71
     2
340
5D
 90
       25
 62
   256
 71
     3
340
55
 62
   256
 40
0.24
 90
        1
 40
0.75
 90
        1
300
%<\AcVar ViewType \f "%tc1">% %<\AcVar ViewDetailId>%\PVARIA %<\AcVar ViewScale \f "%sn">%
 71
     4
340
5D
 90
       25
 62
   256
340
5D
 90
       25
 62
   256
280
     0
  0
LAYOUT
  5
6F
102
{ACAD_REACTORS
330
62
102
}
330
62
100
AcDbPlotSettings
  1

  2

  4

  6

 40
0.0
 41
0.0
 42
0.0
 43
0.0
 44
0.0
 45
0.0
 46
0.0
 47
0.0
 48
0.0
 49
0.0
140
0.0
141
0.0
142
1.0
143
1.0
 70
   688
 72
     0
 73
     0
 74
     5
  7

 75
    16
147
1.0
 76
     0
 77
     2
 78
   300
148
0.0
149
0.0
100
AcDbLayout
  1
Layout1
 70
     1
 71
     1
 10
0.0
 20
0.0
 11
12.0
 21
9.0
 12
0.0
 22
0.0
 32
0.0
 14
0.0
 24
0.0
 34
0.0
 15
0.0
 25
0.0
 35
0.0
146
0.0
 13
0.0
 23
0.0
 33
0.0
 16
1.0
 26
0.0
 36
0.0
 17
0.0
 27
1.0
 37
0.0
 76
     0
330
6C
  0
LAYOUT
  5
77
102
{ACAD_REACTORS
330
62
102
}
330
62
100
AcDbPlotSettings
  1

  2

  4

  6

 40
0.0
 41
0.0
 42
0.0
 43
0.0
 44
0.0
 45
0.0
 46
0.0
 47
0.0
 48
0.0
 49
0.0
140
0.0
141
0.0
142
1.0
143
1.0
 70
   688
 72
     0
 73
     0
 74
     5
  7

 75
    16
147
1.0
 76
     0
 77
     2
 78
   300
148
0.0
149
0.0
100
AcDbLayout
  1
Layout2
 70
     1
 71
     2
 10
0.0
 20
0.0
 11
12.0
 21
9.0
 12
0.0
 22
0.0
 32
0.0
 14
0.0
 24
0.0
 34
0.0
 15
0.0
 25
0.0
 35
0.0
146
0.0
 13
0.0
 23
0.0
 33
0.0
 16
1.0
 26
0.0
 36
0.0
 17
0.0
 27
1.0
 37
0.0
 76
     0
330
74
  0
LAYOUT
  5
73
102
{ACAD_REACTORS
330
62
102
}
330
62
100
AcDbPlotSettings
  1

  2

  4

  6

 40
0.0
 41
0.0
 42
0.0
 43
0.0
 44
0.0
 45
0.0
 46
0.0
 47
0.0
 48
0.0
 49
0.0
140
0.0
141
0.0
142
1.0
143
1.0
 70
  1712
 72
     0
 73
     0
 74
     0
  7

 75
     0
147
1.0
 76
     0
 77
     2
 78
   300
148
0.0
149
0.0
100
AcDbLayout
  1
Model
 70
     1
 71
     0
 10
0.0
 20
0.0
 11
12.0
 21
9.0
 12
0.0
 22
0.0
 32
0.0
 14
0.0
 24
0.0
 34
0.0
 15
0.0
 25
0.0
 35
0.0
146
0.0
 13
0.0
 23
0.0
 33
0.0
 16
1.0
 26
0.0
 36
0.0
 17
0.0
 27
1.0
 37
0.0
 76
     0
330
70
  0
MATERIAL
  5
19
102
{ACAD_XDICTIONARY
360
1A
102
}
102
{ACAD_REACTORS
330
10
102
}
330
10
100
AcDbMaterial
  1
ByBlock
 72
     0
 43
0.0208333333333333
 43
0.0
 43
0.0
 43
0.0
 43
0.0
 43
0.0208333333333333
 43
0.0
 43
0.0
 43
0.0
 43
0.0
 43
1.0
 43
0.0
 43
0.0
 43
0.0
 43
0.0
 43
1.0
 77
     0
 47
0.0208333333333333
 47
0.0
 47
0.0
 47
0.0
 47
0.0
 47
0.0208333333333333
 47
0.0
 47
0.0
 47
0.0
 47
0.0
 47
1.0
 47
0.0
 47
0.0
 47
0.0
 47
0.0
 47
1.0
171
     0
 49
0.0208333333333333
 49
0.0
 49
0.0
 49
0.0
 49
0.0
 49
0.0208333333333333
 49
0.0
 49
0.0
 49
0.0
 49
0.0
 49
1.0
 49
0.0
 49
0.0
 49
0.0
 49
0.0
 49
1.0
175
     0
142
0.0208333333333333
142
0.0
142
0.0
142
0.0
142
0.0
142
0.0208333333333333
142
0.0
142
0.0
142
0.0
142
0.0
142
1.0
142
0.0
142
0.0
142
0.0
142
0.0
142
1.0
179
     0
144
0.0208333333333333
144
0.0
144
0.0
144
0.0
144
0.0
144
0.0208333333333333
144
0.0
144
0.0
144
0.0
144
0.0
144
1.0
144
0.0
144
0.0
144
0.0
144
0.0
144
1.0
147
0.0208333333333333
147
0.0
147
0.0
147
0.0
147
0.0
147
0.0208333333333333
147
0.0
147
0.0
147
0.0
147
0.0
147
1.0
147
0.0
147
0.0
147
0.0
147
0.0
147
1.0
  0
MATERIAL
  5
11
102
{ACAD_XDICTIONARY
360
12
102
}
102
{ACAD_REACTORS
330
10
102
}
330
10
100
AcDbMaterial
  1
ByLayer
 72
     0
 43
0.0208333333333333
 43
0.0
 43
0.0
 43
0.0
 43
0.0
 43
0.0208333333333333
 43
0.0
 43
0.0
 43
0.0
 43
0.0
 43
1.0
 43
0.0
 43
0.0
 43
0.0
 43
0.0
 43
1.0
 77
     0
 47
0.0208333333333333
 47
0.0
 47
0.0
 47
0.0
 47
0.0
 47
0.0208333333333333
 47
0.0
 47
0.0
 47
0.0
 47
0.0
 47
1.0
 47
0.0
 47
0.0
 47
0.0
 47
0.0
 47
1.0
171
     0
 49
0.0208333333333333
 49
0.0
 49
0.0
 49
0.0
 49
0.0
 49
0.0208333333333333
 49
0.0
 49
0.0
 49
0.0
 49
0.0
 49
1.0
 49
0.0
 49
0.0
 49
0.0
 49
0.0
 49
1.0
175
     0
142
0.0208333333333333
142
0.0
142
0.0
142
0.0
142
0.0
142
0.0208333333333333
142
0.0
142
0.0
142
0.0
142
0.0
142
1.0
142
0.0
142
0.0
142
0.0
142
0.0
142
1.0
179
     0
144
0.0208333333333333
144
0.0
144
0.0
144
0.0
144
0.0
144
0.0208333333333333
144
0.0
144
0.0
144
0.0
144
0.0
144
1.0
144
0.0
144
0.0
144
0.0
144
0.0
144
1.0
147
0.0208333333333333
147
0.0
147
0.0
147
0.0
147
0.0
147
0.0208333333333333
147
0.0
147
0.0
147
0.0
147
0.0
147
1.0
147
0.0
147
0.0
147
0.0
147
0.0
147
1.0
  0
MATERIAL
  5
21
102
{ACAD_XDICTIONARY
360
22
102
}
102
{ACAD_REACTORS
330
10
102
}
330
10
100
AcDbMaterial
  1
Global
 72
     0
 43
0.0208333333333333
 43
0.0
 43
0.0
 43
0.0
 43
0.0
 43
0.0208333333333333
 43
0.0
 43
0.0
 43
0.0
 43
0.0
 43
1.0
 43
0.0
 43
0.0
 43
0.0
 43
0.0
 43
1.0
 77
     0
 47
0.0208333333333333
 47
0.0
 47
0.0
 47
0.0
 47
0.0
 47
0.0208333333333333
 47
0.0
 47
0.0
 47
0.0
 47
0.0
 47
1.0
 47
0.0
 47
0.0
 47
0.0
 47
0.0
 47
1.0
171
     0
 49
0.0208333333333333
 49
0.0
 49
0.0
 49
0.0
 49
0.0
 49
0.0208333333333333
 49
0.0
 49
0.0
 49
0.0
 49
0.0
 49
1.0
 49
0.0
 49
0.0
 49
0.0
 49
0.0
 49
1.0
175
     0
142
0.0208333333333333
142
0.0
142
0.0
142
0.0
142
0.0
142
0.0208333333333333
142
0.0
142
0.0
142
0.0
142
0.0
142
1.0
142
0.0
142
0.0
142
0.0
142
0.0
142
1.0
179
     0
144
0.0208333333333333
144
0.0
144
0.0
144
0.0
144
0.0
144
0.0208333333333333
144
0.0
144
0.0
144
0.0
144
0.0
144
1.0
144
0.0
144
0.0
144
0.0
144
0.0
144
1.0
147
0.0208333333333333
147
0.0
147
0.0
147
0.0
147
0.0
147
0.0208333333333333
147
0.0
147
0.0
147
0.0
147
0.0
147
1.0
147
0.0
147
0.0
147
0.0
147
0.0
147
1.0
  0
MLEADERSTYLE
  5
67
102
{ACAD_REACTORS
330
66
102
}
330
66
100
AcDbMLeaderStyle
179
     2
170
     2
171
     1
172
     0
 90
        2
 40
0.0
 41
0.0
173
     1
 91
-1056964608
340
5B
 92
       -2
290
     1
 42
0.09
291
     1
 43
0.36
  3
Standard
 44
0.18
300

342
55
174
     1
178
     6
175
     1
176
     0
 93
-1056964608
 45
0.18
292
     0
297
     0
 46
0.18
 94
-1056964608
 47
1.0
 49
1.0
140
1.0
293
     1
141
0.0
294
     1
177
     0
142
1.0
295
     1
296
     0
143
0.125
271
     0
272
     9
273
     9
298
     1
  0
MLINESTYLE
  5
60
102
{ACAD_REACTORS
330
5F
102
}
330
5F
100
AcDbMlineStyle
  2
STANDARD
 70
     0
  3

 62
   256
 51
90.0
 52
90.0
 71
     2
 49
0.5
 62
   256
  6
BYLAYER
 49
-0.5
 62
   256
  6
BYLAYER
  0
ACDBPLACEHOLDER
  5
F
102
{ACAD_REACTORS
330
E
102
}
330
E
  0
SCALE
  5
43
102
{ACAD_REACTORS
330
42
102
}
330
42
100
AcDbScale
 70
     0
300
1:1
140
1.0
141
1.0
290
     1
  0
SCALE
  5
44
102
{ACAD_REACTORS
330
42
102
}
330
42
100
AcDbScale
 70
     0
300
1/128" = 1'-0"
140
0.0078125
141
12.0
290
     0
  0
SCALE
  5
45
102
{ACAD_REACTORS
330
42
102
}
330
42
100
AcDbScale
 70
     0
300
1/64" = 1'-0"
140
0.015625
141
12.0
290
     0
  0
SCALE
  5
46
102
{ACAD_REACTORS
330
42
102
}
330
42
100
AcDbScale
 70
     0
300
1/32" = 1'-0"
140
0.03125
141
12.0
290
     0
  0
SCALE
  5
47
102
{ACAD_REACTORS
330
42
102
}
330
42
100
AcDbScale
 70
     0
300
1/16" = 1'-0"
140
0.0625
141
12.0
290
     0
  0
SCALE
  5
48
102
{ACAD_REACTORS
330
42
102
}
330
42
100
AcDbScale
 70
     0
300
3/32" = 1'-0"
140
0.09375
141
12.0
290
     0
  0
SCALE
  5
49
102
{ACAD_REACTORS
330
42
102
}
330
42
100
AcDbScale
 70
     0
300
1/8" = 1'-0"
140
0.125
141
12.0
290
     0
  0
SCALE
  5
4A
102
{ACAD_REACTORS
330
42
102
}
330
42
100
AcDbScale
 70
     0
300
3/16" = 1'-0"
140
0.1875
141
12.0
290
     0
  0
SCALE
  5
4B
102
{ACAD_REACTORS
330
42
102
}
330
42
100
AcDbScale
 70
     0
300
1/4" = 1'-0"
140
0.25
141
12.0
290
     0
  0
SCALE
  5
4C
102
{ACAD_REACTORS
330
42
102
}
330
42
100
AcDbScale
 70
     0
300
3/8" = 1'-0"
140
0.375
141
12.0
290
     0
  0
SCALE
  5
4D
102
{ACAD_REACTORS
330
42
102
}
330
42
100
AcDbScale
 70
     0
300
1/2" = 1'-0"
140
0.5
141
12.0
290
     0
  0
SCALE
  5
4E
102
{ACAD_REACTORS
330
42
102
}
330
42
100
AcDbScale
 70
     0
300
3/4" = 1'-0"
140
0.75
141
12.0
290
     0
  0
SCALE
  5
4F
102
{ACAD_REACTORS
330
42
102
}
330
42
100
AcDbScale
 70
     0
300
1" = 1'-0"
140
1.0
141
12.0
290
     0
  0
SCALE
  5
50
102
{ACAD_REACTORS
330
42
102
}
330
42
100
AcDbScale
 70
     0
300
1-1/2" = 1'-0"
140
1.5
141
12.0
290
     0
  0
SCALE
  5
51
102
{ACAD_REACTORS
330
42
102
}
330
42
100
AcDbScale
 70
     0
300
3" = 1'-0"
140
3.0
141
12.0
290
     0
  0
SCALE
  5
52
102
{ACAD_REACTORS
330
42
102
}
330
42
100
AcDbScale
 70
     0
300
6" = 1'-0"
140
6.0
141
12.0
290
     0
  0
SCALE
  5
53
102
{ACAD_REACTORS
330
42
102
}
330
42
100
AcDbScale
 70
     0
300
1'-0" = 1'-0"
140
12.0
141
12.0
290
     0
  0
ACDBSECTIONVIEWSTYLE
  5
69
102
{ACAD_REACTORS
330
68
102
}
330
68
100
AcDbModelDocViewStyle
 70
     0
  3
Imperial24
290
     1
300
Imperial24
 90
        0
100
AcDbSectionViewStyle
 70
     0
 71
     0
 90
       78
 71
     1
340
55
 62
   256
 40
0.24
340
0
340
0
 62
   256
 40
0.24
300
I, O, Q, S, X, Z
 40
0.48
 90
        3
 40
0.18
 90
        1
 71
     2
340
5D
 90
       25
 62
   256
340
5D
 90
       50
 62
   256
 40
0.24
 40
0.0
 40
0.24
 71
     3
340
55
 62
   256
 40
0.24
 90
        1
 40
0.75
 90
        1
300
%<\AcVar ViewType \f "%tc1">% %<\AcVar ViewSectionStartId>%-%<\AcVar ViewSectionEndId>%\PVARIA %<\AcVar ViewScale \f "%sn">%
 71
     4
 62
   256
 62
   257
300
ANSI31
 40
1.0
 90
        0
290
     0
290
     0
 90
        6
 40
0.0
 40
1.570796326794896
 40
0.2617993877991494
 40
1.308996938995747
 40
-0.2617993877991494
 40
1.832595714594046
  0
TABLESTYLE
  5
65
102
{ACAD_XDICTIONARY
360
351
102
}
102
{ACAD_REACTORS
330
64
102
}
330
64
100
AcDbTableStyle
280
     0
  3
Standard
 70
     0
 71
     0
 40
0.06
 41
0.06
280
     0
281
     0
  7
Standard
140
0.18
170
     2
 62
     0
 63
     7
283
     0
 90
      512
 91
        0
  1

274
    -2
284
     1
 64
     0
275
    -2
285
     1
 65
     0
276
    -2
286
     1
 66
     0
277
    -2
287
     1
 67
     0
278
    -2
288
     1
 68
     0
279
    -2
289
     1
 69
     0
  7
Standard
140
0.25
170
     5
 62
     0
 63
     7
283
     0
 90
      512
 91
        0
  1

274
    -2
284
     1
 64
     0
275
    -2
285
     1
 65
     0
276
    -2
286
     1
 66
     0
277
    -2
287
     1
 67
     0
278
    -2
288
     1
 68
     0
279
    -2
289
     1
 69
     0
  7
Standard
140
0.18
170
     5
 62
     0
 63
     7
283
     0
 90
      512
 91
        0
  1

274
    -2
284
     1
 64
     0
275
    -2
285
     1
 65
     0
276
    -2
286
     1
 66
     0
277
    -2
287
     1
 67
     0
278
    -2
288
     1
 68
     0
279
    -2
289
     1
 69
     0
  0
VISUALSTYLE
  5
2F
102
{ACAD_REACTORS
330
29
102
}
330
29
100
AcDbVisualStyle
  2
2dWireframe
 70
     4
177
     3
291
     0
 70
    58
 90
        0
176
     1
 90
        2
176
     1
 90
        0
176
     1
 90
        0
176
     1
 40
0.6
176
     1
 40
30.0
176
     1
 62
     7
420
 16777215
176
     1
 90
        1
176
     1
 90
        4
176
     1
 62
     7
176
     1
 62
   257
176
     1
 90
        1
176
     1
 90
        1
176
     1
 40
1.0
176
     1
 90
        0
176
     1
 62
   257
176
     1
 40
1.0
176
     1
 90
        1
176
     1
 90
        6
176
     1
 90
        2
176
     1
 62
     7
176
     1
 90
        5
176
     1
 90
        0
176
     1
 90
        0
176
     1
290
     0
176
     1
 90
        1
176
     1
 40
0.0
176
     1
 90
        0
176
     1
290
     1
176
     1
290
     1
176
     1
290
     0
176
     1
290
     0
176
     1
290
     0
176
     1
290
     0
176
     1
290
     0
176
     1
290
     0
176
     1
290
     0
176
     1
 90
       50
176
     1
 40
0.0
176
     1
 40
1.0
176
     1
 90
        0
176
     1
 62
    18
420
        0
176
     1
 90
       50
176
     1
 90
        3
176
     1
 62
     5
420
      255
176
     1
290
     0
176
     1
 90
       50
176
     1
 90
       50
176
     1
 90
       50
176
     1
290
     0
176
     1
 90
       50
176
     1
 62
   256
176
     0
 40
1.0
176
     0
 90
        2
176
     1
  1
strokes_ogs.tif
176
     1
290
     0
176
     1
 40
1.0
176
     1
 40
1.0
176
     1
  0
VISUALSTYLE
  5
2E
102
{ACAD_REACTORS
330
29
102
}
330
29
100
AcDbVisualStyle
  2
Basic
 70
     7
177
     3
291
     1
 70
    58
 90
        1
176
     1
 90
        0
176
     1
 90
        1
176
     1
 90
        0
176
     1
 40
0.6
176
     1
 40
30.0
176
     1
 62
     7
420
 16777215
176
     1
 90
        0
176
     1
 90
        4
176
     1
 62
     7
176
     1
 62
   257
176
     1
 90
        1
176
     1
 90
        1
176
     1
 40
1.0
176
     1
 90
        8
176
     1
 62
     7
176
     1
 40
1.0
176
     1
 90
        1
176
     1
 90
        6
176
     1
 90
        2
176
     1
 62
     7
176
     1
 90
        5
176
     1
 90
        0
176
     1
 90
        0
176
     1
290
     0
176
     1
 90
        1
176
     1
 40
0.0
176
     1
 90
        0
176
     1
290
     0
176
     1
290
     1
176
     1
290
     1
176
     1
290
     0
176
     1
290
     0
176
     1
290
     0
176
     1
290
     0
176
     1
290
     0
176
     1
290
     0
176
     1
 90
       50
176
     1
 40
0.0
176
     1
 40
1.0
176
     1
 90
        0
176
     1
 62
    18
420
        0
176
     1
 90
       50
176
     1
 90
        3
176
     1
 62
     5
420
      255
176
     1
290
     0
176
     1
 90
       50
176
     1
 90
       50
176
     1
 90
       50
176
     1
290
     0
176
     1
 90
       50
176
     1
 62
   256
176
     0
 40
1.0
176
     0
 90
        2
176
     1
  1
strokes_ogs.tif
176
     1
290
     0
176
     1
 40
1.0
176
     1
 40
1.0
176
     1
  0
VISUALSTYLE
  5
35
102
{ACAD_REACTORS
330
29
102
}
330
29
100
AcDbVisualStyle
  2
Brighten
 70
    12
177
     3
291
     1
 70
    58
 90
        2
176
     1
 90
        2
176
     1
 90
        0
176
     1
 90
        0
176
     1
 40
0.6
176
     1
 40
30.0
176
     1
 62
     7
420
 16777215
176
     1
 90
        1
176
     1
 90
        4
176
     1
 62
     7
176
     1
 62
   257
176
     1
 90
        1
176
     1
 90
        1
176
     1
 40
1.0
176
     1
 90
        8
176
     1
 62
     7
176
     1
 40
1.0
176
     1
 90
        1
176
     1
 90
        6
176
     1
 90
        2
176
     1
 62
     7
176
     1
 90
        5
176
     1
 90
        0
176
     1
 90
        0
176
     1
290
     0
176
     1
 90
        1
176
     1
 40
50.0
176
     1
 90
        0
176
     1
290
     0
176
     1
290
     1
176
     1
290
     1
176
     1
290
     0
176
     1
290
     0
176
     1
290
     0
176
     1
290
     0
176
     1
290
     0
176
     1
290
     0
176
     1
 90
       50
176
     1
 40
0.0
176
     1
 40
1.0
176
     1
 90
        0
176
     1
 62
    18
420
        0
176
     1
 90
       50
176
     1
 90
        3
176
     1
 62
     5
420
      255
176
     1
290
     0
176
     1
 90
       50
176
     1
 90
       50
176
     1
 90
       50
176
     1
290
     0
176
     1
 90
       50
176
     1
 62
   256
176
     0
 40
1.0
176
     0
 90
        2
176
     1
  1
strokes_ogs.tif
176
     1
290
     0
176
     1
 40
1.0
176
     1
 40
1.0
176
     1
  0
VISUALSTYLE
  5
39
102
{ACAD_REACTORS
330
29
102
}
330
29
100
AcDbVisualStyle
  2
ColorChange
 70
    16
177
     3
291
     1
 70
    58
 90
        2
176
     1
 90
        2
176
     1
 90
        3
176
     1
 90
        0
176
     1
 40
0.6
176
     1
 40
30.0
176
     1
 62
     8
420
  8421504
176
     1
 90
        1
176
     1
 90
        4
176
     1
 62
     7
176
     1
 62
   257
176
     1
 90
        1
176
     1
 90
        1
176
     1
 40
1.0
176
     1
 90
        8
176
     1
 62
     8
420
  8421504
176
     1
 40
1.0
176
     1
 90
        1
176
     1
 90
        6
176
     1
 90
        2
176
     1
 62
     7
176
     1
 90
        5
176
     1
 90
        0
176
     1
 90
        0
176
     1
290
     0
176
     1
 90
        1
176
     1
 40
0.0
176
     1
 90
        0
176
     1
290
     0
176
     1
290
     1
176
     1
290
     1
176
     1
290
     0
176
     1
290
     0
176
     1
290
     0
176
     1
290
     0
176
     1
290
     0
176
     1
290
     0
176
     1
 90
       50
176
     1
 40
0.0
176
     1
 40
1.0
176
     1
 90
        0
176
     1
 62
    18
420
        0
176
     1
 90
       50
176
     1
 90
        3
176
     1
 62
     5
420
      255
176
     1
290
     0
176
     1
 90
       50
176
     1
 90
       50
176
     1
 90
       50
176
     1
290
     0
176
     1
 90
       50
176
     1
 62
   256
176
     0
 40
1.0
176
     0
 90
        2
176
     1
  1
strokes_ogs.tif
176
     1
290
     0
176
     1
 40
1.0
176
     1
 40
1.0
176
     1
  0
VISUALSTYLE
  5
32
102
{ACAD_REACTORS
330
29
102
}
330
29
100
AcDbVisualStyle
  2
Conceptual
 70
     9
177
     3
291
     0
 70
    58
 90
        3
176
     1
 90
        2
176
     1
 90
        0
176
     1
 90
        0
176
     1
 40
0.6
176
     1
 40
30.0
176
     1
 62
     7
420
 16777215
176
     1
 90
        2
176
     1
 90
        2
176
     1
 62
     7
176
     1
 62
   257
176
     1
 90
        1
176
     1
 90
        1
176
     1
 40
179.0
176
     1
 90
        8
176
     1
 62
     7
176
     1
 40
1.0
176
     1
 90
        1
176
     1
 90
        6
176
     1
 90
        2
176
     1
 62
     7
176
     1
 90
        3
176
     1
 90
        0
176
     1
 90
        0
176
     1
290
     0
176
     1
 90
        1
176
     1
 40
0.0
176
     1
 90
        0
176
     1
290
     0
176
     1
290
     1
176
     1
290
     1
176
     1
290
     0
176
     1
290
     0
176
     1
290
     0
176
     1
290
     0
176
     1
290
     0
176
     1
290
     0
176
     1
 90
       50
176
     1
 40
0.0
176
     1
 40
1.0
176
     1
 90
        0
176
     1
 62
    18
420
        0
176
     1
 90
       50
176
     1
 90
        3
176
     1
 62
     5
420
      255
176
     1
290
     0
176
     1
 90
       50
176
     1
 90
       50
176
     1
 90
       50
176
     1
290
     0
176
     1
 90
       50
176
     1
 62
   256
176
     0
 40
1.0
176
     0
 90
        2
176
     1
  1
strokes_ogs.tif
176
     1
290
     0
176
     1
 40
1.0
176
     1
 40
1.0
176
     1
  0
VISUALSTYLE
  5
34
102
{ACAD_REACTORS
330
29
102
}
330
29
100
AcDbVisualStyle
  2
Dim
 70
    11
177
     3
291
     1
 70
    58
 90
        2
176
     1
 90
        2
176
     1
 90
        0
176
     1
 90
        0
176
     1
 40
0.6
176
     1
 40
30.0
176
     1
 62
     7
420
 16777215
176
     1
 90
        1
176
     1
 90
        4
176
     1
 62
     7
176
     1
 62
   257
176
     1
 90
        1
176
     1
 90
        1
176
     1
 40
1.0
176
     1
 90
        8
176
     1
 62
     7
176
     1
 40
1.0
176
     1
 90
        1
176
     1
 90
        6
176
     1
 90
        2
176
     1
 62
     7
176
     1
 90
        5
176
     1
 90
        0
176
     1
 90
        0
176
     1
290
     0
176
     1
 90
        1
176
     1
 40
-50.0
176
     1
 90
        0
176
     1
290
     0
176
     1
290
     1
176
     1
290
     1
176
     1
290
     0
176
     1
290
     0
176
     1
290
     0
176
     1
290
     0
176
     1
290
     0
176
     1
290
     0
176
     1
 90
       50
176
     1
 40
0.0
176
     1
 40
1.0
176
     1
 90
        0
176
     1
 62
    18
420
        0
176
     1
 90
       50
176
     1
 90
        3
176
     1
 62
     5
420
      255
176
     1
290
     0
176
     1
 90
       50
176
     1
 90
       50
176
     1
 90
       50
176
     1
290
     0
176
     1
 90
       50
176
     1
 62
   256
176
     0
 40
1.0
176
     0
 90
        2
176
     1
  1
strokes_ogs.tif
176
     1
290
     0
176
     1
 40
1.0
176
     1
 40
1.0
176
     1
  0
VISUALSTYLE
  5
41
102
{ACAD_REACTORS
330
29
102
}
330
29
100
AcDbVisualStyle
  2
EdgeColorOff
 70
    22
177
     3
291
     1
 70
    58
 90
        2
176
     0
 90
        2
176
     0
 90
        0
176
     0
 90
        0
176
     0
 40
0.6
176
     0
 40
30.0
176
     0
 62
     7
420
 16777215
176
     0
 90
        1
176
     0
 90
        4
176
     0
 62
     7
176
     0
 62
   257
176
     0
 90
        1
176
     0
 90
        1
176
     0
 40
1.0
176
     0
 90
        8
176
     2
 62
     7
176
     0
 40
1.0
176
     0
 90
        1
176
     0
 90
        6
176
     0
 90
        2
176
     0
 62
     7
176
     0
 90
        5
176
     0
 90
        0
176
     0
 90
        0
176
     0
290
     0
176
     0
 90
        1
176
     0
 40
0.0
176
     0
 90
        0
176
     0
290
     0
176
     0
290
     1
176
     0
290
     1
176
     0
290
     0
176
     0
290
     0
176
     0
290
     0
176
     0
290
     0
176
     0
290
     0
176
     0
290
     0
176
     0
 90
       50
176
     0
 40
0.0
176
     0
 40
1.0
176
     0
 90
        0
176
     0
 62
    18
420
        0
176
     0
 90
       50
176
     0
 90
        3
176
     0
 62
     5
420
      255
176
     0
290
     0
176
     0
 90
       50
176
     0
 90
       50
176
     0
 90
       50
176
     0
290
     0
176
     0
 90
       50
176
     0
 62
   256
176
     0
 40
1.0
176
     0
 90
        2
176
     0
  1
strokes_ogs.tif
176
     0
290
     0
176
     0
 40
1.0
176
     0
 40
1.0
176
     0
  0
VISUALSTYLE
  5
38
102
{ACAD_REACTORS
330
29
102
}
330
29
100
AcDbVisualStyle
  2
Facepattern
 70
    15
177
     3
291
     1
 70
    58
 90
        2
176
     1
 90
        2
176
     1
 90
        0
176
     1
 90
        0
176
     1
 40
0.6
176
     1
 40
30.0
176
     1
 62
     7
420
 16777215
176
     1
 90
        1
176
     1
 90
        4
176
     1
 62
     7
176
     1
 62
   257
176
     1
 90
        1
176
     1
 90
        1
176
     1
 40
1.0
176
     1
 90
        8
176
     1
 62
     7
176
     1
 40
1.0
176
     1
 90
        1
176
     1
 90
        6
176
     1
 90
        2
176
     1
 62
     7
176
     1
 90
        5
176
     1
 90
        0
176
     1
 90
        0
176
     1
290
     0
176
     1
 90
        1
176
     1
 40
0.0
176
     1
 90
        0
176
     1
290
     0
176
     1
290
     1
176
     1
290
     1
176
     1
290
     0
176
     1
290
     0
176
     1
290
     0
176
     1
290
     0
176
     1
290
     0
176
     1
290
     0
176
     1
 90
       50
176
     1
 40
0.0
176
     1
 40
1.0
176
     1
 90
        0
176
     1
 62
    18
420
        0
176
     1
 90
       50
176
     1
 90
        3
176
     1
 62
     5
420
      255
176
     1
290
     0
176
     1
 90
       50
176
     1
 90
       50
176
     1
 90
       50
176
     1
290
     0
176
     1
 90
       50
176
     1
 62
   256
176
     0
 40
1.0
176
     0
 90
        2
176
     1
  1
strokes_ogs.tif
176
     1
290
     0
176
     1
 40
1.0
176
     1
 40
1.0
176
     1
  0
VISUALSTYLE
  5
2A
102
{ACAD_REACTORS
330
29
102
}
330
29
100
AcDbVisualStyle
  2
Flat
 70
     0
177
     3
291
     1
 70
    58
 90
        2
176
     1
 90
        1
176
     1
 90
        1
176
     1
 90
        2
176
     1
 40
0.6
176
     1
 40
30.0
176
     1
 62
     7
420
 16777215
176
     1
 90
        0
176
     1
 90
        0
176
     1
 62
     7
176
     1
 62
   257
176
     1
 90
        1
176
     1
 90
        1
176
     1
 40
1.0
176
     1
 90
        8
176
     1
 62
     7
176
     1
 40
1.0
176
     1
 90
        1
176
     1
 90
        6
176
     1
 90
        2
176
     1
 62
     7
176
     1
 90
        5
176
     1
 90
        0
176
     1
 90
        0
176
     1
290
     0
176
     1
 90
       13
176
     1
 40
0.0
176
     1
 90
        0
176
     1
290
     0
176
     1
290
     1
176
     1
290
     1
176
     1
290
     0
176
     1
290
     0
176
     1
290
     0
176
     1
290
     0
176
     1
290
     0
176
     1
290
     0
176
     1
 90
       50
176
     1
 40
0.0
176
     1
 40
1.0
176
     1
 90
        0
176
     1
 62
    18
420
        0
176
     1
 90
       50
176
     1
 90
        3
176
     1
 62
     5
420
      255
176
     1
290
     0
176
     1
 90
       50
176
     1
 90
       50
176
     1
 90
       50
176
     1
290
     0
176
     1
 90
       50
176
     1
 62
   256
176
     0
 40
1.0
176
     0
 90
        2
176
     1
  1
strokes_ogs.tif
176
     1
290
     0
176
     1
 40
1.0
176
     1
 40
1.0
176
     1
  0
VISUALSTYLE
  5
2B
102
{ACAD_REACTORS
330
29
102
}
330
29
100
AcDbVisualStyle
  2
FlatWithEdges
 70
     1
177
     3
291
     1
 70
    58
 90
        2
176
     1
 90
        1
176
     1
 90
        1
176
     1
 90
        2
176
     1
 40
0.6
176
     1
 40
30.0
176
     1
 62
     7
420
 16777215
176
     1
 90
        1
176
     1
 90
        0
176
     1
 62
     7
176
     1
 62
   257
176
     1
 90
        1
176
     1
 90
        1
176
     1
 40
1.0
176
     1
 90
        0
176
     1
 62
   257
176
     1
 40
1.0
176
     1
 90
        1
176
     1
 90
        6
176
     1
 90
        2
176
     1
 62
     7
176
     1
 90
        5
176
     1
 90
        0
176
     1
 90
        0
176
     1
290
     0
176
     1
 90
       13
176
     1
 40
0.0
176
     1
 90
        0
176
     1
290
     0
176
     1
290
     1
176
     1
290
     1
176
     1
290
     0
176
     1
290
     0
176
     1
290
     0
176
     1
290
     0
176
     1
290
     0
176
     1
290
     0
176
     1
 90
       50
176
     1
 40
0.0
176
     1
 40
1.0
176
     1
 90
        0
176
     1
 62
    18
420
        0
176
     1
 90
       50
176
     1
 90
        3
176
     1
 62
     5
420
      255
176
     1
290
     0
176
     1
 90
       50
176
     1
 90
       50
176
     1
 90
       50
176
     1
290
     0
176
     1
 90
       50
176
     1
 62
   256
176
     0
 40
1.0
176
     0
 90
        2
176
     1
  1
strokes_ogs.tif
176
     1
290
     0
176
     1
 40
1.0
176
     1
 40
1.0
176
     1
  0
VISUALSTYLE
  5
2C
102
{ACAD_REACTORS
330
29
102
}
330
29
100
AcDbVisualStyle
  2
Gouraud
 70
     2
177
     3
291
     1
 70
    58
 90
        2
176
     1
 90
        2
176
     1
 90
        1
176
     1
 90
        2
176
     1
 40
0.6
176
     1
 40
30.0
176
     1
 62
     7
420
 16777215
176
     1
 90
        0
176
     1
 90
        0
176
     1
 62
     7
176
     1
 62
   257
176
     1
 90
        1
176
     1
 90
        1
176
     1
 40
1.0
176
     1
 90
        0
176
     1
 62
     7
176
     1
 40
1.0
176
     1
 90
        1
176
     1
 90
        6
176
     1
 90
        2
176
     1
 62
     7
176
     1
 90
        5
176
     1
 90
        0
176
     1
 90
        0
176
     1
290
     0
176
     1
 90
       13
176
     1
 40
0.0
176
     1
 90
        0
176
     1
290
     0
176
     1
290
     1
176
     1
290
     1
176
     1
290
     0
176
     1
290
     0
176
     1
290
     0
176
     1
290
     0
176
     1
290
     0
176
     1
290
     0
176
     1
 90
       50
176
     1
 40
0.0
176
     1
 40
1.0
176
     1
 90
        0
176
     1
 62
    18
420
        0
176
     1
 90
       50
176
     1
 90
        3
176
     1
 62
     5
420
      255
176
     1
290
     0
176
     1
 90
       50
176
     1
 90
       50
176
     1
 90
       50
176
     1
290
     0
176
     1
 90
       50
176
     1
 62
   256
176
     0
 40
1.0
176
     0
 90
        2
176
     1
  1
strokes_ogs.tif
176
     1
290
     0
176
     1
 40
1.0
176
     1
 40
1.0
176
     1
  0
VISUALSTYLE
  5
2D
102
{ACAD_REACTORS
330
29
102
}
330
29
100
AcDbVisualStyle
  2
GouraudWithEdges
 70
     3
177
     3
291
     1
 70
    58
 90
        2
176
     1
 90
        2
176
     1
 90
        1
176
     1
 90
        2
176
     1
 40
0.6
176
     1
 40
30.0
176
     1
 62
     7
420
 16777215
176
     1
 90
        1
176
     1
 90
        0
176
     1
 62
     7
176
     1
 62
   257
176
     1
 90
        1
176
     1
 90
        1
176
     1
 40
1.0
176
     1
 90
        0
176
     1
 62
   257
176
     1
 40
1.0
176
     1
 90
        1
176
     1
 90
        6
176
     1
 90
        2
176
     1
 62
     7
176
     1
 90
        5
176
     1
 90
        0
176
     1
 90
        0
176
     1
290
     0
176
     1
 90
       13
176
     1
 40
0.0
176
     1
 90
        0
176
     1
290
     0
176
     1
290
     1
176
     1
290
     1
176
     1
290
     0
176
     1
290
     0
176
     1
290
     0
176
     1
290
     0
176
     1
290
     0
176
     1
290
     0
176
     1
 90
       50
176
     1
 40
0.0
176
     1
 40
1.0
176
     1
 90
        0
176
     1
 62
    18
420
        0
176
     1
 90
       50
176
     1
 90
        3
176
     1
 62
     5
420
      255
176
     1
290
     0
176
     1
 90
       50
176
     1
 90
       50
176
     1
 90
       50
176
     1
290
     0
176
     1
 90
       50
176
     1
 62
   256
176
     0
 40
1.0
176
     0
 90
        2
176
     1
  1
strokes_ogs.tif
176
     1
290
     0
176
     1
 40
1.0
176
     1
 40
1.0
176
     1
  0
VISUALSTYLE
  5
31
102
{ACAD_REACTORS
330
29
102
}
330
29
100
AcDbVisualStyle
  2
Hidden
 70
     6
177
     3
291
     0
 70
    58
 90
        1
176
     1
 90
        2
176
     1
 90
        2
176
     1
 90
        0
176
     1
 40
0.6
176
     1
 40
30.0
176
     1
 62
     7
420
 16777215
176
     1
 90
        2
176
     1
 90
        2
176
     1
 62
     7
176
     1
 62
   257
176
     1
 90
        2
176
     1
 90
        1
176
     1
 40
40.0
176
     1
 90
        0
176
     1
 62
   257
176
     1
 40
1.0
176
     1
 90
        1
176
     1
 90
        6
176
     1
 90
        2
176
     1
 62
     7
176
     1
 90
        3
176
     1
 90
        0
176
     1
 90
        0
176
     1
290
     0
176
     1
 90
        1
176
     1
 40
0.0
176
     1
 90
        0
176
     1
290
     0
176
     1
290
     1
176
     1
290
     1
176
     1
290
     0
176
     1
290
     0
176
     1
290
     0
176
     1
290
     0
176
     1
290
     0
176
     1
290
     0
176
     1
 90
       50
176
     1
 40
0.0
176
     1
 40
1.0
176
     1
 90
        0
176
     1
 62
    18
420
        0
176
     1
 90
       50
176
     1
 90
        3
176
     1
 62
     5
420
      255
176
     1
290
     0
176
     1
 90
       50
176
     1
 90
       50
176
     1
 90
       50
176
     1
290
     0
176
     1
 90
       50
176
     1
 62
   256
176
     0
 40
1.0
176
     0
 90
        2
176
     1
  1
strokes_ogs.tif
176
     1
290
     0
176
     1
 40
1.0
176
     1
 40
1.0
176
     1
  0
VISUALSTYLE
  5
3F
102
{ACAD_REACTORS
330
29
102
}
330
29
100
AcDbVisualStyle
  2
JitterOff
 70
    20
177
     3
291
     1
 70
    58
 90
        2
176
     0
 90
        2
176
     0
 90
        0
176
     0
 90
        0
176
     0
 40
0.6
176
     0
 40
30.0
176
     0
 62
     7
420
 16777215
176
     0
 90
        1
176
     0
 90
        4
176
     0
 62
     7
176
     0
 62
   257
176
     0
 90
        1
176
     0
 90
        1
176
     0
 40
1.0
176
     0
 90
       10
176
     2
 62
     7
176
     0
 40
1.0
176
     0
 90
        1
176
     0
 90
        6
176
     0
 90
        2
176
     0
 62
     7
176
     0
 90
        5
176
     0
 90
        0
176
     0
 90
        0
176
     0
290
     0
176
     0
 90
        1
176
     0
 40
0.0
176
     0
 90
        0
176
     0
290
     0
176
     0
290
     1
176
     0
290
     1
176
     0
290
     0
176
     0
290
     0
176
     0
290
     0
176
     0
290
     0
176
     0
290
     0
176
     0
290
     0
176
     0
 90
       50
176
     0
 40
0.0
176
     0
 40
1.0
176
     0
 90
        0
176
     0
 62
    18
420
        0
176
     0
 90
       50
176
     0
 90
        3
176
     0
 62
     5
420
      255
176
     0
290
     0
176
     0
 90
       50
176
     0
 90
       50
176
     0
 90
       50
176
     0
290
     0
176
     0
 90
       50
176
     0
 62
   256
176
     0
 40
1.0
176
     0
 90
        2
176
     0
  1
strokes_ogs.tif
176
     0
290
     0
176
     0
 40
1.0
176
     0
 40
1.0
176
     0
  0
VISUALSTYLE
  5
37
102
{ACAD_REACTORS
330
29
102
}
330
29
100
AcDbVisualStyle
  2
Linepattern
 70
    14
177
     3
291
     1
 70
    58
 90
        2
176
     1
 90
        2
176
     1
 90
        0
176
     1
 90
        0
176
     1
 40
0.6
176
     1
 40
30.0
176
     1
 62
     7
420
 16777215
176
     1
 90
        1
176
     1
 90
        4
176
     1
 62
     7
176
     1
 62
   257
176
     1
 90
        7
176
     1
 90
        7
176
     1
 40
1.0
176
     1
 90
        8
176
     1
 62
     7
176
     1
 40
1.0
176
     1
 90
        1
176
     1
 90
        6
176
     1
 90
        2
176
     1
 62
     7
176
     1
 90
        5
176
     1
 90
        0
176
     1
 90
        0
176
     1
290
     0
176
     1
 90
        1
176
     1
 40
0.0
176
     1
 90
        0
176
     1
290
     0
176
     1
290
     1
176
     1
290
     1
176
     1
290
     0
176
     1
290
     0
176
     1
290
     0
176
     1
290
     0
176
     1
290
     0
176
     1
290
     0
176
     1
 90
       50
176
     1
 40
0.0
176
     1
 40
1.0
176
     1
 90
        0
176
     1
 62
    18
420
        0
176
     1
 90
       50
176
     1
 90
        3
176
     1
 62
     5
420
      255
176
     1
290
     0
176
     1
 90
       50
176
     1
 90
       50
176
     1
 90
       50
176
     1
290
     0
176
     1
 90
       50
176
     1
 62
   256
176
     0
 40
1.0
176
     0
 90
        2
176
     1
  1
strokes_ogs.tif
176
     1
290
     0
176
     1
 40
1.0
176
     1
 40
1.0
176
     1
  0
VISUALSTYLE
  5
40
102
{ACAD_REACTORS
330
29
102
}
330
29
100
AcDbVisualStyle
  2
OverhangOff
 70
    21
177
     3
291
     1
 70
    58
 90
        2
176
     0
 90
        2
176
     0
 90
        0
176
     0
 90
        0
176
     0
 40
0.6
176
     0
 40
30.0
176
     0
 62
     7
420
 16777215
176
     0
 90
        1
176
     0
 90
        4
176
     0
 62
     7
176
     0
 62
   257
176
     0
 90
        1
176
     0
 90
        1
176
     0
 40
1.0
176
     0
 90
        9
176
     2
 62
     7
176
     0
 40
1.0
176
     0
 90
        1
176
     0
 90
        6
176
     0
 90
        2
176
     0
 62
     7
176
     0
 90
        5
176
     0
 90
        0
176
     0
 90
        0
176
     0
290
     0
176
     0
 90
        1
176
     0
 40
0.0
176
     0
 90
        0
176
     0
290
     0
176
     0
290
     1
176
     0
290
     1
176
     0
290
     0
176
     0
290
     0
176
     0
290
     0
176
     0
290
     0
176
     0
290
     0
176
     0
290
     0
176
     0
 90
       50
176
     0
 40
0.0
176
     0
 40
1.0
176
     0
 90
        0
176
     0
 62
    18
420
        0
176
     0
 90
       50
176
     0
 90
        3
176
     0
 62
     5
420
      255
176
     0
290
     0
176
     0
 90
       50
176
     0
 90
       50
176
     0
 90
       50
176
     0
290
     0
176
     0
 90
       50
176
     0
 62
   256
176
     0
 40
1.0
176
     0
 90
        2
176
     0
  1
strokes_ogs.tif
176
     0
290
     0
176
     0
 40
1.0
176
     0
 40
1.0
176
     0
  0
VISUALSTYLE
  5
33
102
{ACAD_REACTORS
330
29
102
}
330
29
100
AcDbVisualStyle
  2
Realistic
 70
     8
177
     3
291
     0
 70
    58
 90
        2
176
     1
 90
        3
176
     1
 90
        0
176
     1
 90
        2
176
     1
 40
0.6
176
     1
 40
30.0
176
     1
 62
     7
420
 16777215
176
     1
 90
        0
176
     1
 90
        0
176
     1
 62
     7
176
     1
 62
   257
176
     1
 90
        1
176
     1
 90
        1
176
     1
 40
1.0
176
     1
 90
        8
176
     1
 62
   257
176
     1
 40
1.0
176
     1
 90
        1
176
     1
 90
        6
176
     1
 90
        2
176
     1
 62
     7
176
     1
 90
        3
176
     1
 90
        0
176
     1
 90
        0
176
     1
290
     0
176
     1
 90
       13
176
     1
 40
0.0
176
     1
 90
        0
176
     1
290
     0
176
     1
290
     1
176
     1
290
     1
176
     1
290
     0
176
     1
290
     0
176
     1
290
     0
176
     1
290
     0
176
     1
290
     0
176
     1
290
     0
176
     1
 90
       50
176
     1
 40
0.0
176
     1
 40
1.0
176
     1
 90
        0
176
     1
 62
    18
420
        0
176
     1
 90
       50
176
     1
 90
        3
176
     1
 62
     5
420
      255
176
     1
290
     0
176
     1
 90
       50
176
     1
 90
       50
176
     1
 90
       50
176
     1
290
     0
176
     1
 90
       50
176
     1
 62
   256
176
     0
 40
1.0
176
     0
 90
        2
176
     1
  1
strokes_ogs.tif
176
     1
290
     0
176
     1
 40
1.0
176
     1
 40
1.0
176
     1
  0
VISUALSTYLE
  5
3E
102
{ACAD_REACTORS
330
29
102
}
330
29
100
AcDbVisualStyle
  2
Shaded
 70
    27
177
     3
291
     0
 70
    58
 90
        2
176
     1
 90
        2
176
     1
 90
        1
176
     1
 90
        2
176
     1
 40
0.6
176
     1
 40
30.0
176
     1
 62
     7
420
 16777215
176
     1
 90
        0
176
     1
 90
        4
176
     1
 62
     7
176
     1
 62
   257
176
     1
 90
        1
176
     1
 90
        1
176
     1
 40
1.0
176
     1
 90
        8
176
     1
 62
   257
176
     1
 40
1.0
176
     1
 90
        1
176
     1
 90
        6
176
     1
 90
        2
176
     1
 62
     8
420
  7895160
176
     1
 90
        3
176
     1
 90
        0
176
     1
 90
        0
176
     1
290
     0
176
     1
 90
        5
176
     1
 40
0.0
176
     1
 90
        0
176
     1
290
     0
176
     1
290
     1
176
     1
290
     1
176
     1
290
     0
176
     1
290
     0
176
     1
290
     0
176
     1
290
     0
176
     1
290
     0
176
     1
290
     0
176
     1
 90
       50
176
     1
 40
0.0
176
     1
 40
1.0
176
     1
 90
        0
176
     1
 62
    18
420
        0
176
     1
 90
       50
176
     1
 90
        3
176
     1
 62
     5
420
      255
176
     1
290
     0
176
     1
 90
       50
176
     1
 90
       50
176
     1
 90
       50
176
     1
290
     0
176
     1
 90
       50
176
     1
 62
   256
176
     0
 40
1.0
176
     0
 90
        2
176
     1
  1
strokes_ogs.tif
176
     1
290
     0
176
     1
 40
1.0
176
     1
 40
1.0
176
     1
  0
VISUALSTYLE
  5
3D
102
{ACAD_REACTORS
330
29
102
}
330
29
100
AcDbVisualStyle
  2
Shaded with edges
 70
    26
177
     3
291
     0
 70
    58
 90
        2
176
     1
 90
        2
176
     1
 90
        1
176
     1
 90
        2
176
     1
 40
0.6
176
     1
 40
30.0
176
     1
 62
     7
420
 16777215
176
     1
 90
        1
176
     1
 90
        2
176
     1
 62
     7
176
     1
 62
   257
176
     1
 90
        2
176
     1
 90
        1
176
     1
 40
1.0
176
     1
 90
        8
176
     1
 62
   257
176
     1
 40
1.0
176
     1
 90
        1
176
     1
 90
        6
176
     1
 90
        2
176
     1
 62
     7
176
     1
 90
        3
176
     1
 90
        0
176
     1
 90
        0
176
     1
290
     0
176
     1
 90
        5
176
     1
 40
0.0
176
     1
 90
        0
176
     1
290
     0
176
     1
290
     1
176
     1
290
     1
176
     1
290
     0
176
     1
290
     0
176
     1
290
     0
176
     1
290
     0
176
     1
290
     0
176
     1
290
     0
176
     1
 90
       50
176
     1
 40
0.0
176
     1
 40
1.0
176
     1
 90
        0
176
     1
 62
    18
420
        0
176
     1
 90
       50
176
     1
 90
        3
176
     1
 62
     5
420
      255
176
     1
290
     0
176
     1
 90
       50
176
     1
 90
       50
176
     1
 90
       50
176
     1
290
     0
176
     1
 90
       50
176
     1
 62
   256
176
     0
 40
1.0
176
     0
 90
        2
176
     1
  1
strokes_ogs.tif
176
     1
290
     0
176
     1
 40
1.0
176
     1
 40
1.0
176
     1
  0
VISUALSTYLE
  5
3A
102
{ACAD_REACTORS
330
29
102
}
330
29
100
AcDbVisualStyle
  2
Shades of Gray
 70
    23
177
     3
291
     0
 70
    58
 90
        2
176
     1
 90
        2
176
     1
 90
        3
176
     1
 90
        0
176
     1
 40
0.6
176
     1
 40
30.0
176
     1
 62
     7
420
 16777215
176
     1
 90
        2
176
     1
 90
        2
176
     1
 62
     7
176
     1
 62
     7
176
     1
 90
        1
176
     1
 90
        1
176
     1
 40
40.0
176
     1
 90
        8
176
     1
 62
     7
176
     1
 40
1.0
176
     1
 90
        1
176
     1
 90
        6
176
     1
 90
        2
176
     1
 62
     7
176
     1
 90
        3
176
     1
 90
        0
176
     1
 90
        0
176
     1
290
     0
176
     1
 90
        1
176
     1
 40
0.0
176
     1
 90
        0
176
     1
290
     0
176
     1
290
     1
176
     1
290
     1
176
     1
290
     0
176
     1
290
     0
176
     1
290
     0
176
     1
290
     0
176
     1
290
     0
176
     1
290
     0
176
     1
 90
       50
176
     1
 40
0.0
176
     1
 40
1.0
176
     1
 90
        0
176
     1
 62
    18
420
        0
176
     1
 90
       50
176
     1
 90
        3
176
     1
 62
     5
420
      255
176
     1
290
     0
176
     1
 90
       50
176
     1
 90
       50
176
     1
 90
       50
176
     1
290
     0
176
     1
 90
       50
176
     1
 62
   256
176
     0
 40
1.0
176
     0
 90
        2
176
     1
  1
strokes_ogs.tif
176
     1
290
     0
176
     1
 40
1.0
176
     1
 40
1.0
176
     1
  0
VISUALSTYLE
  5
3B
102
{ACAD_REACTORS
330
29
102
}
330
29
100
AcDbVisualStyle
  2
Sketchy
 70
    24
177
     3
291
     0
 70
    58
 90
        1
176
     1
 90
        2
176
     1
 90
        2
176
     1
 90
        0
176
     1
 40
0.6
176
     1
 40
30.0
176
     1
 62
     7
420
 16777215
176
     1
 90
        2
176
     1
 90
        2
176
     1
 62
     7
176
     1
 62
     7
176
     1
 90
        1
176
     1
 90
        1
176
     1
 40
40.0
176
     1
 90
       11
176
     1
 62
     7
176
     1
 40
1.0
176
     1
 90
        1
176
     1
 90
        6
176
     1
 90
        2
176
     1
 62
     7
176
     1
 90
        6
176
     1
 90
        0
176
     1
 90
        0
176
     1
290
     0
176
     1
 90
        1
176
     1
 40
0.0
176
     1
 90
        0
176
     1
290
     0
176
     1
290
     1
176
     1
290
     1
176
     1
290
     0
176
     1
290
     0
176
     1
290
     0
176
     1
290
     0
176
     1
290
     0
176
     1
290
     0
176
     1
 90
       50
176
     1
 40
0.0
176
     1
 40
1.0
176
     1
 90
        0
176
     1
 62
    18
420
        0
176
     1
 90
       50
176
     1
 90
        3
176
     1
 62
     5
420
      255
176
     1
290
     0
176
     1
 90
       50
176
     1
 90
       50
176
     1
 90
       50
176
     1
290
     0
176
     1
 90
       50
176
     1
 62
   256
176
     0
 40
1.0
176
     0
 90
        2
176
     1
  1
strokes_ogs.tif
176
     1
290
     0
176
     1
 40
1.0
176
     1
 40
1.0
176
     1
  0
VISUALSTYLE
  5
36
102
{ACAD_REACTORS
330
29
102
}
330
29
100
AcDbVisualStyle
  2
Thicken
 70
    13
177
     3
291
     1
 70
    58
 90
        2
176
     1
 90
        2
176
     1
 90
        0
176
     1
 90
        0
176
     1
 40
0.6
176
     1
 40
30.0
176
     1
 62
     7
420
 16777215
176
     1
 90
        1
176
     1
 90
        4
176
     1
 62
     7
176
     1
 62
   257
176
     1
 90
        1
176
     1
 90
        1
176
     1
 40
1.0
176
     1
 90
       12
176
     1
 62
     7
176
     1
 40
1.0
176
     1
 90
        1
176
     1
 90
        6
176
     1
 90
        2
176
     1
 62
     7
176
     1
 90
        5
176
     1
 90
        0
176
     1
 90
        0
176
     1
290
     0
176
     1
 90
        1
176
     1
 40
0.0
176
     1
 90
        0
176
     1
290
     0
176
     1
290
     1
176
     1
290
     1
176
     1
290
     0
176
     1
290
     0
176
     1
290
     0
176
     1
290
     0
176
     1
290
     0
176
     1
290
     0
176
     1
 90
       50
176
     1
 40
0.0
176
     1
 40
1.0
176
     1
 90
        0
176
     1
 62
    18
420
        0
176
     1
 90
       50
176
     1
 90
        3
176
     1
 62
     5
420
      255
176
     1
290
     0
176
     1
 90
       50
176
     1
 90
       50
176
     1
 90
       50
176
     1
290
     0
176
     1
 90
       50
176
     1
 62
   256
176
     0
 40
1.0
176
     0
 90
        2
176
     1
  1
strokes_ogs.tif
176
     1
290
     0
176
     1
 40
1.0
176
     1
 40
1.0
176
     1
  0
VISUALSTYLE
  5
30
102
{ACAD_REACTORS
330
29
102
}
330
29
100
AcDbVisualStyle
  2
Wireframe
 70
     5
177
     3
291
     0
 70
    58
 90
        0
176
     1
 90
        2
176
     1
 90
        0
176
     1
 90
        0
176
     1
 40
0.6
176
     1
 40
30.0
176
     1
 62
     7
420
 16777215
176
     1
 90
        1
176
     1
 90
        4
176
     1
 62
     7
176
     1
 62
   257
176
     1
 90
        1
176
     1
 90
        1
176
     1
 40
1.0
176
     1
 90
        0
176
     1
 62
   257
176
     1
 40
1.0
176
     1
 90
        1
176
     1
 90
        6
176
     1
 90
        2
176
     1
 62
     7
176
     1
 90
        3
176
     1
 90
        0
176
     1
 90
        0
176
     1
290
     0
176
     1
 90
        1
176
     1
 40
0.0
176
     1
 90
        0
176
     1
290
     0
176
     1
290
     1
176
     1
290
     1
176
     1
290
     0
176
     1
290
     0
176
     1
290
     0
176
     1
290
     0
176
     1
290
     0
176
     1
290
     0
176
     1
 90
       50
176
     1
 40
0.0
176
     1
 40
1.0
176
     1
 90
        0
176
     1
 62
    18
420
        0
176
     1
 90
       50
176
     1
 90
        3
176
     1
 62
     5
420
      255
176
     1
290
     0
176
     1
 90
       50
176
     1
 90
       50
176
     1
 90
       50
176
     1
290
     0
176
     1
 90
       50
176
     1
 62
   256
176
     0
 40
1.0
176
     0
 90
        2
176
     1
  1
strokes_ogs.tif
176
     1
290
     0
176
     1
 40
1.0
176
     1
 40
1.0
176
     1
  0
VISUALSTYLE
  5
3C
102
{ACAD_REACTORS
330
29
102
}
330
29
100
AcDbVisualStyle
  2
X-Ray
 70
    25
177
     3
291
     0
 70
    58
 90
        2
176
     1
 90
        2
176
     1
 90
        1
176
     1
 90
        1
176
     1
 40
0.5
176
     1
 40
30.0
176
     1
 62
     7
420
 16777215
176
     1
 90
        1
176
     1
 90
        0
176
     1
 62
     7
176
     1
 62
   257
176
     1
 90
        1
176
     1
 90
        1
176
     1
 40
1.0
176
     1
 90
        8
176
     1
 62
     7
176
     1
 40
1.0
176
     1
 90
        1
176
     1
 90
        6
176
     1
 90
        2
176
     1
 62
     7
176
     1
 90
        3
176
     1
 90
        0
176
     1
 90
        0
176
     1
290
     0
176
     1
 90
       13
176
     1
 40
0.0
176
     1
 90
        0
176
     1
290
     0
176
     1
290
     1
176
     1
290
     1
176
     1
290
     0
176
     1
290
     0
176
     1
290
     0
176
     1
290
     0
176
     1
290
     0
176
     1
290
     0
176
     1
 90
       50
176
     1
 40
0.0
176
     1
 40
1.0
176
     1
 90
        0
176
     1
 62
    18
420
        0
176
     1
 90
       50
176
     1
 90
        3
176
     1
 62
     5
420
      255
176
     1
290
     0
176
     1
 90
       50
176
     1
 90
       50
176
     1
 90
       50
176
     1
290
     0
176
     1
 90
       50
176
     1
 62
   256
176
     0
 40
1.0
176
     0
 90
        2
176
     1
  1
strokes_ogs.tif
176
     1
290
     0
176
     1
 40
1.0
176
     1
 40
1.0
176
     1
  0
DICTIONARYVAR
  5
350
102
{ACAD_REACTORS
330
34B
102
}
330
34B
100
DictionaryVariables
280
     0
  1
1:1
  0
DICTIONARYVAR
  5
34D
102
{ACAD_REACTORS
330
34B
102
}
330
34B
100
DictionaryVariables
280
     0
  1
STANDARD
  0
DICTIONARYVAR
  5
34C
102
{ACAD_REACTORS
330
34B
102
}
330
34B
100
DictionaryVariables
280
     0
  1
STANDARD
  0
DICTIONARYVAR
  5
34E
102
{ACAD_REACTORS
330
34B
102
}
330
34B
100
DictionaryVariables
280
     0
  1
Imperial24
  0
DICTIONARYVAR
  5
34F
102
{ACAD_REACTORS
330
34B
102
}
330
34B
100
DictionaryVariables
280
     0
  1
Imperial24
  0
DICTIONARY
  5
1A
330
19
100
AcDbDictionary
280
     1
281
     1
  3
BUMPTILE
360
1C
  3
DIFFUSETILE
360
1B
  3
OPACITYTILE
360
1F
  3
REFLECTIONTILE
360
1E
  3
REFRACTIONTILE
360
20
  3
SPECULARTILE
360
1D
  0
DICTIONARY
  5
12
330
11
100
AcDbDictionary
280
     1
281
     1
  3
BUMPTILE
360
14
  3
DIFFUSETILE
360
13
  3
FBXASSET
360
E6
  3
OPACITYTILE
360
17
  3
REFLECTIONTILE
360
16
  3
REFRACTIONTILE
360
18
  3
SPECULARTILE
360
15
  0
DICTIONARY
  5
22
330
21
100
AcDbDictionary
280
     1
281
     1
  3
BUMPTILE
360
24
  3
DIFFUSETILE
360
23
  3
OPACITYTILE
360
27
  3
REFLECTIONTILE
360
26
  3
REFRACTIONTILE
360
28
  3
SPECULARTILE
360
25
  0
DICTIONARY
  5
351
330
65
100
AcDbDictionary
280
     1
281
     1
  3
ACAD_ROUNDTRIP_2008_TABLESTYLE_CELLSTYLEMAP
360
352
  0
XRECORD
  5
1C
102
{ACAD_REACTORS
330
1A
102
}
330
1A
100
AcDbXrecord
280
     1
270
     1
271
     1
  0
XRECORD
  5
1B
102
{ACAD_REACTORS
330
1A
102
}
330
1A
100
AcDbXrecord
280
     1
270
     1
271
     1
  0
XRECORD
  5
1F
102
{ACAD_REACTORS
330
1A
102
}
330
1A
100
AcDbXrecord
280
     1
270
     1
271
     1
  0
XRECORD
  5
1E
102
{ACAD_REACTORS
330
1A
102
}
330
1A
100
AcDbXrecord
280
     1
270
     1
271
     1
  0
XRECORD
  5
20
102
{ACAD_REACTORS
330
1A
102
}
330
1A
100
AcDbXrecord
280
     1
270
     1
271
     1
  0
XRECORD
  5
1D
102
{ACAD_REACTORS
330
1A
102
}
330
1A
100
AcDbXrecord
280
     1
270
     1
271
     1
  0
XRECORD
  5
14
102
{ACAD_REACTORS
330
12
102
}
330
12
100
AcDbXrecord
280
     1
270
     1
271
     1
  0
XRECORD
  5
13
102
{ACAD_REACTORS
330
12
102
}
330
12
100
AcDbXrecord
280
     1
270
     1
271
     1
  0
XRECORD
  5
E6
102
{ACAD_REACTORS
330
12
102
}
330
12
100
AcDbXrecord
280
     1
 70
     1
 90
1959938040
 71
     1
  1
DE780529-0A87-4F6C-A198-F3DDC1FD24BB
311
504B0304140006080800F678444D479B93223F010000A80100004F00000045314531333333332D383736442D343633362D383538322D4233334334304338344244432F4173736574446174612F446566696E6974696F6E4974657261746F7250726F706572746965732E62696E35503D4FC33010352C88818181BD8A588DED
311
C449DCAA0D6AEC84852EC0C452B9896923E54B712CD4AD23FF1A2E6A39E9DD9DEEEB3DDD0F42E8F76290A22BC009FC1DC417D39AA12ADE8B836934BA814A7A7CD547333C429A319E493F163888A4C03C541CAF7311E358F128A4D2178246D73037AD29F3A55D3D4E3737952D4C5DEBD674CEDE43E142326BF40864BA7E9A96
311
6ED1E44F0084FE1B76BAB43F4B9A547E0374D92F9EB5B5665C918C652C00C3228E14E6511061110A1FA74120399582A74A9237633B3714C61295C58286FE1CD335A8E67924F19ACD05CE03A524CB95CFD3948C87E9350FC0E49A5DABAB9A507291B0EDDB7D099A4B2FF1291398514CF9070B17345E70FEB92463D59864E9AA
311
760CFC59AB1BB3F25C3F6D582F614B726E244BD27625CC91FDD0B91EE2D075636267BAAEB45D793BD7F48DEEB79B3F504B0304140006080800F678444D8241762A09010000300200004500000045314531333333332D383736442D343633362D383538322D4233334334304338344244432F4173736574446174612F496E73
311
74616E636550726F706572746965732E62696EEB606060F80F0540260323103700495E20ED9E9A975A94991C9C9C919A9BA80214707135B7303035B2D43570B430D735713373D67534B4B4D0753376717136747331327172624768046931363471713532B5D435353131D635313332D475727372D13534373670367376B674
311
74B5042A03DBCBA019D37FE8ABC6157B20CD04146B0062181F4C03F940F0C11EA29A8141C08141002C0426541C106CAC2CA046088033B02A030AC2157C6006F21A8018AAF50194E6010A610250382264E08660284CD9E98021862280A91564B406929A0FF62C401E28B6F88038B83CB1243943D7A928312F2535052403520F
311
020A0B73A6FFAB67600838796D7300305021A248E267B08B0B1CC72E0E00504B0304140006080800F678444D88E57597CD3F0000904100006B00000045314531333333332D383736442D343633362D383538322D4233334334304338344244432F5265736F75726365732F44453738303532392D304138372D344636432D41
311
3139382D4633444443314644323442422F7468756D626E61696C2F302F67656E657269635F706E67355B773CD4FF1FBF73E71C0E67EF7576C9DEF3EC995D46C6A1EC5046649CBDF79E192942562825CE965D8A868C2842C8DE9FDFD1F7E7F138F7078FCF6B3F5FCFD7EBFDFEC41B196891913091804020321D6D7513FC77D8
311
C5070EC3FFEE51B21F068154CC75D455CC028A3EA68992803810109FDDE5D5CEC5521B28A1B422BF80741695D5B529DA1C2D058AD2388BDA9F476F7C2CADC939304173DBF48A452BF8A700C0C70C3D121C1AA15A5270C22E2B9E28763651F7DA0D12CE11077B2ECD0D560B5E3DE2368B1E65C5E1C87384A4CC5F2D9FB8BE39
311
E9B77C753783A37998F5CEF1B4FEE553463245C9712270880DF339E0B882A6BA713D865F6F384C842D440934EF264F4A304F8DE4EEFA1E2BF5E2D91F5ADD9613D6E31DDB33ED31DB1D7916CAF091286EA3D31B9CFECB78BB0060245B943C4C040119FF780A74DD308BA9D028678674EB5504ECF284EE814DAED07440BAF649
311
BE4B55DA2890F4D73E2D489A59EE54FDB0A85B59F2F52C4858A02705C4815A792B0C4A996A2023ECB195073E115E3E3647F64243A8338F2000BCB58DA5692C7E7C3D413F963FEDF3CF00FBB0F831A9D51360FECA43819F527B89FA260EB63C5DA676830AA3626A3693B23F1A17A0DFFCE3EE164E31B5365EDF0C89EF64D8E3
311
8AB0BA9A1117D7C3A0EC44F44F4023095E80BA610DE336D0F99593A88BFC5306E72DF98F7FD132ED95878DF2964EA7E43071359FD83B2BDF9C6B5BDF768F0F3C0FC351199526F53D9460A34511F75D1B63E488178569472C91A94497807A3FD4A390C6558F26D416365C3656DE6E769DA9D8FC73774E1709812842DD8EF96A
311
ED1960F79D21B395CDDFE6F92CB4EB962A4668C76990E2EF29798C8941D67DA50F4A5F947872460F1F6FDB794E8A29FD7AC0C0D6E0714339CE258FB17AE8535221E3464A10F29A0BE5EEECEFC5675926A89F49EB14E5711894F6586DB5754EB4D5DA9C6437EBA57DB97A24F8B8A8DB295FFD73266CF57E82694DF5166DDF93
311
573AFE9C9C5EB05F8FEF8E89E0A8917B0B3724DB7BEBB53252581EFC3E38166BA131A3A5B42FE2AD00A769BBFA4458D2DE7822F8C4F63D0B8E21B285AE13325F3410A435C648C9D91FDEB109E73CEDA7BC796961AF79175E1A3CE4C5E8B0D009B0C9E29EFD98BC8E97554E3D8D838424E270F7685226E5AC268E021EDE3522
311
D583E8F20C0BDE2959EF5BBFEEDAB32FE9A3ED0E39F211A86AA9DEBFC68182EDED132AB8BB794442D2D7EA9F4D8BFF52BC4D55BB165124EE90A42D101E67BBBB292FFB4F66DE5BF2300E44546757DA7CEF8932BFC9F92A0707953491A55C5A5ACEDABD9FA1AEA01BAC3DC5A24E22E7C47213493996EFBC369D086ED9397C9B
311
A6C7F9855C7BD5E15BFC8C53DB3D2A4C5901A57ACD2FBDF4D1676E95338B2C2BCE65FDA4C64F5FEFDC7D9CA5AA1FCF11E193F2FDABF0F4916BF13FB916A224380E6462A9815F2300DC49CC4DF8D055CEF76462F4B7A7ACA7365C2707891370BC1D0AA6203C44CCAB47084FEC057F27FFCD57F89B8B9852459798A675C66BD7
311
CE572CAF71FF7E6D7ECF7BF62CAB7B3F1107DCD04DC55A3F9961700286141C94A4F771FEB2BCDA2DDEE0CB0BAE402FF1DB0100F8E475DFFFC074DDB4498AB7D186A7654DDB1CB680D703D47CEB4E72F8CB13D86A4AA68116E26387B93FD6738779B34FEDB8E517EDF2BAF28D9BE93A1D3A164320E07D42E514725C29515FF3
311
61754213EDE06B079A2E99EB1CA82A02019EADEEB87B9AF005BD04BBCECB14AACD6B24EFBE482194A97DD32400685FF1FEF1544D1B14EFB1E7F08E6D2CD2AF52DE757F35F5E62332EE88EA26417AD5C3E0E319D68F25414E6D672BD4522B278C57D18F0113921C71D96527E091F00CEB15AE23D24667369BD3CEFA10C7549D
311
930890BA4366F4EBC55F01F746109F98ABCDD5A3EE06619C6AD78AB33E48E4C9BD21BF7478B385EC05C4F8987E2C1BFA0A60EBEDAA0AE0B015C2720ECE180FB6F2DEFBEB822D96338C9B63822183BBF52FB664A7AE57003AABCE512BF77E7E31BDA2E739AC4C131657DDFE5225E900FB56CC01CDE808FA4A9C9DA16AC67965
311
6BB64796283D89812B8F91136AE18EE5EBBAF47A73BE3C153EB5D4CD491B4BFB4FE690A4CF9ABA08C0D8AA64220C438C96EA6CA80B58FE5761E697B3A292EB9FBDA502FA863E49FE694ADDFFF9D62C520BDD1A22014147A0903A05B9B729F54272EF83931FEEC057BFF8C8055C279EAC5C0011804828734024F6CFA319C9CC
311
6867C727184465CD9BB7ED386AFFD96B294A85E3802FAE47244602D8273615952B98C4F23F7EAE4463D9D638EEE374A20959E0FE519C4CFB0FBFE5DD80C2AA3F9DB961D1BDE57E67C9BB47B77FDD74EE3094F5DBBE3EBC1FBDB7393F5116263009E2EFE1AF9A221B2AE234C902BF70E9F280ED23E73908361565964333A3F0
311
1D0B006AF32FB21AA1316744B489D5A198E85299241735BE559675130955C902A8ED761FC0DBE337A9F91919AF5CE32AF902ADF9AB2615E00E8A94586BA1A90839B61832FF1BFB76D2EFADE6DB1BA04CCAD3DA649E7E2A0219F592E22F2AD54847EEA8E42271011E9074F8F3DD9FBA6CDF88FFC9FC7E811AD1CA8F4557CE4A
311
FC7BBEDCF0114A48689F20A584520C74DA8127124B767E2FB91A6B186246727BE63C9445BAE02088D58B8EFDC0F1072407CD9B89A13F6303B4A928F593AD489B58E6869325790ADC406036C591729FE14021F94B7796BB11848D463536A092A26F077F94639F7CEEE2A724C66EC885F4A24F8B8A0AC321F8FD149BA529460F
311
AA34E4663C02D41FDF80BCA222D42F0ABFF8490F4FA74C673807C2051D8E467B47B616072860069A9A303ABA9B319D58404461401B0A0F9BE5E1E151C14BC33B32ABE03DDE91708DFAEB15E7C0D593C86BB7D7EC17BE56E57975F077BFD5525F3A1A361D584A75E08CF29FC7B44B2B3085014F3A5A14517377C3F6B8F37E59
311
514C3B12F8AACDEDDA4DFC49BE5710101534CD6FB6DE15B50F11A09472AABA727F0C49D9CB906B158030065F48EB3625E010CEC1D511D0053474B11E6A4F01C0D6EF1BED3A944FDEC70E0DDCDC756C86545910E0DAE3BE3AA9A404574C2995CD5CAF9549226BC94B4F4F0F5F9086F418F6B32346464610D8BC7391D3C3A3CC
311
F04CFC1FB2A3A3170E369511868F14EEA4E5E438CC73DB1F3248AA94B6B2FF33B222FF3D1E7BF146CAD229770158063BCE4F5391964DF62F7E52A7BE0EEA829C9E13C4C147D6F93FE59E111DAB5E4594D6F3CD1AD375EE039930EFE5AF2BB2D41C83C7DABD8C659BAFBE8FAB392CA634F3D15C1D945DB4588D2B0824A4EC92
311
8AAC565557CA2F0DAA588CA5BE30B3A8004F7BF005E96CBF891D7F18112A3619FDF530DC8AA64954258E1811789B5189B49B4EB53F5F89F7D37523894F3EB57B373763C91E502F52CC99EB7BDDF933FC324C4FFC2561DFFA7339FAFDD0A4BFBE6D3A8FF9ED1FC49898139864602458968913181918F719CCF5A68B2EE9C1FF
311
050E34E63107003B8120FA982C21B30A874E4F5E4B38D5A8290C4B8D9BE48A0BE31EA995BDC37AC6DE90BA17D259DEF53605D55922FEB1855D915B659FBEB350EE0DFB2F9F766E1C84CC8964B75D08667445EAB966015F63A18A9E0A325C1B3DC628C0D3CB60F767FA93CC65F25458BD23C3B312716E5F40E5858AC06EBA9A
311
B14F95DB99147B832069201541D09A0D856E12C629CF32683760EE855537D1901988D5EBC156676C7DD51D7207CF3267AF1D76C2AD867315E44618015313A98B19941C696FED3461CAA9B5415F918556D7802EDACEFD6B2E45853A9735DFC9DBF7E440F9319F8B6805A973BCCDC76C069A9144E51F187EDCC12FC31B5DEAAF
311
0A76137199B106EC84ADA6B6EE697D4E6A96E007417F4E880E8B1E89B4BCE9D81EF611E2ED8F0C1A6C25F620FAFAAB656A7C42D464880E8AFAB0E0FC8EA38CA9A8AEEAEE3E4648BA4680270A89743CDD3E6C6CBF34B7B640EFA285ABC7EA0A1E28F3CC963D114A80123EE66D0AF7D5380EB41909B605AB4765B709B8085904
311
58157E69BA1378FEC4B48CAF6A730E3BE3C5EF2DD1A5EAF94B1DDE50CEB55DDFD7EE9A16747FA4B223359FB1FCC69E1194892BABB93A1D5C4E807AC0EA2E30180811E77A2291F6E7F7FAA5E0F60215BC6024E48DE436C511F0628B8CA189982D4D83CCA17D305A7E923C37941CFDFDCD93ACAF735EF5F0E61BBD3E6C41A59B
311
242790D3A3BAC7064DCD89AA2E37214EC839820949D5CAA31E240D2948E48F690298974A96BA9A8432BC90F5071D6537C9666EA4564796B7AFFFA548077BEEA75F63083435074BA182F3699557397F71548383FDA8CA34D99B981E72835ECDA5DDDC151315173D05A21F651AAF8524E88209E2E7A737ED1045800CE3390050
311
BCFB8BE588DF111617874C62575039CA588EEFDEFEFE319B739DE2EDC147092A262611E159650E787917885EF08F1F51B8F2D8A71D60B58B190FEF9541A1BE94BC19FEA50784DA1419FE4B0FB51B8D36B5FF8E1286FD8AF42B91E59A5F1CC4D60174E764045FD8C57B18209B217F89A62252BD20BE0E63E12B8E8F029FE19E
311
0E8D0870F58721A557082250D5424F7909369376E41666C0EE77CD87CB283F661D5FB6D0DA023CB67320A20DC7BE661E9E1BFE5463085C557DA1FF9BE835733766C3D139F2CF9E2208873AD0EB4814DE9E6BF2CAF81614D4D43906ED1C05A3265CABBFE192770FC2F64F940CB6B17B5F166F133C9AEEAD2641807C3E695151
311
71DD74C4A85311513D6EC9530B3B601B6BA3EBFF3B5C3D2F7D69765141E345F75433953D013ADDF8F6AA7DC3F4A7563FE5C7D367937E2900D7EAD0F9FC9A4A1A9B5BDF1FEF08532660C01C5D6DE22199AA774383E306DAB87E301ABB7D213887F9869D4942D0D71E94B27EDF216A318BD488D45DF84529EF575AF3C3938C0A
311
AA0215B01994153E2054A0B894DA5C784980633AAD48576957CF4AEAEAFADC7C587368551C73DBE1E57C58AC713303A8BFC258BD04B51724459FF9E24C03A81E0E0679CEB9B348C0DC998FEB9C6D6EFA77D247CC8F92D3848599ED89A23218D0636465AD1CEEB7DC140D7426F83491C4E8E8281C2FB35240918FFECE880CA2
311
A42D70E8B20B34DF5221C7DB0CF90ECCB9C745B37A47E9B716FF7A97B7A252C1F3814DC7B1E1A7F72B8751D524EF7CAE45B0C73B3BE7D08ED39781B380DDFC9AA4A4749C9493DB5BAD07A6EA6C092FBD0E85DB004DF06B8C9D3089C5320187E4CE1846158C7EA7DDAE8AD9AFFF21AA3A1026BB06A259845E8232DEE62811A4
311
DA9CEAB3A4887320B76E2AE5615EAB7BDF738CBDD01F1E64064BC13D9EC53576751CA8CACD58B3CEB0E6CA585BD089B2A59B9FC101403387AADBDBE70586B93D64BF3AD4453EF9C3B6A93817E8346991798601344F79A83C51F3D50F7BF2683A3605F51A72449489E0EE6169C749C60B1035651103AEE24D24E51A759C840D
311
D3FC6504DA6FE107510E447B43461C79D22970B75DE5E1BD3007D1AFC619A4A4A69B5626AF5E9B8374E20677F77E2F8E73DF868E8BEC7EBA7B6A75EEF7205E1AB9486CB642741D6E03FF13FCCEDB1C4AC129886268B01CDF4B124AF797CF784F3C6DEC97A17D4B558070A0F1C04DA4FF9BDBF34159AEFE958479824B3F58EB
311
D1E19088A2AFDE501B6F2052368A3FD0E650A179EFAB1561E1D27527077136E652676C3670F42DCB3352F48F6BC86D2C3B0051727E41A0A4DC6CE2BE9D47F5CAA2935A3C0539AF080665997194ABECD723B08129CC5B6B21D2E7D54CD4D12610E7E9FB8306771A89576C7A982002775ED44F3F744CF21EEBB27A631671D921
311
938AAEE3EB0D19CD1E083727F607823E817BF599DCED5394E37EEBC2E88782E638920CA641EF74D4CDFCDEF06F4278ECB18E31E7E9876F2D783C8BF429C75395F57E98C2B495A3DA077EB3AC3C158608B6B57FE3EA48484D9A480096FCEE0DE880950E7E5A5714131C5C41AAA29FD19AE81AC145FA1B9E85C7169A5AB837B2
311
13493DF7E9AA4B5FBF9CDEB36EBD21EF1181B7CF7366AB2A951D01E37AF4EB835D1BE8C117CFBE7625D2EBCDB0B20C5A4B45CED0BCDE3EE8DA9DA78C2E21DEAAFFD1197E463C33CC6A80FB785669B856EFF7A8CCCA2841B5A5369173320B1170C368B2748D81062EA0296E5E2D95D7667A4A46D98A6FF475C76AAB0A8C8D45
311
E226FAFC9FE0133EA9F60111F99CA81ACE03A1D14C89E8B0D69079C91464FA1D99E651D0EAF606F345C42A8A1AA9BA391031582B96D5B4176A77AADB01F12FD298A75DEEBB2C82F0B8650E880722F8DDD90C56A7A058E5FDEF1AC93545BA27367C76F5D8F9690CB6F8DAE141EDD7971F0FB548A2AE435F224D6E5954CA1555
311
12F7332029D5A1230854B79F258EC5FFDB09F5F6343A8EB193229B7F7E79B3E48F8E183860B38C8269D1B53738FF1E0BACF6AADA6D4869E9DE708E79B5DADCC09B1BC76F649731CFAF59A83FD8BAE4C749D66FA87A3810D4D62FFE826FA400C0F325D2BC0F3CA35F5847B82A2ACC7961745C823E4D863D54460AF792CE6F79
311
B5C7A33B25C3AEA6CDE15A919B6367D781E9D44F61BF828672594A3E1D9EDD6DF179A81F27EAC05B936575D73E05C209DDD2115CFB705DF9BBF3C911589B3640735E9E618FC9C36A7326C82B2205E244C55D56FDB9D5DC93CE958D4BF8174D2B3DA54CB3C09F2C2A6DFF73D23B2197355761AD421EC581284A7EF8DE2CE349
311
7C0C804D49B41DFD6A7360844E5BEFFB495CFCDB97A4595911CDBA623274CE852B5E278AF0BEB1770E9D37CD977B2766A7DED0E94B840E1E95E8C77DE5CB6354AF7871427C28ADBEEF7BA0A28E19DE9ACD75F379FE373EAE6DDDAE3834692F9C2B03B4FCA8FCA9ABE8EEEBEBB725B88A7C90941E850682CA04061A7DF0CE82
311
ED49BFAFFD42C309818FAE14755CAAE78B0F73243ECCCAD7DF58FCB9CDFAE7A4D3E6671A613639130D056C8383C8F4FCF4808C331E544DD26E4755D09EA05253B3049A1E32587CC25D72E073E2CD96D04A71BBCB0038FEC3F53D254199C3CDC67CD66640269431860225392B2CB3ECD0B4498AAE78BA1994246AE1EE78F2ED
311
FB79F6C6CB6B5E279C4D373FBC21CB2698C9ACBBEB6A4BB6B39E16AB0E421CCBFC7654D81ED86022F9BB522146F9F4772E2D0E4FA70120C95A85A417BF5078B232F4754363EB1750B2AC2148EB46B1EA72AD9B4D23ADCBC589D70106C3EC2ABEEED84DFE28E718C6C83502C28E9FDD3B09DA0A6F6F7B72B706A31C9E2A331E
311
E70DA56A083D2177BFD63C55B11D8D949FAFCF90B23A1E24B9B5018B9A17E99F2890EC302F330FE7936E2C23F0D237EC8916F5166AB84B62A21BB0B950146962D754F92CC2C8877BED8FC7B7B25726DD19545392570B3A2C66B58F027BEF412E552D12A588C4A3CC5C3193FCB3485EFFF700D0B9EEC077754A33DC1FB9E25A
311
F814628F91DDFECB667D3F7690803F38D13F8AE39353523BB08FC6760144AFA2CE28236F65EDBB3D5F59A57D612B99E3D7E5F8A851666BF9B5A6658EFC96EEB37A378ABB0EB3FDDF1303AF32C41BD1C8560745D7BD81066B0D6313359CF488563D3BA3F8E2185D1FAA3EBA1397C9D0E3DD232180A4DCADB6AF25DB3AC3CC26
311
589C8239E66E81547BC7E2F328F9884764CA37EB5DBE390DFC03A5246B456A7C3684C4377D0EEF9A350680FA9A077E8B2957B489E09AB1AD41316944C2254B5984830F691C93CAA767EECF976FA5647538830B5E63236A6F0365C1E0F3E327F24FE35EDDBD7360B0F7374837409F7A6311BECC12B7026D4FA1AE204FA3F5FE
311
904B1F420C7A9044AE58E403E7C4848E7DA25DC9EDAC79DD756FAA26B9EA83ACE8A214A2612A22AFA19DAE7DBAC5F8CDE1292A485F98DAC731A29FE01A3966E96BCB9FB5A4C8830E1B9AF0C54B87FBE221A097036E5D28D1F869F810C06A9BB0AC0612F69AEBAF893C6E7AD59460208BAB3A6B09CA4F6BDDAB8CF0D1F84B72
311
487498395A70DCD754796E271099A567A55CF242BBED64696378BB6CF25EF0FCDB589F3A82F1116D010A9AB9FA4358809EE0C973A2B4229BAA876A70B03AB49CBA7FBE71DB1832FFD32F9BF2C8E98075CACAFB36921235D0F552B6A67E94E094097A5D7DF681B40623DA535ADA7A9AD8E9A62407D7C9A5AE51D62A17A83A23
311
728DE86BB56115804D3F2675F2C6B87541A0FC497BF0CA86420F558C9859EBE9FAD62747E323E3AADC03FDCDDFE7407B09DA90B44E3185723C5381EAEF589765E2F7A099BA46695BAD60CEF3491B8A171F5F56444F7CE9455312C3498C74173AEA0214EC029833B34B650CBB5A5508D5091665309642791708ECF27CF11DB3
311
D797D6CFE474453BD4BFADB768094B2147814D81C7CBAF8228DCAF5564B5891F5EF6A860EB2E323CB82AB868D8EA048880D63B0DE5341F1B3D53297B928A11E15F25E5148990F710747C3509ED14909C552EBE3973246FCE55D00564D8310BC3EBC5085D08D806799B77D6C57FDF5E55837F9E934F09C03C729271B64F12D0
311
A9F9E938107CAF7BF1EC8CF1BB9B42363D33070F4CACB425E605DDB0A34A12BB936DE286B9887A4E2E558F0886498BFF49C311D96C277CF6A9FC0D75AD0ECC5226D7E0E3572012E56D7FDE4410CEC7A6D0F997F225A2055B8B92E3956E875AE4993CB3D4C9063AF98FD45E1BAB165640A43439A2C9181A7C355B297C0A0CCF
311
FAE19B6FA3C2BA238A885FBC98B8F6DAF4B94B97304878DF4D8BFF6A4AEDF79E90ED4E68F00CD7299F4E0D83E35601AF0CBEF18C1E870E74758FA91F5131075004DB3CFCF09AE1DABC11957FD9808C92E8A678CE9DBE40DDA0E0D1D505AAFBCBA208232BFB6FB3704E8985E61ADE53DE74152F5C7DE74B1DEDCD37DC3E8FB3
311
0D7EBA8B9EFFC3606BF90B8D438279CB7709FC7C00D327F41817EEA71CD9E49FE9C8C9A81C70915D9F0F15958EC5AA4C3BBFAF46986B90F188BDB24B89DE3C6F29EC3E6F66D84856EE96A35E657CA41B41EFD8DBFA16AD6E91439EA92B40B21C053249F51AE50EB0B24C770FFAF40DF12C8436366819C48E36547D4E7B72FE
311
2BBF10828583057814A668BDF183F6B2E58DFB151103E56303E63D00F39C27C4661605DB644D19175D02E3F0241E8FC3458D17AAAADB117CE9EEA690D0DB01E634878C04C2C9310B69FCAB831151E3AD293BEF6E46B0ABCECB50F5939B39C613D41E81FAE8D34CAE3C4566B761D37185FE864AC32FCB71AEF39DAA5BAB8860
311
9BB980CD2F07A8F941653B529567726E2B2A58D079DD57E1E5E31426CF184A04D7B03B985F276D47406AF276FE32E3328BA866EB1FD39BEF57863A317634AA5FE467409B3873F5069EF0D71AF00AD189D17BA1974ECDB2D623E9E14086386A6AAB5807825C37B015BFE892AFD154920EC437EB945D958E18622E1E0FE2FA06
311
557CE4BB9BBD05A2D40E774DA2B65473791E314B7D6C886820B2FCFE4AA272B3B8B15E7344A145E8AF919B5454D89D36D413E87211186BF6F645E5EC94DCCE8E1C799022E4EC9BC86D7A0F2AFB1FC4B2CE48F84B3F49ECE65BAD24CADCC07EFF39AB06BE9E6B27A059938EA7208838455383DDBCFCD967DDE4650EF92A14FF
311
933C975DB20BD7FEEBC4487576485963D757D16340D9599FEB362F775F38CA4185A86F74B629C81B133644A3B18FD056E997E0734F9BE26D11C0AAFC669E2AC9FC41D281F8B2E1C35AE27BCE05F3DA295488096688719D974DF1B5D182DB7792288697F8763CFB43562C1CDEE11C4AABD5C22B6E33F6F389CFC3477C5919DC
311
0D533F8A7A1846B7ADB60ABDC26C43D0CFC8910B7C15EE22675BD02702ED39DB77A87A192CA7A543E6205B979B9F5A6B512A3CA799E198B2D5797C0AF8D1D872CA455D4D431A7879D4DD76110B5FF7F4176B54477A9EB5E4A5D11214FDA585F0382751D8E2582BA5D2075053298FEB8F1537304E32CB22C2E2B693DC0A760B
311
1DFCA751BDC445AFDCBB12820ED85F6D5298933C7EF1211E9E057684056CDA3FEF3BB6052355E162DF27C59E965A8DDB7F9437EB72CDDA3A090DE65A5B2F50326247B7EC67B73ACC7047FC9B353D6EE990F772207C6EC52B39DC2F3C0754821DAB559F7C1809C7D0DD5B0499D0442E0A6E391B3D5DB46D11E731E6794EC775
311
23FBDAA242ED67F9FA1FB684255671F63C9BCFE6E7E896D51001A6113EF2298BA494E0B0980D1FA5B9D60796554C02256B1E0345FB7C6186B6A19D2DCA270416262845FA4F42DB5D9B0A0B6F07FCA2E56C242522E001E0CEB734AF310FC8BFB57E38E03AACE93B3326A2197891E68452B26A6307FDABFEE0223D3C03C3C73D
311
2D5BC054C8311F12004CAE488E5C29287F8156A2CAA4AD0D7BE6B97264E4139F437CE73ADF52E5134C52B819777C18B323A5924E4F67AFD13B1CDC3A61793A79FAF5C0CEB718E441071E797C6DCCB9EFCF7E4A1E9F3DF3C2F9C9E8294E9586868788C972857FB0556D7A26941A7EEB9B580AD78EC40B85DC906B4120A563CA
311
3B87797ED612D3B035962BB75F6515A393F4CB057F564CDF54F2E5A024514E6A1F901DB80C7E70B1FC05E356A7E72FABF4775B3E3FB8F70A2A8E7B6A94542BB304157978CCC999E707A29CC795E67A59CC546A5D47B368954CA7B6E75EC9E1F6FC73CE3B4F71F8CB1A6B15923D61EAAEB14626AAA9D04A26EB9C66CD1BE86C
311
A31A5D8703DE04CD1EBCE4F5CCB62F93909AD11E55799A781A956ED27D3E738F4538CB04ADABC7DAEF20BC35BA6A90BCC1DC61BA05F20D8832FFB9BC9B15E2DB838A0AFBB7E0C82A562127E0446894F427794C3037186F622BF24DE1B00AA10A23BFA47B2A180D6DA5AD6F7326FEB8C100C2D7142EB2A0B2A9D1008A09BA34
311
3D70E054AB69E2A7EDB783CBD92537FAF4A44D1296AC2792729104B3276C276C951D0CF3CF3F1E6B017720A7B8505A5FF9589365979678C36F1BAF759EAF57C60F1FF5FE9DCF5F8E764FF25A2D06CF25117A8FED51884C13B2B750DB0E4F5E3D64124FCF11F0AD8F1CC3B3DA4B38ED22BF1CB2585EE6BFEBBA63FBFD44F953
311
7B9B37BDD6B358720F98A8125AED4349CCFEB0E135F19E208A04CA7E2B10711185D72E381F448036EF57C9F874E54A971CA37A639E986AC0226DC5AA00D5B14FEA9192234B3DE617814FC221C92F33F1D392F297731B567FD98FD91D989379AF567A65B8ADF177591DB90FBEA99BF4ED11B16E50A0AB1DBF1156D034BBE04D
311
69D08F939D8E92BF525A1DDAFF80ECBC95D8F45D3FDD289FD23F7D8B452F8EBB34EC082DEEE68E18EDDF072060FAD2AB1504DD4879BF67099FC58F6E9DEFBF645D16334A3E9A127C6F1AF6132CF287E433B43A0EE93812B4AA0B194E03EE3FF91EF9C6ED0074A2F6EB18A96A7C9890B1FCDA1F2095E944DB911ED54C60DF16
311
FB74C8CE9BDC7C54C4F14078CF73C2FFF1F1BBCCD7CF64F71407EA1683DBC410D226627F66E509060D5C0AFD611DE681D509DB8DD12FB1265B03C6F5C55FF4C30BD94187FF692B4F152982502F193098A789526A038AB529A52BC0DC4FB6285CBAC10A8B8DB75DCD9BDABBB221E27D1F8DA9F5EE5926A1C8AA9BA9BC09239C
311
6A7F12914EA3B59EFF7AAEC3FFCCE56F1C5C2980AD072793527565E774F4631DB178CEEC691B1F367BEA0CF2907E1D6B854D527065979DDEF002D8B2ACEA7CE21AE297737EDE1D45B31233B73FEA35BCFDD0B09721FDBAF6432681F2FD10C3E9EFB246FD6E854B344ACC9D8A0EEF876A7314B49B6A499FC650B099D650DBFE
311
C7638ADFD245E2B7839DA5AC5F7D5623FC0ECEEC8653FC9B2BDD1AD4D00A566FBA7186DD3C9CD26512551637498CADB950FEC71ADB9A5524285DE328B8EC7EC75D2345AEC6A27C42AF6D9B92155315C80DBFCABBB7DA0FAE425C4FB896B15C9BFAC4FE67DF5A23D30C93DA4D8F36FB15D100050DA6062E22AEC5F4DAC4F6FE
311
EF97AE05DE63C6D38F9E068A20BC5E3B6BCD75320C5090924E7F93640A7735B1A43451C2D91EE62C6238B797349E59890AF3A520DF4A87095F3ABEC2E61F0593416CE46CDCBE0E00E2523FCCD04408588B5B6C9DB6459C786CE378770B54F51DA3A5E1DF2A3349BEAAC234A6CF8993B598B3B25B4B113E353A4D750FA75347
311
49430F3EBF2512E7EA3FD43C6AB9A1F765A58463B306721A15D224FAFE8C6F5E3432D57EE697DA0DD5A9D4866A8BCCAAA9DFF1F06047851408FEC060471D0E3EB86BFAF46E4B5E60311DC3E3CEA147C75CF971BE74689507154FF2D2E92F15CDB2B9182B11459FD8ACAC5A85F174BC94A7F4EE4C4F5CAFA7C02E37BF0BC77B
311
7DCD0C047BC316F562A01A441AFA7931CC84A28CB9F4AA367EB515778F29BFE61195FA671F4352E5E46E3A64773F1F76EE5EB36D7BCE9BCEAD837A4D77F8DB8C92AEEF6711920D7C7D0F76B0FD0EB7AB83724CD35BCA7D36DDDF5FBB7FF6F04A91F3E2BB3B8F1A43CD659639507FF6331C5F697BCC782AE57D757A27D97F1A
311
B9E0AEDB43F92F1B2AACDF5FEC8ADBAF9F814E2027003BA2F9E144B1938A7A04050AE5D953B82C45619165C813A10E76DD6906B3C16438064D14CDA713AEC420034613E1AC7241904A49FBF87409AFB1FCB9B72FE7933A87D8FBEDACECE4EDCF6A4FE9FB94D5DEB74FAB7CFEAE17EE965DF980DCCA2D04134994F9A2E94D22
311
65DA4FE6AA7B7AC15FACAC2B5ABBCD7DFF542C5314FDAB2E1B9D8B65220B8E2B638BE008E8DCA22678C820C5053664D15E89F2D735B51A84955E81A443545E9FF787BE0FA700A76D136C27DA179A7C6E8939E01BE756E19CB292798063D8B97F44E8A27BCF3A614FEB8BE974A718E86F7EC99B53CA35FA24F61F2B07266684
311
623A3D4CF073E511F3A10A8FDAFAF0078C577F4DF9D339FE7862E5FA47CF4344209E5BF76D783B1B48E152AD281B15FCB934DCDA49CEC5706B1EE8B460F435324A5CAD154725E21AB8044B75A557A79F6C807B9340AA3D92503E866F4274412926C8C504E4D5EF8C0E68DD0B028781A6B4054F11CF18941F101C57CCC79677
311
3ABC8DED9CD91FE5788806C05E548895354AEAC96546D55B0E94A59F148D061F42AA398D822CDECA4CDE79E13469BDCC44FDC990F366BA5978C15F97ED80CBFD73B0CD9B8B83A4F6845BDFBFAF034019473FB9A63BD55D3A4A7284757071574029A4D016DCCBE95DD679EF3C4880BF169422F8C89B68A988D2B13793CAED4F
311
74DE7486C72DC94DF46B8E93D8E02EFCB1FF9B3BA10C8AE7F653DF94F4AF466CDDCEF5776687F7C4C14B63E4EED1719DC2EC482D7DBCC7AE518CDE3D5FF86D39000EC3673C0044E1D308BF05F74D1B5F033A7D1BE7F74BC55BBE3E4A20F920946CA0271EB17BD2B80E5660ACB8A29A79F5E4BBA49D4D945B6EEF4A7EFEAA65
311
E5555BBB57A7E15D2F83C69F30BBB978D2B39F1F26FC097424D39BB33CA3D87ABF64E307938B685BAD44F71556A30B7E712CA4FE600613C3E554B69ADE949A7CFE214DF1FFF05CB82151EC6FC31950239F94CF7AD39DC473F6EA356E5EC2C4EFA04383CEFE985A127484366FBEE3C0EC4FEA363E4F6632AE781392FD45D67B
311
63FB8DF70E82734F431FD3443172A0E30A83D60982D55FA6A2CF86DBA8382502ACC6CDEF3B907982EED1160E14863FA242F9757347E1544275CCDCF71ECD5F8621CBEA326B8BA884AD7F825781923E66971F04010D574C541D8427A438A37EEF8AF88240EED7362C953F5A81DE2D56109CDE2524EA0F5D2F87308C0C47BD97
311
AD605878AB8589E17CA83930CB5E0DCCD75853D68B1AB136594926DE426C367428E9334AFAFF90ECE221BB5DC9E5BB53D2CDEF954EAA9CD814F0E5725F1965DD458E5F8487683AD86B9D0076BE3EE91EB1CECC5331A67A3F79D8B27587C12EC2A6A70474749F27B4C0BBAFB94B34189E88DC18964BE4121B9137FD516C7755
311
356E50D6714E31ACD222621EBBCD1CFF81D87479056A9DA0E0B8EA19D24CF937DA89F78E8650CCBDC110AAB6C4E46DCBFD0446BA9E2060E81F314AC2031E88135E5476AC0160EF5C0DD2EEF1B8B5CB2D198BE9A554A9093B5F7D7E4B5407DDFCA1D9C152FD97F55BFFFDFE802954DFEC8995B983E28AC92F1971E28F531DC4
311
07A1280EB125F64A72E617EFB27DFBCEDCDA2D6F2BDADA36873EE46B9BE1782998C63DA7182BC383FB6FD15DA472B175D7E8B4FC88F38D6E07FEAA3FA3CBB8F6B449ECF14D2175E5C5CCA3A42ABF24CA6C9395AF74535F4DDB38CB84F56614B0FD32D7E19CA5CF988DB4449C40E23DF2B16772594554579094450F56F253CD
311
25EA7F77366FB1CFE79696C428BB64D5A41E986189427E5E4D7E2DAE3D5BB4972B3DC44EAABDDDD63A2264ECFA5C786EB0EE1FDC5BE34FA0F08376869FD1E61EA06CAE15191135445EE8F0394161C3266A596AA035572BB0C8876180D8B9C77D307DF9DCDF7365ABDA6F3A2366436457A4DFC1F259666569A9E4A79C817BDD
311
5610E5200FCE894A358EC72858D50EF67545DA81C6FACE3D457BAF70367E1E6BDD9A952FB4F56247F58F523B97E640246051A72F79BE42FFA0B3187F63097F91C48B868586F714B0EBD5A00A8412C1236E1298F60C72BE6C96B82B404CADAA304AE9F303176B14BA53FBC2D5E86377E35542019E24D97B96A49B2C0E5006E7
311
795954DEAF5DA58958839043C6C70BD3B1B33B6DC5C31316D8A6923F142E26F6711A2258AF977DDF1F970ECC4F1F2B434B96D81BEB6E89BF3BBB3C7C8CC80505070723D6D7D7D3C8CA27CA164A26024FED94B12A86031867241DA53D929636DA600F050BC40CE48B8BA03D69224720DEE2ED2127390BDF5E6EA64527BBD4C4
311
C63FA76BB801FEEC0E61218EC98A8A86CD8313781617877E66692839B9468CF4DB8E50A73986E558E309C0D6F676F921BE02F1185454DC75B111572FF9D27D85EA14C05AD7271225B391C4275659CA4A43759D0BA44639BE4C30A84DB7F67A41399FB95CBF923B1B1672ABC807C1590557FB18D811983FA97F5E609516D622
311
81D38B1281F68FC75528C35E4CD7DF0F7DBB5E5DD69C414EBEA2F4A5B241B996BA77AE6C772E367408C633EA3E438B68563EA8BE7667F3A4C4FDEEA52ABD78A2820F443B7914A15F180018D231E64519C56A12F6CA7C8DAE18F06F6B769DBF92329EF6A5D18FBCE600F36BD8E8198DE5CDAA96181F3A756EBA5501CEE58F49
311
7EA4F418A2B82565B9BCC611713C0B708CCA1F398B78C5F7D03B3437CC18F13061F55C7BEDADD5ACB1DB0E36D3CE47FF6EA1A563A57E9649EA5D14D1A50EAA457463381C073777EF1600607BAF6428A7DDC079D47A204EF1E1F1F0589FB054D45E02CE623B3823C317C601E589E22B1E88B448524B86A82828E32345EC18AE
311
17214B42F8C41C6D428016D9BA31DDCB47572561E5A402E5BA4FCE55F78AF7268524AA04130F3A20BA5D1E9F9948EA48FC8F5314FDB35E21898198060034ACE5E3E2BBCA34092518F275190AF65F45867FF0900AA4B81F25427414C372BF51DC29AA855C5428EE1EEDD6B849AD60F6E73475C2D2523F8A2772C840A478DED1
311
8A8C5C91B085F255DC4F54EA7AA8947354FD17ECF8FB3B4A0DE7B483CAF3A1165EE05BBA413E5C1FEF3DE1D6B8F2F3F3251C17D9FCAB48A9AAF63AC773A0E413BBC46A9ADF84A566FC920E4D8C52C9769EE3301CADEEEDD92B312E02E2A7E35B7F1E7D203FE5A7D75578B06E99D0E46FFADB8FDA17ED8880390DA29094202D
311
6F645F76F6F96409CDA05495A96E84B04A00D1A6C6C81D7F3DE9376E828CCF144EE50E364ACCE7237EA0BFB5607ED1AC3CFE73794E5B61739D14DF1743441B1AC98F00ECEDE9E7301FA29755FBEFA68C91EF2B314CF510537EF1ABFC9A762496280B546F5EDAAF8A5B387D469FC9A878A92828C88608453ACEC6094DCA5411
311
1E7AD5B2663DFE2DD151B7F123B9F4FEF8EE36AB125FD7AD52A59B1B765B3E3F73E3F73DEA93875004D2AFFE3CDE9493B87A9904DD052028949041A91DC0E1BA47BA714343FD5B25E0A6A09503AFC17C790058A836A324FE31D7893512E28230332F153181C1E018E1124EBE1BA262AA428A518237D1EA7275E48C5C561BD1
311
9ED6912EDD8367DA0F31E40EEAE9683DA9257525AEA7B632B97119E17145A90231768A4F3B9120FF32E8319B015E3CBE26F1A754177D8185345817C096B0CE443A955D13AC15E1FB5DEEA0239EC32A3C92241A237B0B02FFCB4F93CF2B02570C8D192E2F2A68CEEB42F12E6F8CEEFF46C251E22B4341C56FB08CCE550E7A9D
311
6F4D6564B9EA52A83D5BF2C6E03FA19D2775E15A8A7ACF30A13C259EE7F5EF2AC3BA354F1500E1A07FC63FB4686E2F12EC69719F9ECF5FE3F35598DF2CE944008CE78F0911BA5BE5D0A34E0098FF038669C26030BA9B300303039852A8F6F496341737CA7E0D2E3AAA36DE0A70AA7D9CA0D54D9AD84B18A44C9E625475E1C9
311
7B93BEBB38DCE7D227E67A2D00F531436136355F243D1FC0D712C5765754FA22FCFFAE97919161F46D6E61ACB37D83777B385889770B50765B127768443A5C4D3A4E35A3151111F146B7CA116F918A049F1C272F2CD7976C69A0068773451659A97E0F4A08FE604C3FF6CE7385DB19F4D3ABC8A0D80DA8A42096AC377DB493
311
82B36E270B6FA7570188B4B7D1DDDDA82ACA487CCA5D38BD3BD039ADBAFA4ACFF27809239B722081E2EB9F145320553D183F28471C388BC8814E5045676767AB58A8E72D1CED2CA731379515D2E533E4CF0B39DFC625F97AC4836831A4DE330E87A8126FA17EBE583D614E71E22A8DBF2825599743E0640037303E8E1B1E8E
311
A4E1ABFA4F62907B5E4E0E5DCFDAB417C36C6848A2B8D15F1E505434C0707E16B1CFC2A1C36A42BBF55734F8F4301DDC2A5110CEE8C0747F69519265012A2174BF4E955ECD4FDE095A3ABC70536B7AD0B9D7892F81287D667C108703C9B66A221E9A0929D030008F77FF6F5D2108EF5706FC87A3069B976F7C9FC3239D13D2
311
83CDEA83597461079FEEE049B0F392889898B7D87D31F8D60ED7B56B91823A8E4EDDB36C6172ECEE42BD42B12CD67994FA0F0DFAE9389356F4CD4425A4B8AA55CBF7ECD585C6A2C2316791E43D5C06841ADBB226A87FD61515FFBB0167B74E56BD7F3E90A57A97FEDCBDF483A0D6699A8C0849CAEB4947FAA90D8E332D9DEB
311
D9F4738C37DA0CAF9CF3DAA68BCB67C420459C7A64498D6E848E5CADE92BB6901F607AA331104A67F7CD650EE169B1DAE94D2C31C2F993632259B6957E246EFE4C5481107B07118607700040E5812A2A2A38DA0076875258C753F60E0F2662C748EDD5F3F3686B8FC3BD6FE631ECCAA1E8B1C1E565AD117E54893E79F4672E
311
32F9E46B2A183DFDCF3EECB4D4D077DBEA0DA254D256045109670050129E9B9B1A9E4A11344D61497A992778095151510C4BB7EF2009B63AA4360635312E4CF668B7E0D3D85A8688E2BD83B569439892ADB63461930D428E0DE42E4AC57CE48DA5CC1449530D8BD3D6A0F08DF20C8E8F570F2CFFFCEA286E30969B4654D498
311
A58D9DA782E19FE3F002181838925592C4A1EF0B332D88B61A92C644547BED490D3A42CFFAB70E36D961F694F6307F72FF15A1C79D5B1B5CEFD353D9E2B52566DEC8F8F09CB3E8359C0F68EBBB7898243E34E12A015B2685AB303C04D3A9E00671FF3DFF0A184E4A2ABEB2B666AF5B3A209C73D8EF29DCDB069C9F391EEE9D
311
D0F74C7BCDE16F8F02E3B8816122BBEB50665775B600549D8BB33A54A6BF940C028118BC6878C79958D6784F9DEAA6E26748386FFAF8D0D0101E2847B6563F5D8DC1D78F787BE00E2C941AE12148D4A81599FE8F68D4DA5CDED75530ADE138240300EE13B0FC13A1687FED6774662C05A2B7DFB186732F0D7A93545D8B0A63
311
90AE5054D9CB582DA846D7A061B3358B45E2B52DDE63E114397EDB7E09233A579155D795BE76102CF277F4DF8B188C4F2879BEAE3C08347124BF9ED23B128259FE107D31E34A652F090B30B39E0D9AF917B76A2806135621A8A60681F16AF216514BBD02711585B5B1AE823F4B2D0369EA5B6BCB863072727FFC871CA6C9AB
311
79A814D989057E9470A3D238BC87CBB4A0EA49AFE2B86F22E499793CAA9047080450166BDC357524561E258C77CB697F1ABB32562CF87C3B7AA12F911EF19FB3E5C02222E887D08202A60A17151F5E053A86B437771088B4FEE14D652C43E8D939995D34545E12E2FF93D4E366EAD25F10CB7DED141563C3D0C447AF06078A
311
91135FD4B9611583CB4BF3BD167F2399CEAB0E0100F8FFC305F00F1711717173138B4B48C83022295DE657EFEDD97F238ECA80F528AFB4F8D67AD4E2594B9A3AA86D7487EFC313BA95745C186F0CDD84CC12DC9CB0424B42203D351FD9C0A3AF10CC7F388E0329279087386421F194F4A29464C1DEF7EF8BE515E4A199DCD5
311
B909342598D8FE6A231F71336248D5CEC5454455C7BE383B3BC7B260FED27F703FDC39A170F3827239102F59D4DEE7FEF82EAA1A5E4BA94DCC4CC44E7E2EDE20F24244E4454369D2E87C3F823F193FD4FD27E1C23984B01898D15ABC20711A8A558054951A6AE280096BA36CBA439603B7B0B4C45F248C14B2383B4B5CD8EC
311
ECE4FF859AD4A6CA2326D020EF090F4041D28DB66E5256B56232CC52829DE8060BAE6BBF37D4B7469B822454FE93210A3E8D15E69FFCF01123222611C51C4FD0A041A0CFA2471CF6BE38D2B20FA4C3525B5B8B586759475CF80ADFE67A284AC24651E52B8E683D24C2622642F27E7C3C22783BCF63648BC398BD6CD0D9C97E
311
7E7E3EACB6126DB7A6C1FD9F1031302EE67ED96F22B77C7CA0239BB324207559B105E4693EB26EC46182A92C9C0DBD24F29B31C5C5AC1F84300E0E17CEEAC15F5736FA4A98971E2F1423BFCD68D4BBD5F86E74B40A369F39507C88FCDB35D2DD8DEBEA4AF999E23CF2816D204200DF6E611781B9884C1AC8888B4DE3973204
311
72959434323A5A36B22A8E1F721A270DF3BD65E4A31C11FF048AFB0D8B7B6881423793963A23CFCE935FC189ED36FAE35C46DA3574C979E4394BE52084F3081837BE033396D2EBD80F1F691B273F660D2B32FA27A33B1DE4ADA5F0FA4651511102DFA410DDA86E065272CA314D5249DF91B06BB92807B28EFD54F08F7B5252
311
52782CD276DD02E6B0319B13DF87B1F6361AD6B28FC0D711CF445429B9E5A433CD493051C49A9E03DDB1B147D880253514A5DED88009018620EE229101C041950E2D8AA8E1F5F5438E0C0C0C60EEDEE9E3E0C051948C69F84BB7B2A48A1F3C8EB9E6864687F4F4F6F6E2FA87608ADAF9C5E117B7C1A737E710769DA1D15ECE
311
6A84502AA855398712D5FB51BE92E4EF824969CE18278798AC303C2C7980DD2500ADF8FB1E6D6C2FAAFF9987178923334A244758BAA01A9A1B70FA5097D01E1CC2A58DAD0EC94CE6430AA9B0C10D75E3C6BAC670EFBADEE1607739CE0FC18A2587E3EC3058562014C64219C69BC269082D5C2F4A659278D585755912176D78
311
A1B641719C2A394CED495A1AC5D583FD2F5EDD93308EA7EAE8A6DD396598BDBD3D4CFED62D18A5BDFDE0DD5C80D1A89BA62697B131AE7CE9A6594138582F1B37D68F1749AC7CB67A70695D48A4A056AC1FBD4E82358CEAE38F54B95A9016F9000F9879C0D9D131768635CA798895F27D6F1614F11F2838A83611AA51C9A3DD
311
B539D42979C29F10465655C17BEC3E2760B80DCBF609198C7B171A531905F3EC218D696025975E986C6B4C666666787271F202805577DD5A3EF0CAFAF91B62DC4B2DB4217A7606282F31D8DDBC290593BAA93EA6353AFA9939B877978481E15CFC9F2755CDC00C538F63A4BA3E80AE009B73CA0185687D339A507D165B7429
311
0D6EE46D5C58148F020C3668ABE9EF2F7549170DC80DB41FFC1D678FF19AEB10C7133832B104B80F691B3138F97A92D26E551F1F110400D45AC71A9B9AC41A1A1B1DAEED0B0810638EFFB511D46B121C6FEA0F38CD00E03CFFEB9713FE1F9C263E4DDEC160D0497FA9A132BA608584057FB15380825DE6C7FC3C667EE947D4
311
88A09898D8E939C4953BF4EC9836344D2CC6B2971B2A21A572B06096F4982D2CC7232D46E8EA69DC83722E267754D777F97F96D5DA74E1E75178084D0E70F12AD33E5F71EF2AFA599B2BEBF60A5BE475F444F240CBFE8143C334E7ED9150FEEFEF7EB020C4DBED388DD1D6A167A76F3CBF119B578AE8CFA7736ACAFA4440A1
311
C47185638A0D2F3EB5BDDEFDA958FB13CE4AA4923D5BF840392D45544329525749734866684BF7F8D9D54D892E19BCA9F829A0F8BFCBEEA6CFDFC61D74EA1A645ED7A1FF241739F15694BD835B66FEC5677E40FE69BD3F91AE402F036537218A401CB0828604AD189E575015C6F3F6BBC8AC79CF6C70653847254B31551EFC
311
BEB5978B9DB85D58D0FA41A9DFE9C624834AA04949D24B5AE6D299E072D152D12097920F14AA92C31C3B97E28B6C2E6E9C23D63043ECBBC0A60FDF5BD0C33C127EA8A3308B8B6AFFEB28B4455BF6E7AF4FC6222728357EB8E46E85053E6A8843AB23295BF838ABDA94658FEF3F832F147046B4ACD6F7D48E8FCC9618582961
311
C898D1C7A253C91BFECBDA6BA18A1FCF70755DCCEE2222F41B76D23CA98D0CB3D95F0CF66D57FFF65E2A90F5DF40FC3187621E981BD0BC1D992787212688976B94A8F0C6EF646624B570B78E068826F87CE27041A95C9A4871FF65CC17FCB1639629AD6A9517000D63AC231F3D741CB8430777E7ECF80CE7A3F73C0F162F7E
311
56AA71F4DA80A33CD6ACEE78E2C11FAC03DAFCE929B106F8F6B3ED2DC71FF994BD9CEF4E9A94896EF1B6E2B7B4978168BCF0847A3D2A4F1B0500B926E634B174548E9FBAD27153FB5FC36799B1E6C7C38A94E1F9E996796D7B485E635D5287A2AE76FBD11A341DB3F8F810385BB7296391973DC6C37C452A9305AEBBE0CDB6
311
C566DB59FE60C8E94B1FD090354BF51439FFD1B48D725228FFA88C84F686F547107A7A235665A4593B7C34D748C1AC8D56DD5DA861EEFBADDECBBD65117E65851F90351AEB65F0EFCFF4BCFEF24CB7A5879699FAC437A7AF9099186CF006BB923A59E37D7A36A29FD8D2CBB914A5E9D0A8FD212FBF796AE9A67958FF1D5D8B
311
85F78F96219D4714EB919929241B6C018AAE0C02069F8D919961EC5DDFBFB7573E3AC8E08BFB7C8534BE6DE045B3CD63DBD71F7638BA2309CAE398EA3A7D8F98BBBC7AEB367EFA5CFA27A9F8F2F52FE878058E6209C026453F8E7E8A237DFC389E9590F6059B397CFD65183BBF936E86896612A5B5FEE49DAC8455D026218A
311
FEBEC12B3523A45B57B82C9C97E02ACFA1184DB18E48CF615DBF39C3CC6F0B4AE6BBEEA2E39D944E290302FA3DE33FA7E40296E2EF7BF1CD855BBECFAD0FD622BEE9746FC4FDFDE545AE6E3BC234CADF83A0FB76DFB145BF3828AE3436368AC24989454F8FF70A177672C711CAA1A76107218CF948CA01F873520E7A2B118E
311
BB161ABAD432932029628B6761590C98AB590C8C8C79798CE9F715BA696E839E9131A4BB68BE923F1747FBFF165331FFDD4D05997ACD168F12CA75348DAC04C7F509FE83898A8B421181AF492861CE81E4A2DD0A30850CFA95E05F097FF70F9E777310D584A75BA7018922E271DAB1D785671157685B7D383D3E074DDB4F1E
311
44EF04B07BAAC75A062077C54B9752C738C9D804D402E02851F3F89605AF189738C18C021D2139EAF72513824E10DDD3047BACC8521ED7E98B257D1166903B1B08FA6F918FD7E162913FEC7D0EF4787E29C35FBA8C6E2C9C20E9AB30AE42CA2A01A090E7D010C1B5BF9CEE2A304BF3A987FB40D836979B79E18D70F257DA61
311
E808472DD85B82761825779D6B90CAEB0F23360C6F80A7D7D77545E95B3DFF0CF96A827F9B5BCECD2C9698718417EF80FEEDEE938AFF55859D0D540B7FE09435583A6F04874A0C7E8CF234DF4879722000167F5872CEC6BF3EF7E5A8CC8121E6A359227C8A29C95212F9F735BC72A887D56B8F309FC525BFB4FD767AAEC4AE
311
FF249CFBBD2DE1AB9969A6155C7D8DABC307E47324C1F916C7BCFF40ABA5644E9FFB9238D19ADADA49D9610F01ABBA57E4DFCBDCCBB2B93C8953206C91DE01B0E2651A6D6C31721915B31F7B7CBCE55466F6D70402788FA91D73BE4ADCBA99A35F17D6B83383704917D6833F0FA3CD45C926ADB8BC17999A4A0AFBCE2541F7
311
B8CF4C2F5FBA611B3E626D64407CB32C122DFF4EF8674D6EDBB86C8F7C6A16D50FA685E2CCA34F8F7D1D8265BB0042E9D7F1F666F7BE5FAA5184DF58E12122A42EF02F461B3F369AC746F96528AD208512AB56844CF75B97F352DF7995024FB02855385854F3798670D01CAC771AC3E1889EC25F61A20C1F8CAB46898817F9
311
C47E2CDA1F286BF2F358298709FE567C91133E2638C8B53975E753EA8BFD3578B5F7186B7BF084EBA3F77BAC3132A5779902EC22AF2D2E79F42D324E083386DAEE9810D1B44A5DAA54513C7A71E52A4AB9257D975B621308FE4D2141CC3DCFE946C154A3C1DFCCA7629EC69ACFA831634ADDA93C0388D2A9A2DDAFCF957C69
311
95BCE7FBB6DC4EBAE79E63EB08E9A25F52F67076F7093CA545CA3053B5BF576DEAD4E0017143C5F759F32B2D6F145B52B67B48909B7C7FCA6586EE385A2189C16932CB6DDFD9152AE317C430492A578ED27B72D85D40C7C93C097939E1B50F4D67F05334FE9DC362C30B7FF561B95259138ECFD9274C8D695C31B14D4EAA9F
311
3D7FA8DDF652F8C5DEFA23284C799B7D94416DEE81E05A866302DC70192A5368EA65E1CED8BF107A1E2D3119A71E85DC1A7B0C1E93274CE04DD0F2ABC8AC7C987FDB002B6F81757B43502EF7A0D92E416494FAEEA4C9C090CD9557AA4D532F4996A272B94355C5A0E4974EEA9627476F30809B94D8D8D860062E02204643BE
311
C7D0438AF800FC7E2B26955D595421E83C69E1A07E0E3122285835F014AD538188CF9737CE76D464A353FA55A001AB2526B84E985083693BC76FE211CA1D000679C889E3C009832C87E1AC2EDD05C302557422DF0800E316FCAC86978A371F025A6C7DAA9F333E7BD160403A1A06EA75AA9888FF01504B0304140006080800
311
F678444D28BB58AF800100009E0500003D00000045314531333333332D383736442D343633362D383538322D4233334334304338344244432F536368656D61732F436F6D6D6F6E536368656D612E786D6CBD544D4FC23018BEFB2B96DE15493C78601010A34B880709DEDFB52FD0D8B54BD70DF6EFED3AC0B12E6442E2716B
311
FB3CEFF3D18E26FB440405EA8C2B1992E1C323095052C5B8DC842437EBFB673219DF8DA659866649B798C078B48AE6410122242F2A4994AC7F93815DF85C049C8564CA0A901499DD886B2EB9B1E02448F358701A9235880C49A0119892A20C89D1B9FD768815CAD268CB5E0355B40B1E47F3E37A2020464BED06AA57CE8FCC
311
20C3C3446D46761A2632A8C1283D07031EFF2AE7CCB1BFEEE916E406DFAC8E36FFD99A9D60A6944090EEDC3B670C7DC13DE86B6B2C5C240D6E503BB85ACD579D513F1B9F9A69DC9CC22AFA80C426D40AF0B21EA168559156B6276F0F726A6BFF04DCD513A87A62CAD41FB24FCB2858B3952E3D852084DA25B9303C15687973
311
CC8E8AAE11DF2836C38C6A9E765E8C1BA1BFB1DC29CDFE518C8B5A7655A4ED7E77291ABEB80DBD82EC866ADE1B8D05AF9E35CF09D7A061F38A986D9EC412B8F0F65E5D81534D9B231D1E5A8FE577A241F3A5FD01504B0304140006080800F678444DE336299B9F040000341300003E00000045314531333333332D38373644
311
2D343633362D383538322D4233334334304338344244432F536368656D61732F47656E65726963536368656D612E786D6CD5585B6FE238147EDF5F61E5BD1498E9A895A02398AA5D1E2A5665BAAF96710C78D6B9C87168D95FBFE7F81242134A968E469A4855437C72AEDFB965F4F53551642B7421B3741C0D7AFD88889467
311
B14CD7E3A834AB8BEBE8EBED1FA3495108B3E01B91B0DBD1F3EC8E6C991A470F22155A72F73CBABC1D4D5921DCD1934863A11F990102A6F61466977B8AC49FB13C174CB3940BE4504A22E3713489B7F82406516225536940BD88E4E552493E8E564C1522225AB0384BD56E1C195DC26FAB13882C2EBD62E1FF9E5B0FCC4531
311
32C99548446A1872B62267078F1EF14C3DB1DD1952DDBBB384AD456779F387C51992E0ADCE12FED2622BC5CB1952FC9BDF3295E9206E961AB116DA7ACE45F76F07A26EFC3FD762FD7362FC3C0BAA4DB34C09E682CA5167BADCD16CF94370E331E2F1A3D852008AAD5D64BA2373478338AEB1583B905396D158182655E1B938
311
D07926CF007CC7E85E6709999B0D3827C0BF406BEF55C68CF5579DA32C8C85BE03EFE788787E8FEC95DC85C3E31A615658D81F9A34499612004CE69CAB12531B15A887ACA642C110F8C1A8C1974A85853F407794695C905C688E69B116550ACA946B9B4785FC179E0E229240B62665328E86D5BD2C800CF5D80289F35AC25E
311
3DD51508F4BF9A74A0F5A557BB3D284BC6FF59312E282F956A75C5D453906F48D11A876599E49425602400842995BDF02C4D012E226658F78A710416AC552831FDDEF0E6F0BABEBEA9DC36718CCEF4DAC5A0DF871AECBDD8F448F015F8DA113A473609D1751672B723874B2CAB21ECD6E284E51DCC7D1A47A00F60EC21DC4C
311
C3CDC406DC03760A4E6C772F2F4D561A9AE58C4B03F5B4838701472139EDCB36819A66C472B52AB1139C648956F43E0DAEC067B56B0818F5961D3D446B8F1E1E78C0EAD7EE02AF2895D813E88AC5014A7B436DBB20F778D40A1D9737EFE45B47D49CC8360F9966B15AABAC802C1005548A93EE469F5D55317CD8BF0AA86CAB
311
ADB2A009D4D6F60CFE53AE370AFE8C45415B15D362A5A038E766E34B00F8C2E3E7098E2093B1C96349FDAEA158903B4BDAEA665F473FECE72186E3BDDCACCADA31839CD6D4FA7D47DF5469006ED340EBE71DF960DDEE88A3E17557039B58C278A1795BA8079419DA8FC5BA1BAA1A66238BF69C7B2BE4E6274839122B7D00BE
311
8B7D52CF61B2D63216046008C8B330FC10F8907787DEF061F47965BBA02FD8F53BA12F9827614979F53563D0BB1AD67A03DC0E00E2FB2CF3EFB457E70E65A3D7C78E7D700DBB45132AE9BBA5E468CD861408961AD8B00A55C2FCC677F4456039FD9F1907A5B3E2D0EE845FDBA2DAFA88C64195671AD6D282DA2E45B1F50A0D
311
632B0D0B6718757DCC7C84A70A3656F222CDA6DBF07E204AB358961D1BE31E53A82C2C0D56DBF61A5608B5A252A932A1DC6E32462430853353EA30417C8199A662E946A4EF352268B8CDB9A9C6762515ACE8E09BBC031C608A02C4BA89C9DDC074E46E0E26A17BCBD4ED43270D03E3645ADB81F6D62CC07A3243EB81C07E01
311
681DDF2DB4730631E6DDA6CBBD048BE9F06AEB3CF06B31DD6C9575E37E9FF17161342C4C76D95519672A6509E0F5C4E71B4B1916440059F57D0921F496237E473A83E3E4E06353BD9D27593594D7B6707C08D22FEBDFBFFE03504B0304140006080800F678444D8DFFFC99640100009B030000450000004531453133333333
311
2D383736442D343633362D383538322D4233334334304338344244432F536368656D61732F52656E6465724D6174657269616C536368656D612E786D6CA5535D6BC230147DDFAF08799F5FDB600FADA20EA430D968A7AF12D36B1B481349529DFF7EF9A85A718860DFDA73EFB987734EA3D16FC5D10E946652C4B8DFE96104
311
82CA9C8922C6B5D93CBFE3D1F0291A6B0D26A3255464182D920FB4233CC629881CD49C18508CF000E3EE309A100D61622AAB4A8A33B2483F11CB639C545B0E1508438C3D3C0361192846DB7ACD198DF186700D182920B914FC1063A36AFBEE8FBA03FFD3CC1D1F4FC9E151A2AF59F628C5B7821D83FDFD3489305080F2EE04
311
BF962195FB285E9D2DD352320A9E827AE357594914E42B1F5FE35F83688F60C4C91A6C946ED0668E8F244BC2EB0BA6E3BCCFC0B6A4B507F9F9F8D51EB315D9BA9E08D308E89F96931666E577837E2B4172199C68C4FE306156D47DF51C698C7B9D97FE5BEFE2190C3C38BB054E6E8163FB039CB4B993C80BF18D969203116D
311
6BBD26238B821F9BB909AD6D9C71B85BCD8C33D66FEA3D31B4BC0AD45BEA46BBEDDFEC0F504B0304140006080800F678444DE0978ADE51000000570000004700000045314531333333332D383736442D343633362D383538322D4233334334304338344244432F4173736574446174612F41737365745461626C654F66436F
311
6E74656E74732E62696E53616060707135B7303035B2D43570B430D735713373D67534B4B4D07533767171367473313271721202AACB4D2C492DCA4CCC492C28484D2C4ACC4B4E050A82012F90744FCD03CA26072767A4E6260200504B0304140006080800F678444DC55C6636560000006800000045000000453145313333
311
33332D383736442D343633362D383538322D4233334334304338344244432F4173736574446174612F53747265616D56657273696F6E5461626C652E696E665D8CBD0A80300C06F73E4B29FE6CDD8A2E82A083B8B7F209014925C9FBA3AEAEC7DD2555D896CB85E51C2A1BD834F6A1F56EC4494C4695278364ABB24ABD2146
311
F88CCEBB89D5321FF8F3F43D672A3B44DF3CB6A1710F504B0304140006080800F678444D5FB6128A37010000A20400003600000045314531333333332D383736442D343633362D383538322D4233334334304338344244432F4173736574446174612F636E782E786D6CCD94314FC3301085FF4A64893176520551558E2B04
311
4B2790A818D8AECEA55875ECC8BE20F8F7D86D0650115387AEA7EFEE9E9FFC4EAE3F075B7C6088C6BB96D5BC62053AED3BE3F62D9BA82F97AC582B19BCA71F182B1C0CD8B25C664AEE839FC6B9D4610F93CD556BDC612EDEC788B4859DC5A7FEC13B42479115DA428C2D8BFA1D07E03091EF301E780704BCE601A39F82C634
311
89CC80F3241D10083BA61655BD2CEBAAAC9A6D7DBBAAEE564DF326452695DC796F67DEA465C18F378B4A9FF6325549910125A760662ABF86A9BF54F29D71522452C94821B93277D0D7983A601CADD140C93CE1352195094218A438C14A8AECC22F2F1EB137CEE4964D9206E4C3731288810C5EA127FFA9BDBC371B17099CC6
311
6B76E45CE3E57D7839FEA2D7532C8FB9B9BEB49C6BE4C6F517C88A389E93149D7C5DD437504B0304140006080800F678444DAD067228E7000000600100006700000045314531333333332D383736442D343633362D383538322D4233334334304338344244432F5265736F75726365732F44453738303532392D304138372D
311
344636432D413139382D4633444443314644323442422F7468756D626E61696C2F302F636E782E786D6C4D90C16EC4200C447F25B2D4630259A5EA6A45D89FE8A9978A126F8A966004A66AFFBED072D8D358E327CB33EAFA7DF8E10B5376145698270903064B9B0BFB0A856FE31986AB5689881F3018823970856683567BA2
311
12BBB5E1CD14DF5CEFC2BD9B3B064CCEBEC7B0C360BDC979856C3FF13093294C1BE6FBB41936D33C25CC5492C57A80DD81FD804D681837D027399FC7598E72799D9F2FF2E5B22C6F4A3452AB0F22DF79171813C5A793B454C750FF914A3440AB925CA75A08D00FCF2951975A654E357F87F82756C8C4E89D355C6B12641979
311
AC109A43897F582BD1F256F92BA36AEB46FF02504B0304140006080800F678444DA233C2345D000000800000006500000045314531333333332D383736442D343633362D383538322D4233334334304338344244432F5265736F75726365732F44453738303532392D304138372D344636432D413139382D46334444433146
311
44323442422F7468756D626E61696C2F636E782E786D6C4D8B490E80201004BF42E6EE76F3C0F216234B883063108CCF170C074F95AE5473F5C4C06E932E4F28601967600677D21E9D8092EDB002539227A2FCCB80E1168D80A6417297A89C5D6963B7129A0D1E8F2EE73AA7B62BBEB8B27DE50B504B0304140006080800F6
311
78444DBE89762363000000880000005B00000045314531333333332D383736442D343633362D383538322D4233334334304338344244432F5265736F75726365732F44453738303532392D304138372D344636432D413139382D4633444443314644323442422F636E782E786D6C4DCC3B0E80201004D0AB90EDFD75167CCE
311
820A4A845D83603CBE602CAC26799919AEEEE0D965E2E908050C6D0FCCE04C8BC355404EB6198129C92351FAD580A10E464065907C8D948F8F166375F655BDC3FDC3B4E530A176BE7057BDC43B2A593FE403504B0304140006080800F678444D42922B407F000000A30000003600000045314531333333332D383736442D34
311
3633362D383538322D4233334334304338344244432F5265736F75726365732F636E782E786D6C4D8CD10E822018465F85FDF71498256E805389F77089CE89D0485A8F1F342FBAFAB6B3EF1CDE7C368BDE26BC16EF04D0130164DCC38F8B9B05C47DC20C502379F07EFFBB0172C36604640C92CFC1C7E78146330DD1666A17
311
B71E50DD2B46AE458D49CB2A5CEA5B8F5B5A33AC2F4AF554ABA2ECBA649CB392E6D74B9BF3F20B504B0304140006080800F678444DCFC45DD50B010000550300003400000045314531333333332D383736442D343633362D383538322D4233334334304338344244432F536368656D61732F636E782E786D6CCD93BD4E0421
311
14855F65426239C06CC6B8D9306C616165A35676C8DC5DC90277C28FD1B717468ADDC44E8BEDE0E4CBCD3907AED87F3ADB7D408806FD4406CA49075EE36CFC7122391DFA2DE9F65204C4748691CE2B0713A93291E218302F4D9AE1A0B2ADAA35FED4C47B740EFDB37E07A748A7AD8A712271BD529513CE104F745649D18106
311
88988386322119076D820EA012CC446EF8B0ED07DEF3F165B8DDF1BBDD38BE0A564929DE106DE38D4F1070B9D9708DE5E88B212E5805A4C8C134AAA620F2DC1D2D7D08560829620AA58546A6AFA5906A59ACD12A95B2D80AFE3052B01AF622F2037808465F6BE60B7BFF16FA09FC0CE1B1BC5430CA5E6BF6DF5CFEAD02B66E
311
40F9067521E437504B0304140006080800F678444DE3603EBE7A000000C20000002C00000045314531333333332D383736442D343633362D383538322D4233334334304338344244432F636E782E786D6C6DCD410EC2201085E1AB90D9DBEACE05D09878023D01A1D34A8419C380F1F82DA68B9AB8FDFEC93C3D7C52546FCC
311
12980C9CBA232824CF63A0D9402DD3E10C6AB03A3397DD192872090D3406ABE7CCF5B5D18893ABB1690CF4DCF02282E5EA8A5BB96FFE536F285CB347F95BEFFE81C9ED5AFF9D5B1FB575BB00504B0304140006080800F678444D656980A77D000000A300000007000000636E782E786D6C4D8C410E83201444AF42FE9E560A
311
A52C0013D183988A8614A1A1623C7EA171D1D9BCE46566647BAC1EED367D5C0C0AC8A50164C3334E2E2C0AF2366301A8D532C5B8FDD5008571B50AAA062D9714F3FB54939DC7ECABF52EBC4E399081D0122C1EBCC78C538EC55DDC7047A9618D11ACEB4D595CEBA4E0F75758EFF517504B0304140006080800F678444DCA1D
311
F9C9A900000073010000130000005B436F6E74656E745F54797065735D2E786D6CA590410EC2300C04BF12E5DEBA70400835E500FC800F84E0B411AD13252E2ABF27A55740421CEDDDD9B55CEFA7A117778CC979527255565220197F75D42A39B22DB652EC9BFAFC089844F65252B2630E3B80643A1C742A7D40CA8AF571D0
311
9CC7D842D0E6A65B8475556DC07862242E78CE904D7D44ABC79EC569CAEBA537E3521C16DF5CA5A40EA17746733E0B6615DE7217475F386F18B9481C510F1F021CD9FF027EA0E1F5C4E609504B0304140006080800F678444D3DEE336E64000000790000001B0000006175746F6465736B2D64657369676E2D7061636B6167
311
652E786D6C35CBC10E83200C00D05F21DCA56CA76D41FC96062B120735B69A7DBE268BB7777961F8D5AF396893C2ADB70FE7ADA196782C2DF776D7A97B5933C430F15651E5469C55D70F80A4992A3ADC954792C525AE70A1E4D6AD9816CC044FEFDF01FE3FDE907802504B0304140006080800F678444DFDBDA114F9000000
311
960100003700000045314531333333332D383736442D343633362D383538322D4233334334304338344244432F4173736574446174612F636F72652E786D6C8550CB6EC32010FC156BEFD860E3844698C84A932FE8A93784898B1283C5A3EAE71712576A4F3DED6A76667677F8F16BB9579FDA07E3EC00A4C65069ABDC64EC
311
3C408A57C4A03A0AEE9D8BBF685059B9E8010A0C82CFDEA5758394B351DB825A37E90D9421E80895BAE76680A03EF4226B996266845BBD4A7593B3AE49FDE4099E929936A999B29BB91AED415076EEC796B4687739758832764623DD75888DFB131EFB970B239837452C7834CBCF76E5B58C7A02D162C210C108D337D21FF0
311
FE40E93B6F0A53F0107DFE795B5ABE033196AB5F6594BC794EFFB8A675FADF35191BBB76737D2A0208928F7C0C046F4A4AB93C22CCB5242ABE01504B0304140006080800F678444DEAD49DC4F30000008E0100006800000045314531333333332D383736442D343633362D383538322D4233334334304338344244432F5265
311
736F75726365732F44453738303532392D304138372D344636432D413139382D4633444443314644323442422F7468756D626E61696C2F302F636F72652E786D6C8550CB6EC32010FC156BEFD860E3844698C88A922FE8A9378489831283C5A3EAE71712576A4F3DED6A76667677F8F16B79549FDA07E3EC00A4C65069ABDC
311
64EC3C408A57C4A03A0AEE9D8BBF685059B9E8010A0C82CFDEA5758394B351DB825A37E90D9421E808957AE46680A06E7A91B54C3133C2BD5EA5BACB59D7A47EF1044FC94C9BD44CD9CD5C8DF620283BF7634B5AB4BB9C3A44193BA391EE3AC4C6FD098FFDDB8511CC9B22163C9AE567BBF25A463D81683161886084E93BE9
311
0F787FA0F48337852978883EFFBC2D2DDF81C85E2FF48F5B5AA7FFDD92B1B16B37B797228020F9B8E740F0A6A493CB33BA5C4B92E21B504B0304140006080800F678444D9D739016FA000000960100006600000045314531333333332D383736442D343633362D383538322D4233334334304338344244432F5265736F7572
311
6365732F44453738303532392D304138372D344636432D413139382D4633444443314644323442422F7468756D626E61696C2F636F72652E786D6C8550CB6EC32010FC156BEFD8E04742234C6445C917F4D41B05E2A0D8601988FAF985C495DA534FBB9A9D99DD1D76FC9AA7E2A1576F9CED8194180A6DA553C68E3DC47045
311
148A2367AB73E1170D0A2B66DD438681B3717571D920E96CD036A3D629BD81C27B1DA090536A7AF0F2A667518A1812C3DFCB45C8BB187549CA178FB3188DDAA446253773357A05DED27337D4A446BBCBA9412DA56734B4BB06D1617FC243F776A104B32A8B390B66FED92E572D8256C06B4C282218E1F69D7407BC3FB4ED07
311
AB3293331FD6F4F3B6347F073CDCE2FC69859958F59AFE718D8BFADF351A1B9A7A737D293C70928E7C0E38AB724AA93C234C3527CABF01504B0304140006080800F678444D6BAE08710E010000B10100005C00000045314531333333332D383736442D343633362D383538322D4233334334304338344244432F5265736F75
311
726365732F44453738303532392D304138372D344636432D413139382D4633444443314644323442422F636F72652E786D6C8590516F83201485FF8AB9EF282856DA208DD5FA0BF6B437A2B423ADD0082CFBF983D625DBD39E2E399CC3C73DFCF8B5DCB34FB53A6D4D0B24C7902933D9599B6B0BC15F1083EC28F86AADFF65
311
83CCC845B5906410FCBADAF0D8A4C91AAF4C528D9DD5264AE794876CBAC7430B6EFA508BCC65F0D1E16EF9434E37795539C95F3EC143D0F316D5737C4D5FB45A415076AEBB92946837F615A28C9D51477715625DD3E3AEDE8F8C605EA4B0E05E2F3FF46955D2AB194489094304234CDF487DC0CD81D2775E24A7E0CEAF71E7
311
0D9AB603319C1B86EB728F70C71A44C75D8F3AB26768AC86A127E350D2D38917AFE01F6078CCFF038336BE2A37E02BE14090F8FFE785E0452A308E67BB71A6B2C537504B0304140006080800F678444D69E1C649FA000000960100003700000045314531333333332D383736442D343633362D383538322D42333343343043
311
38344244432F5265736F75726365732F636F72652E786D6C8550CB6EC23010FC9568EF4EEC90808B1CA308C107543DF566390BB52076E447D5CFAF0DA9D49E7ADAD5ECCCECEE88C3D77CAF3ED107E3EC00ACA650A1D56E32F63A408A17C2A13A48E19D8BBF68505935E300050629AEDEA56585B4B3116D41AD9B7005550818
311
A1D2F7DC0C10F407CEAA56296646B8D58BD23775C59AD54F9E14299969959A29BB998B410FB2E3A77E6C594BB6E7E386749C9FC8D86D37848FBB231DFB9733675434452C4534F3CF76ED51459C40B69471C228A1DD1BEBF774B7EFBA77D114A61421FAFCF3BAB47C07F215834B5E6310CD73FAC7352DD3FFAEC9D8B86957D7
311
A7228064F9C8C7408AA6A494CB23C25C4BA2F21B504B0304140006080800F678444D32D25917F7000000940100003500000045314531333333332D383736442D343633362D383538322D4233334334304338344244432F536368656D61732F636F72652E786D6C8550CB6E833010FC15B477830D267123E30845C90FB4A7DE
311
2C70A89560233FAA7E7E6DA0527BEA6957B333B3BBC3CF5FF3B3F854CE6B6B3A2025864299C18EDA4C1DC470470C8AB3E0CEDAF08B068591B3EA20C320F8E46C5C7668B0262893516347B583D27B15A0189EA9E9C00F1F6A96A58C2131FCA35CE4F090932A49B9F1048F518FBB548FC94DDFB5722028BBB67D4D6A74B85D1A
311
4419BBA29E1E1AC4FAE305F7EDCB8D11CCAB2C163CE8F967FBE0940C6A045163C210C108D337D29EF0F144E93BAF3253701F5CFA795F9ABF03F1BADEE979B5CDFE78C665FCDF336A139A7AF7DC141E044927AE03C1AB9C512A6B80A9E63CC537504B0304140006080800F678444D6947595101010000D80100002D00000045
311
314531333333332D383736442D343633362D383538322D4233334334304338344244432F636F72652E786D6C9591C16E842010865FC5CC1D1541D76C904DD6DD37E8A9372AB396EC0A46B0E9E317AA4DDB5BCB05F2F3FD03FF8C38BD4F8FEC0D176F9CED80E625646807A78D1D3B58C38DB4909DA4589C0B3F30C8AC9AB083
311
248314E3E2D67997066703DAA45AA7711795F718201B1EF1D0811F5E7152B95A4324FC3D9FD5705723E634DF38298299BEACC3822AA0065995B425B424257FA2F5B13C1C397F164522A5588D0DACDA1FC3E90575E6E6102381AC9928B6EB88AD46EF90D1F193E666700179A557CAE222EDA1B910DEB086B4755B9133633D2F
311
FB969F2F7D2C12CD52F8B0C4D6EC455213FE6ADF8CBFA2ADB3FE67B4CDE141D2EF5045EAB314C5E710E29E66223F00504B0304140006080800F678444D6E56381606010000B201000008000000636F72652E786D6C8D504B6EC32010BD0A9A3D36D824A11126B2A2E4045D75470D71516CB00C8EDADB1762576A775D0D7AF3
311
7E8C387D8E037A983958EF1AA00501645CE7B5757D034BBC610EE824C5EC7DFC4503E4D4681AC83048D1CF7E9936A8F32E1A9751E7B5D94015828980BA213D1A08DD871955A1969818E15E4CAABBABDE14B4587952443BFE48BBD9A86834C88A508E29C184BDD2DD911C8E8CBD893233A55816ABB728AB53BABD59338364FC
311
B26B2B5AE1FDF55C63C6F905B76C5F63DE1ECEA4DDBD5C3925A2CC6229429CD39F3793D433A2A01E395794EB4A8A77EF878D904A69E4DDF0053239E4C59FD2CBA4FF51DABA58579BE1AA0820692AF45CA4E07CC1349EE74D335F5B7E03504B01021400140006080800F678444D479B93223F010000A80100004F0000000000
311
00000000000000000000000045314531333333332D383736442D343633362D383538322D4233334334304338344244432F4173736574446174612F446566696E6974696F6E4974657261746F7250726F706572746965732E62696E504B01021400140006080800F678444D8241762A09010000300200004500000000000000
311
000000000000AC01000045314531333333332D383736442D343633362D383538322D4233334334304338344244432F4173736574446174612F496E7374616E636550726F706572746965732E62696E504B01021400140006080800F678444D88E57597CD3F0000904100006B00000000000000000000000000180300004531
311
4531333333332D383736442D343633362D383538322D4233334334304338344244432F5265736F75726365732F44453738303532392D304138372D344636432D413139382D4633444443314644323442422F7468756D626E61696C2F302F67656E657269635F706E67504B01021400140006080800F678444D28BB58AF8001
311
00009E0500003D000000000000000000000000006E43000045314531333333332D383736442D343633362D383538322D4233334334304338344244432F536368656D61732F436F6D6D6F6E536368656D612E786D6C504B01021400140006080800F678444DE336299B9F040000341300003E00000000000000000000000000
311
4945000045314531333333332D383736442D343633362D383538322D4233334334304338344244432F536368656D61732F47656E65726963536368656D612E786D6C504B01021400140006080800F678444D8DFFFC99640100009B0300004500000000000000000000000000444A000045314531333333332D383736442D34
311
3633362D383538322D4233334334304338344244432F536368656D61732F52656E6465724D6174657269616C536368656D612E786D6C504B01021400140006080800F678444DE0978ADE510000005700000047000000000000000000000000000B4C000045314531333333332D383736442D343633362D383538322D423333
311
4334304338344244432F4173736574446174612F41737365745461626C654F66436F6E74656E74732E62696E504B01021400140006080800F678444DC55C663656000000680000004500000000000000000000000000C14C000045314531333333332D383736442D343633362D383538322D4233334334304338344244432F
311
4173736574446174612F53747265616D56657273696F6E5461626C652E696E66504B01021400140006080800F678444D5FB6128A37010000A204000036000000000000000000000000007A4D000045314531333333332D383736442D343633362D383538322D4233334334304338344244432F4173736574446174612F636E
311
782E786D6C504B01021400140006080800F678444DAD067228E7000000600100006700000000000000000000000000054F000045314531333333332D383736442D343633362D383538322D4233334334304338344244432F5265736F75726365732F44453738303532392D304138372D344636432D413139382D4633444443
311
314644323442422F7468756D626E61696C2F302F636E782E786D6C504B01021400140006080800F678444DA233C2345D0000008000000065000000000000000000000000007150000045314531333333332D383736442D343633362D383538322D4233334334304338344244432F5265736F75726365732F44453738303532
311
392D304138372D344636432D413139382D4633444443314644323442422F7468756D626E61696C2F636E782E786D6C504B01021400140006080800F678444DBE89762363000000880000005B000000000000000000000000005151000045314531333333332D383736442D343633362D383538322D42333343343043383442
311
44432F5265736F75726365732F44453738303532392D304138372D344636432D413139382D4633444443314644323442422F636E782E786D6C504B01021400140006080800F678444D42922B407F000000A300000036000000000000000000000000002D52000045314531333333332D383736442D343633362D383538322D
311
4233334334304338344244432F5265736F75726365732F636E782E786D6C504B01021400140006080800F678444DCFC45DD50B0100005503000034000000000000000000000000000053000045314531333333332D383736442D343633362D383538322D4233334334304338344244432F536368656D61732F636E782E786D
311
6C504B01021400140006080800F678444DE3603EBE7A000000C20000002C000000000000000000000000005D54000045314531333333332D383736442D343633362D383538322D4233334334304338344244432F636E782E786D6C504B01021400140006080800F678444D656980A77D000000A30000000700000000000000
311
00000000000021550000636E782E786D6C504B01021400140006080800F678444DCA1DF9C9A9000000730100001300000000000000000000000000C35500005B436F6E74656E745F54797065735D2E786D6C504B01021400140006080800F678444D3DEE336E64000000790000001B000000000000000000000000009D5600
311
006175746F6465736B2D64657369676E2D7061636B6167652E786D6C504B01021400140006080800F678444DFDBDA114F90000009601000037000000000000000000000000003A57000045314531333333332D383736442D343633362D383538322D4233334334304338344244432F4173736574446174612F636F72652E78
311
6D6C504B01021400140006080800F678444DEAD49DC4F30000008E01000068000000000000000000000000008858000045314531333333332D383736442D343633362D383538322D4233334334304338344244432F5265736F75726365732F44453738303532392D304138372D344636432D413139382D4633444443314644
311
323442422F7468756D626E61696C2F302F636F72652E786D6C504B01021400140006080800F678444D9D739016FA000000960100006600000000000000000000000000015A000045314531333333332D383736442D343633362D383538322D4233334334304338344244432F5265736F75726365732F44453738303532392D
311
304138372D344636432D413139382D4633444443314644323442422F7468756D626E61696C2F636F72652E786D6C504B01021400140006080800F678444D6BAE08710E010000B10100005C000000000000000000000000007F5B000045314531333333332D383736442D343633362D383538322D4233334334304338344244
311
432F5265736F75726365732F44453738303532392D304138372D344636432D413139382D4633444443314644323442422F636F72652E786D6C504B01021400140006080800F678444D69E1C649FA000000960100003700000000000000000000000000075D000045314531333333332D383736442D343633362D383538322D
311
4233334334304338344244432F5265736F75726365732F636F72652E786D6C504B01021400140006080800F678444D32D25917F7000000940100003500000000000000000000000000565E000045314531333333332D383736442D343633362D383538322D4233334334304338344244432F536368656D61732F636F72652E
311
786D6C504B01021400140006080800F678444D6947595101010000D80100002D00000000000000000000000000A05F000045314531333333332D383736442D343633362D383538322D4233334334304338344244432F636F72652E786D6C504B01021400140006080800F678444D6E56381606010000B20100000800000000
311
000000000000000000EC600000636F72652E786D6C504B0506000000001A001A00210B0000186200000000
310
504B0304140006080800F678444D000000000000000000000000370000006662782F44333245393844422D414332372D343137412D383339412D3042464336443036384433452F617474726962757465732E62696E504B0304140006080800F678444D000000000000000000000000350000006662782F4433324539384442
310
2D414332372D343137412D383339412D3042464336443036384433452F76657274696365732E62696E504B0304140006080800F678444DF270F1330600000004000000360000006662782F44333245393844422D414332372D343137412D383339412D3042464336443036384433452F747269616E676C65732E62696E6366
310
60600000504B0304140006080800F678444D88E57597CD3F000090410000420000006662782F44333245393844422D414332372D343137412D383339412D3042464336443036384433452F7265736F75726365732F322F305F67656E657269632E706E67355B773CD4FF1FBF73E71C0E67EF7576C9DEF3EC995D46C6A1EC50
310
46649CBDF79E192942562825CE965D8A868C2842C8DE9FDFD1F7E7F138F7078FCF6B3F5FCFD7EBFDFEC41B196891913091804020321D6D7513FC77D8C5070EC3FFEE51B21F068154CC75D455CC028A3EA68992803810109FDDE5D5CEC5521B28A1B422BF80741695D5B529DA1C2D058AD2388BDA9F476F7C2CADC939304173
310
DBF48A452BF8A700C0C70C3D121C1AA15A5270C22E2B9E28763651F7DA0D12CE11077B2ECD0D560B5E3DE2368B1E65C5E1C87384A4CC5F2D9FB8BE39E9B77C753783A37998F5CEF1B4FEE553463245C9712270880DF339E0B882A6BA713D865F6F384C842D440934EF264F4A304F8DE4EEFA1E2BF5E2D91F5ADD9613D6E31D
310
DB33ED31DB1D7916CAF091286EA3D31B9CFECB78BB0060245B943C4C040119FF780A74DD308BA9D028678674EB5504ECF284EE814DAED07440BAF649BE4B55DA2890F4D73E2D489A59EE54FDB0A85B59F2F52C4858A02705C4815A792B0C4A996A2023ECB195073E115E3E3647F64243A8338F2000BCB58DA5692C7E7C3D41
310
3F963FEDF3CF00FBB0F831A9D51360FECA43819F527B89FA260EB63C5DA676830AA3626A3693B23F1A17A0DFFCE3EE164E31B5365EDF0C89EF64D8E38AB0BA9A1117D7C3A0EC44F44F4023095E80BA610DE336D0F99593A88BFC5306E72DF98F7FD132ED95878DF2964EA7E43071359FD83B2BDF9C6B5BDF768F0F3C0FC351
310
199526F53D9460A34511F75D1B63E488178569472C91A94497807A3FD4A390C6558F26D416365C3656DE6E769DA9D8FC73774E1709812842DD8EF96AED1960F79D21B395CDDFE6F92CB4EB962A4668C76990E2EF29798C8941D67DA50F4A5F947872460F1F6FDB794E8A29FD7AC0C0D6E0714339CE258FB17AE8535221E346
310
4A10F29A0BE5EEECEFC5675926A89F49EB14E5711894F6586DB5754EB4D5DA9C6437EBA57DB97A24F8B8A8DB295FFD73266CF57E82694DF5166DDF93573AFE9C9C5EB05F8FEF8E89E0A8917B0B3724DB7BEBB53252581EFC3E38166BA131A3A5B42FE2AD00A769BBFA4458D2DE7822F8C4F63D0B8E21B285AE13325F3410A4
310
35C648C9D91FDEB109E73CEDA7BC796961AF79175E1A3CE4C5E8B0D009B0C9E29EFD98BC8E97554E3D8D838424E270F7685226E5AC268E021EDE3522D583E8F20C0BDE2959EF5BBFEEDAB32FE9A3ED0E39F211A86AA9DEBFC68182EDED132AB8BB794442D2D7EA9F4D8BFF52BC4D55BB165124EE90A42D101E67BBBB292FFB
310
4F66DE5BF2300E44546757DA7CEF8932BFC9F92A0707953491A55C5A5ACEDABD9FA1AEA01BAC3DC5A24E22E7C47213493996EFBC369D086ED9397C9BA6C7F9855C7BD5E15BFC8C53DB3D2A4C5901A57ACD2FBDF4D1676E95338B2C2BCE65FDA4C64F5FEFDC7D9CA5AA1FCF11E193F2FDABF0F4916BF13FB916A224380E6462
310
A9815F2300DC49CC4DF8D055CEF76462F4B7A7ACA7365C2707891370BC1D0AA6203C44CCAB47084FEC057F27FFCD57F89B8B9852459798A675C66BD7CE572CAF71FF7E6D7ECF7BF62CAB7B3F1107DCD04DC55A3F9961700286141C94A4F771FEB2BCDA2DDEE0CB0BAE402FF1DB0100F8E475DFFFC074DDB4498AB7D186A765
310
4DDB1CB680D703D47CEB4E72F8CB13D86A4AA68116E26387B93FD6738779B34FEDB8E517EDF2BAF28D9BE93A1D3A164320E07D42E514725C29515FF361754213EDE06B079A2E99EB1CA82A02019EADEEB87B9AF005BD04BBCECB14AACD6B24EFBE482194A97DD32400685FF1FEF1544D1B14EFB1E7F08E6D2CD2AF52DE757F
310
35F5E62332EE88EA26417AD5C3E0E319D68F25414E6D672BD4522B278C57D18F0113921C71D96527E091F00CEB15AE23D24667369BD3CEFA10C7549D930890BA4366F4EBC55F01F746109F98ABCDD5A3EE06619C6AD78AB33E48E4C9BD21BF7478B385EC05C4F8987E2C1BFA0A60EBEDAA0AE0B015C2720ECE180FB6F2DEFB
310
EB822D96338C9B63822183BBF52FB664A7AE57003AABCE512BF77E7E31BDA2E739AC4C131657DDFE5225E900FB56CC01CDE808FA4A9C9DA16AC679656BB64796283D89812B8F91136AE18EE5EBBAF47A73BE3C153EB5D4CD491B4BFB4FE690A4CF9ABA08C0D8AA64220C438C96EA6CA80B58FE5761E697B3A292EB9FBDA502
310
FA863E49FE694ADDFFF9D62C520BDD1A22014147A0903A05B9B729F54272EF83931FEEC057BFF8C8055C279EAC5C0011804828734024F6CFA319C9CC6867C727184465CD9BB7ED386AFFD96B294A85E3802FAE47244602D8273615952B98C4F23F7EAE4463D9D638EEE374A20959E0FE519C4CFB0FBFE5DD80C2AA3F9DB961
310
D1BDE57E67C9BB47B77FDD74EE3094F5DBBE3EBC1FBDB7393F5116263009E2EFE1AF9A221B2AE234C902BF70E9F280ED23E73908361565964333A3F01D0B006AF32FB21AA1316744B489D5A198E85299241735BE559675130955C902A8ED761FC0DBE337A9F91919AF5CE32AF902ADF9AB2615E00E8A94586BA1A90839B618
310
32FF1BFB76D2EFADE6DB1BA04CCAD3DA649E7E2A0219F592E22F2AD54847EEA8E42271011E9074F8F3DD9FBA6CDF88FFC9FC7E811AD1CA8F4557CE4AFC7BBEDCF0114A48689F20A584520C74DA8127124B767E2FB91A6B186246727BE63C9445BAE02088D58B8EFDC0F1072407CD9B89A13F6303B4A928F593AD489B58E686
310
9325790ADC406036C591729FE14021F94B7796BB11848D463536A092A26F077F94639F7CEEE2A724C66EC885F4A24F8B8A0AC321F8FD149BA529460FAA34E4663C02D41FDF80BCA222D42F0ABFF8490F4FA74C673807C2051D8E467B47B616072860069A9A303ABA9B319D58404461401B0A0F9BE5E1E151C14BC33B32ABE0
310
3DDE91708DFAEB15E7C0D593C86BB7D7EC17BE56E57975F077BFD5525F3A1A361D584A75E08CF29FC7B44B2B3085014F3A5A14517377C3F6B8F37E59514C3B12F8AACDEDDA4DFC49BE5710101534CD6FB6DE15B50F11A09472AABA727F0C49D9CB906B158030065F48EB3625E010CEC1D511D0053474B11E6A4F01C0D6EF1B
310
ED3A944FDEC70E0DDCDC756C86545910E0DAE3BE3AA9A404574C2995CD5CAF9549226BC94B4F4F0F5F9086F418F6B32346464610D8BC7391D3C3A3CCF04CFC1FB2A3A3170E369511868F14EEA4E5E438CC73DB1F3248AA94B6B2FF33B222FF3D1E7BF146CAD229770158063BCE4F5391964DF62F7E52A7BE0EEA829C9E13C4
310
C147D6F93FE59E111DAB5E4594D6F3CD1AD375EE039930EFE5AF2BB2D41C83C7DABD8C659BAFBE8FAB392CA634F3D15C1D945DB4588D2B0824A4EC928AAC565557CA2F0DAA588CA5BE30B3A8004F7BF005E96CBF891D7F18112A3619FDF530DC8AA64954258E1811789B5189B49B4EB53F5F89F7D37523894F3EB57B373763
310
C91E502F52CC99EB7BDDF933FC324C4FFC2561DFFA7339FAFDD0A4BFBE6D3A8FF9ED1FC49898139864602458968913181918F719CCF5A68B2EE9C1FF050E34E63107003B8120FA982C21B30A874E4F5E4B38D5A8290C4B8D9BE48A0BE31EA995BDC37AC6DE90BA17D259DEF53605D55922FEB1855D915B659FBEB350EE0DFB
310
2F9F766E1C84CC8964B75D08667445EAB966015F63A18A9E0A325C1B3DC628C0D3CB60F767FA93CC65F25458BD23C3B312716E5F40E5858AC06EBA9AB14F95DB99147B832069201541D09A0D856E12C629CF32683760EE855537D1901988D5EBC156676C7DD51D7207CF3267AF1D76C2AD867315E44618015313A98B19941C
310
696FED3461CAA9B5415F918556D7802EDACEFD6B2E45853A9735DFC9DBF7E440F9319F8B6805A973BCCDC76C069A9144E51F187EDCC12FC31B5DEAAF0A76137199B106EC84ADA6B6EE697D4E6A96E007417F4E880E8B1E89B4BCE9D81EF611E2ED8F0C1A6C25F620FAFAAB656A7C42D464880E8AFAB0E0FC8EA38CA9A8AEEA
310
EE3E4648BA4680270A89743CDD3E6C6CBF34B7B640EFA285ABC7EA0A1E28F3CC963D114A80123EE66D0AF7D5380EB41909B605AB4765B709B808590458157E69BA1378FEC4B48CAF6A730E3BE3C5EF2DD1A5EAF94B1DDE50CEB55DDFD7EE9A16747FA4B223359FB1FCC69E1194892BABB93A1D5C4E807AC0EA2E30180811E7
310
7A2291F6E7F7FAA5E0F60215BC6024E48DE436C511F0628B8CA189982D4D83CCA17D305A7E923C37941CFDFDCD93ACAF735EF5F0E61BBD3E6C41A59B242790D3A3BAC7064DCD89AA2E37214EC839820949D5CAA31E240D2948E48F690298974A96BA9A8432BC90F5071D6537C9666EA4564796B7AFFFA548077BEEA75F6308
310
3435074BA182F3699557397F71548383FDA8CA34D99B981E72835ECDA5DDDC151315173D05A21F651AAF8524E88209E2E7A737ED1045800CE3390050BCFB8BE588DF111617874C62575039CA588EEFDEFEFE319B739DE2EDC147092A262611E159650E787917885EF08F1F51B8F2D8A71D60B58B190FEF9541A1BE94BC19FE
310
A50784DA1419FE4B0FB51B8D36B5FF8E1286FD8AF42B91E59A5F1CC4D60174E764045FD8C57B18209B217F89A62252BD20BE0E63E12B8E8F029FE19E0E8D0870F58721A557082250D5424F7909369376E41666C0EE77CD87CB283F661D5FB6D0DA023CB67320A20DC7BE661E9E1BFE5463085C557DA1FF9BE835733766C3D1
310
39F2CF9E2208873AD0EB4814DE9E6BF2CAF81614D4D43906ED1C05A3265CABBFE192770FC2F64F940CB6B17B5F166F133C9AEEAD2641807C3E69515171DD74C4A85311513D6EC9530B3B601B6BA3EBFF3B5C3D2F7D69765141E345F75433953D013ADDF8F6AA7DC3F4A7563FE5C7D367937E2900D7EAD0F9FC9A4A1A9B5BDF
310
1FEF08532660C01C5D6DE22199AA774383E306DAB87E301ABB7D213887F9869D4942D0D71E94B27EDF216A318BD488D45DF84529EF575AF3C3938C0AAA0215B01994153E2054A0B894DA5C784980633AAD48576957CF4AEAEAFADC7C587368551C73DBE1E57C58AC713303A8BFC258BD04B51724459FF9E24C03A81E0E0679
310
CEB9B348C0DC998FEB9C6D6EFA77D247CC8F92D3848599ED89A23218D0636465AD1CEEB7DC140D7426F83491C4E8E8281C2FB35240918FFECE880CA2A42D70E8B20B34DF5221C7DB0CF90ECCB9C745B37A47E9B716FF7A97B7A252C1F3814DC7B1E1A7F72B8751D524EF7CAE45B0C73B3BE7D08ED39781B380DDFC9AA4A474
310
9C9493DB5BAD07A6EA6C092FBD0E85DB004DF06B8C9D3089C5320187E4CE1846158C7EA7DDAE8AD9AFFF21AA3A1026BB06A259845E8232DEE62811A4DA9CEAB3A4887320B76E2AE5615EAB7BDF738CBDD01F1E64064BC13D9EC53576751CA8CACD58B3CEB0E6CA585BD089B2A59B9FC101403387AADBDBE70586B93D64BF3A
310
D4453EF9C3B6A93817E8346991798601344F79A83C51F3D50F7BF2683A3605F51A72449489E0EE6169C749C60B1035651103AEE24D24E51A759C840DD3FC6504DA6FE107510E447B43461C79D22970B75DE5E1BD3007D1AFC619A4A4A69B5626AF5E9B8374E20677F77E2F8E73DF868E8BEC7EBA7B6A75EEF7205E1AB9486C
310
B642741D6E03FF13FCCEDB1C4AC129886268B01CDF4B124AF797CF784F3C6DEC97A17D4B558070A0F1C04DA4FF9BDBF34159AEFE958479824B3F58EBD1E19088A2AFDE501B6F2052368A3FD0E650A179EFAB1561E1D27527077136E652676C3670F42DCB3352F48F6BC86D2C3B0051727E41A0A4DC6CE2BE9D47F5CAA2935A
310
3C0539AF080665997194ABECD723B08129CC5B6B21D2E7D54CD4D12610E7E9FB8306771A89576C7A982002775ED44F3F744CF21EEBB27A631671D921938AAEE3EB0D19CD1E083727F607823E817BF599DCED5394E37EEBC2E88782E638920CA641EF74D4CDFCDEF06F4278ECB18E31E7E9876F2D783C8BF429C75395F57E98
310
C2B495A3DA077EB3AC3C158608B6B57FE3EA48484D9A480096FCEE0DE880950E7E5A5714131C5C41AAA29FD19AE81AC145FA1B9E85C7169A5AB837B213493DF7E9AA4B5FBF9CDEB36EBD21EF1181B7CF7366AB2A951D01E37AF4EB835D1BE8C117CFBE7625D2EBCDB0B20C5A4B45CED0BCDE3EE8DA9DA78C2E21DEAAFFD119
310
7E463C33CC6A80FB785669B856EFF7A8CCCA2841B5A5369173320B1170C368B2748D81062EA0296E5E2D95D7667A4A46D98A6FF475C76AAB0A8C8D45E226FAFC9FE0133EA9F60111F99CA81ACE03A1D14C89E8B0D69079C91464FA1D99E651D0EAF606F345C42A8A1AA9BA391031582B96D5B4176A77AADB01F12FD298A75D
310
EEBB2C82F0B8650E880722F8DDD90C56A7A058E5FDEF1AC93545BA27367C76F5D8F9690CB6F8DAE141EDD7971F0FB548A2AE435F224D6E5954CA155512F7332029D5A1230854B79F258EC5FFDB09F5F6343A8EB193229B7F7E79B3E48F8E183860B38C8269D1B53738FF1E0BACF6AADA6D4869E9DE708E79B5DADCC09B1BC7
310
6F649731CFAF59A83FD8BAE4C749D66FA87A3810D4D62FFE826FA400C0F325D2BC0F3CA35F5847B82A2ACC7961745C823E4D863D54460AF792CE6F79B5C7A33B25C3AEA6CDE15A919B6367D781E9D44F61BF828672594A3E1D9EDD6DF179A81F27EAC05B936575D73E05C209DDD2115CFB705DF9BBF3C911589B3640735E9E
310
618FC9C36A7326C82B2205E244C55D56FDB9D5DC93CE958D4BF8174D2B3DA54CB3C09F2C2A6DFF73D23B2197355761AD421EC581284A7EF8DE2CE3497C0C804D49B41DFD6A7360844E5BEFFB495CFCDB97A4595911CDBA623274CE852B5E278AF0BEB1770E9D37CD977B2766A7DED0E94B840E1E95E8C77DE5CB6354AF7871
310
427C28ADBEEF7BA0A28E19DE9ACD75F379FE373EAE6DDDAE3834692F9C2B03B4FCA8FCA9ABE8EEEBEBB725B88A7C90941E850682CA04061A7DF0CE82ED49BFAFFD42C309818FAE14755CAAE78B0F73243ECCCAD7DF58FCB9CDFAE7A4D3E6671A613639130D056C8383C8F4FCF4808C331E544DD26E4755D09EA05253B3049A
310
1E32587CC25D72E073E2CD96D04A71BBCB0038FEC3F53D254199C3CDC67CD66640269431860225392B2CB3ECD0B4498AAE78BA1994246AE1EE78F2EDFB79F6C6CB6B5E279C4D373FBC21CB2698C9ACBBEB6A4BB6B39E16AB0E421CCBFC7654D81ED86022F9BB522146F9F4772E2D0E4FA70120C95A85A417BF5078B232F475
310
4363EB1750B2AC2148EB46B1EA72AD9B4D23ADCBC589D70106C3EC2ABEEED84DFE28E718C6C83502C28E9FDD3B09DA0A6F6F7B72B706A31C9E2A331EE70DA56A083D2177BFD63C55B11D8D949FAFCF90B23A1E24B9B5018B9A17E99F2890EC302F330FE7936E2C23F0D237EC8916F5166AB84B62A21BB0B950146962D754F9
310
2CC2C8877BED8FC7B7B25726DD19545392570B3A2C66B58F027BEF412E552D12A588C4A3CC5C3193FCB3485EFFF700D0B9EEC077754A33DC1FB9E25AF814628F91DDFECB667D3F7690803F38D13F8AE39353523BB08FC6760144AFA2CE28236F65EDBB3D5F59A57D612B99E3D7E5F8A851666BF9B5A6658EFC96EEB37A378A
310
BB0EB3FDDF1303AF32C41BD1C8560745D7BD81066B0D6313359CF488563D3BA3F8E2185D1FAA3EBA1397C9D0E3DD232180A4DCADB6AF25DB3AC3CC26589C8239E66E81547BC7E2F328F9884764CA37EB5DBE390DFC03A5246B456A7C3684C4377D0EEF9A350680FA9A077E8B2957B489E09AB1AD41316944C2254B5984830F
310
691C93CAA767EECF976FA5647538830B5E63236A6F0365C1E0F3E327F24FE35EDDBD7360B0F7374837409F7A6311BECC12B7026D4FA1AE204FA3F5FE904B1F420C7A9044AE58E403E7C4848E7DA25DC9EDAC79DD756FAA26B9EA83ACE8A214A2612A22AFA19DAE7DBAC5F8CDE1292A485F98DAC731A29FE01A3966E96BCB9F
310
B5A4C8830E1B9AF0C54B87FBE221A097036E5D28D1F869F810C06A9BB0AC0612F69AEBAF893C6E7AD59460208BAB3A6B09CA4F6BDDAB8CF0D1F84B72487498395A70DCD754796E271099A567A55CF242BBED64696378BB6CF25EF0FCDB589F3A82F1116D010A9AB9FA4358809EE0C973A2B4229BAA876A70B03AB49CBA7FBE
310
71DB1832FFD32F9BF2C8E98075CACAFB36921235D0F552B6A67E94E094097A5D7DF681B40623DA535ADA7A9AD8E9A62407D7C9A5AE51D62A17A83A23728DE86BB56115804D3F2675F2C6B87541A0FC497BF0CA86420F558C9859EBE9FAD62747E323E3AADC03FDCDDFE7407B09DA90B44E3185723C5381EAEF589765E2F7A0
310
99BA46695BAD60CEF3491B8A171F5F56444F7CE9455312C3498C74173AEA0214EC029833B34B650CBB5A5508D5091665309642791708ECF27CF11DB3D797D6CFE474453BD4BFADB768094B2147814D81C7CBAF8228DCAF5564B5891F5EF6A860EB2E323CB82AB868D8EA048880D63B0DE5341F1B3D53297B928A11E15F25E5
310
148990F710747C3509ED14909C552EBE3973246FCE55D00564D8310BC3EBC5085D08D806799B77D6C57FDF5E55837F9E934F09C03C729271B64F12D0A9F9E938107CAF7BF1EC8CF1BB9B42363D33070F4CACB425E605DDB0A34A12BB936DE286B9887A4E2E558F0886498BFF49C311D96C277CF6A9FC0D75AD0ECC5226D7E0
310
E3572012E56D7FDE4410CEC7A6D0F997F225A2055B8B92E3956E875AE4993CB3D4C9063AF98FD45E1BAB165640A43439A2C9181A7C355B297C0A0CCFFAE19B6FA3C2BA238A885FBC98B8F6DAF4B94B97304878DF4D8BFF6A4AEDF79E90ED4E68F00CD7299F4E0D83E35601AF0CBEF18C1E870E74758FA91F5131075004DB3C
310
FCF09AE1DABC11957FD9808C92E8A678CE9DBE40DDA0E0D1D505AAFBCBA208232BFB6FB3704E8985E61ADE53DE74152F5C7DE74B1DEDCD37DC3E8FB30D7EBA8B9EFFC3606BF90B8D438279CB7709FC7C00D327F41817EEA71CD9E49FE9C8C9A81C70915D9F0F15958EC5AA4C3BBFAF46986B90F188BDB24B89DE3C6F29EC3E
310
6F66D84856EE96A35E657CA41B41EFD8DBFA16AD6E91439EA92B40B21C053249F51AE50EB0B24C770FFAF40DF12C8436366819C48E36547D4E7B72FE2BBF10828583057814A668BDF183F6B2E58DFB151103E56303E63D00F39C27C4661605DB644D19175D02E3F0241E8FC3458D17AAAADB117CE9EEA690D0DB01E634878C
310
04C2C9310B69FCAB831151E3AD293BEF6E46B0ABCECB50F5939B39C613D41E81FAE8D34CAE3C4566B761D37185FE864AC32FCB71AEF39DAA5BAB88609BB980CD2F07A8F941653B529567726E2B2A58D079DD57E1E5E31426CF184A04D7B03B985F276D47406AF276FE32E3328BA866EB1FD39BEF57863A317634AA5FE46740
310
9B3873F5069EF0D71AF00AD189D17BA1974ECDB2D623E9E14086386A6AAB5807825C37B015BFE892AFD154920EC437EB945D958E18622E1E0FE2FA06557CE4BB9BBD05A2D40E774DA2B65473791E314B7D6C886820B2FCFE4AA272B3B8B15E7344A145E8AF919B5454D89D36D413E87211186BF6F645E5EC94DCCE8E1C7990
310
22E4EC9BC86D7A0F2AFB1FC4B2CE48F84B3F49ECE65BAD24CADCC07EFF39AB06BE9E6B27A059938EA7208838455383DDBCFCD967DDE4650EF92A14FF933C975DB20BD7FEEBC4487576485963D757D16340D9599FEB362F775F38CA4185A86F74B629C81B133644A3B18FD056E997E0734F9BE26D11C0AAFC669E2AC9FC41D2
310
81F8B2E1C35AE27BCE05F3DA295488096688719D974DF1B5D182DB7792288697F8763CFB43562C1CDEE11C4AABD5C22B6E33F6F389CFC3477C5919DC0D533F8A7A1846B7ADB60ABDC26C43D0CFC8910B7C15EE22675BD02702ED39DB77A87A192CA7A543E6205B979B9F5A6B512A3CA799E198B2D5797C0AF8D1D872CA455D
310
4D431A7879D4DD76110B5FF7F4176B54477A9EB5E4A5D11214FDA585F0382751D8E2582BA5D2075053298FEB8F1537304E32CB22C2E2B693DC0A760B1DFCA751BDC445AFDCBB12820ED85F6D5298933C7EF1211E9E057684056CDA3FEF3BB6052355E162DF27C59E965A8DDB7F9437EB72CDDA3A090DE65A5B2F50326247B7
310
EC67B73ACC7047FC9B353D6EE990F772207C6EC52B39DC2F3C0754821DAB559F7C1809C7D0DD5B0499D0442E0A6E391B3D5DB46D11E731E6794EC77523FBDAA242ED67F9FA1FB684255671F63C9BCFE6E7E896D51001A6113EF2298BA494E0B0980D1FA5B9D60796554C02256B1E0345FB7C6186B6A19D2DCA270416262845
310
FA4F42DB5D9B0A0B6F07FCA2E56C242522E001E0CEB734AF310FC8BFB57E38E03AACE93B3326A2197891E68452B26A6307FDABFEE0223D3C03C3C73D2D5BC054C8311F12004CAE488E5C29287F8156A2CAA4AD0D7BE6B97264E4139F437CE73ADF52E5134C52B819777C18B323A5924E4F67AFD13B1CDC3A61793A79FAF5C0
310
CEB718E441071E797C6DCCB9EFCF7E4A1E9F3DF3C2F9C9E8294E9586868788C972857FB0556D7A26941A7EEB9B580AD78EC40B85DC906B4120A563CA3B87797ED612D3B035962BB75F6515A393F4CB057F564CDF54F2E5A024514E6A1F901DB80C7E70B1FC05E356A7E72FABF4775B3E3FB8F70A2A8E7B6A94542BB3041579
310
78CCC999E707A29CC795E67A59CC546A5D47B368954CA7B6E75EC9E1F6FC73CE3B4F71F8CB1A6B15923D61EAAEB14626AAA9D04A26EB9C66CD1BE86CA31A5D8703DE04CD1EBCE4F5CCB62F93909AD11E55799A781A956ED27D3E738F4538CB04ADABC7DAEF20BC35BA6A90BCC1DC61BA05F20D8832FFB9BC9B15E2DB838A0A
310
FBB7E0C82A562127E0446894F427794C3037186F622BF24DE1B00AA10A23BFA47B2A180D6DA5AD6F7326FEB8C100C2D7142EB2A0B2A9D1008A09BA343D70E054AB69E2A7EDB783CBD92537FAF4A44D1296AC2792729104B3276C276C951D0CF3CF3F1E6B017720A7B8505A5FF9589365979678C36F1BAF759EAF57C60F1FF5
310
FE9DCF5F8E764FF25A2D06CF25117A8FED51884C13B2B750DB0E4F5E3D64124FCF11F0AD8F1CC3B3DA4B38ED22BF1CB2585EE6BFEBBA63FBFD44F9537B9B37BDD6B358720F98A8125AED4349CCFEB0E135F19E208A04CA7E2B10711185D72E381F448036EF57C9F874E54A971CA37A639E986AC0226DC5AA00D5B14FEA9192
310
234B3DE617814FC221C92F33F1D392F297731B567FD98FD91D989379AF567A65B8ADF177591DB90FBEA99BF4ED11B16E50A0AB1DBF1156D034BBE04D69D08F939D8E92BF525A1DDAFF80ECBC95D8F45D3FDD289FD23F7D8B452F8EBB34EC082DEEE68E18EDDF072060FAD2AB1504DD4879BF67099FC58F6E9DEFBF645D1633
310
4A3E9A127C6F1AF6132CF287E433B43A0EE93812B4AA0B194E03EE3FF91EF9C6ED0074A2F6EB18A96A7C9890B1FCDA1F2095E944DB911ED54C60DF16FB74C8CE9BDC7C54C4F14078CF73C2FFF1F1BBCCD7CF64F71407EA1683DBC410D226627F66E509060D5C0AFD611DE681D509DB8DD12FB1265B03C6F5C55FF4C30BD941
310
87FF692B4F152982502F193098A789526A038AB529A52BC0DC4FB6285CBAC10A8B8DB75DCD9BDABBB221E27D1F8DA9F5EE5926A1C8AA9BA9BC09239C6A7F12914EA3B59EFF7AAEC3FFCCE56F1C5C2980AD072793527565E774F4631DB178CEEC691B1F367BEA0CF2907E1D6B854D527065979DDEF002D8B2ACEA7CE21AE297
310
737EDE1D45B31233B73FEA35BCFDD0B09721FDBAF6432681F2FD10C3E9EFB246FD6E854B344ACC9D8A0EEF876A7314B49B6A499FC650B099D650DBFEC7638ADFD245E2B7839DA5AC5F7D5623FC0ECEEC8653FC9B2BDD1AD4D00A566FBA7186DD3C9CD26512551637498CADB950FEC71ADB9A5524285DE328B8EC7EC75D2345
310
AEC6A27C42AF6D9B92155315C80DBFCABBB7DA0FAE425C4FB896B15C9BFAC4FE67DF5A23D30C93DA4D8F36FB15D100050DA6062E22AEC5F4DAC4F6FEEF97AE05DE63C6D38F9E068A20BC5E3B6BCD75320C5090924E7F93640A7735B1A43451C2D91EE62C6238B797349E59890AF3A520DF4A87095F3ABEC2E61F0593416CE4
310
6CDCBE0E00E2523FCCD04408588B5B6C9DB6459C786CE378770B54F51DA3A5E1DF2A3349BEAAC234A6CF8993B598B3B25B4B113E353A4D750FA7534749430F3EBF2512E7EA3FD43C6AB9A1F765A58463B306721A15D224FAFE8C6F5E3432D57EE697DA0DD5A9D4866A8BCCAAA9DFF1F06047851408FEC060471D0E3EB86BFA
310
F46E4B5E60311DC3E3CEA147C75CF971BE74689507154FF2D2E92F15CDB2B9182B11459FD8ACAC5A85F174BC94A7F4EE4C4F5CAFA7C02E37BF0BC77B7DCD0C047BC316F562A01A441AFA7931CC84A28CB9F4AA367EB515778F29BFE61195FA671F4352E5E46E3A64773F1F76EE5EB36D7BCE9BCEAD837A4D77F8DB8C92AEEF
310
6711920D7C7D0F76B0FD0EB7AB83724CD35BCA7D36DDDF5FBB7FF6F04A91F3E2BB3B8F1A43CD659639507FF6331C5F697BCC782AE57D757A27D97F1AB9E0AEDB43F92F1B2AACDF5FEC8ADBAF9F814E2027003BA2F9E144B1938A7A04050AE5D953B82C45619165C813A10E76DD6906B3C16438064D14CDA713AEC420034613
310
E1AC7241904A49FBF87409AFB1FCB9B72FE7933A87D8FBEDACECE4EDCF6A4FE9FB94D5DEB74FAB7CFEAE17EE965DF980DCCA2D04134994F9A2E94D2265DA4FE6AA7B7AC15FACAC2B5ABBCD7DFF542C5314FDAB2E1B9D8B65220B8E2B638BE008E8DCA22678C820C5053664D15E89F2D735B51A84955E81A443545E9FF787BE
310
0FA700A76D136C27DA179A7C6E8939E01BE756E19CB292798063D8B97F44E8A27BCF3A614FEB8BE974A718E86F7EC99B53CA35FA24F61F2B07266684623A3D4CF073E511F3A10A8FDAFAF0078C577F4DF9D339FE7862E5FA47CF4344209E5BF76D783B1B48E152AD281B15FCB934DCDA49CEC5706B1EE8B460F435324A5CAD
310
154725E21AB8044B75A557A79F6C807B9340AA3D92503E866F4274412926C8C504E4D5EF8C0E68DD0B028781A6B4054F11CF18941F101C57CCC796773ABC8DED9CD91FE5788806C05E548895354AEAC96546D55B0E94A59F148D061F42AA398D822CDECA4CDE79E13469BDCC44FDC990F366BA5978C15F97ED80CBFD73B0CD
310
9B8B83A4F6845BDFBFAF034019473FB9A63BD55D3A4A7284757071574029A4D016DCCBE95DD679EF3C4880BF169422F8C89B68A988D2B13793CAED4F74DE7486C72DC94DF46B8E93D8E02EFCB1FF9B3BA10C8AE7F653DF94F4AF466CDDCEF5776687F7C4C14B63E4EED1719DC2EC482D7DBCC7AE518CDE3D5FF86D39000EC3
310
673C0044E1D308BF05F74D1B5F033A7D1BE7F74BC55BBE3E4A20F920946CA0271EB17BD2B80E5660ACB8A29A79F5E4BBA49D4D945B6EEF4A7EFEAA65E5555BBB57A7E15D2F83C69F30BBB978D2B39F1F26FC097424D39BB33CA3D87ABF64E307938B685BAD44F71556A30B7E712CA4FE600613C3E554B69ADE949A7CFE214D
310
F1FFF05CB82151EC6FC31950239F94CF7AD39DC473F6EA356E5EC2C4EFA04383CEFE985A127484366FBEE3C0EC4FEA363E4F6632AE781392FD45D67B63FB8DF70E82734F431FD3443172A0E30A83D60982D55FA6A2CF86DBA8382502ACC6CDEF3B907982EED1160E14863FA242F9757347E1544275CCDCF71ECD5F8621CBEA
310
326B8BA884AD7F825781923E66971F04010D574C541D8427A438A37EEF8AF88240EED7362C953F5A81DE2D56109CDE2524EA0F5D2F87308C0C47BD97AD605878AB8589E17CA83930CB5E0DCCD75853D68B1AB136594926DE426C367428E9334AFAFF90ECE221BB5DC9E5BB53D2CDEF954EAA9CD814F0E5725F1965DD458E5F
310
8487683AD86B9D0076BE3EE91EB1CECC5331A67A3F79D8B27587C12EC2A6A70474749F27B4C0BBAFB94B34189E88DC18964BE4121B9137FD516C7755356E50D6714E31ACD222621EBBCD1CFF81D87479056A9DA0E0B8EA19D24CF937DA89F78E8650CCBDC110AAB6C4E46DCBFD0446BA9E2060E81F314AC2031E88135E5476
310
AC0160EF5C0DD2EEF1B8B5CB2D198BE9A554A9093B5F7D7E4B5407DDFCA1D9C152FD97F55BFFFDFE802954DFEC8995B983E28AC92F1971E28F531DC407A1280EB125F64A72E617EFB27DFBCEDCDA2D6F2BDADA36873EE46B9BE1782998C63DA7182BC383FB6FD15DA472B175D7E8B4FC88F38D6E07FEAA3FA3CBB8F6B449EC
310
F14D2175E5C5CCA3A42ABF24CA6C9395AF74535F4DDB38CB84F56614B0FD32D7E19CA5CF988DB4449C40E23DF2B16772594554579094450F56F253CD25EA7F77366FB1CFE79696C428BB64D5A41E986189427E5E4D7E2DAE3D5BB4972B3DC44EAABDDDD63A2264ECFA5C786EB0EE1FDC5BE34FA0F08376869FD1E61EA06CAE
310
15191135445EE8F0394161C3266A596AA035572BB0C8876180D8B9C77D307DF9DCDF7365ABDA6F3A2366436457A4DFC1F259666569A9E4A79C817BDD5610E5200FCE894A358EC72858D50EF67545DA81C6FACE3D457BAF70367E1E6BDD9A952FB4F56247F58F523B97E640246051A72F79BE42FFA0B3187F63097F91C48B86
310
8586F714B0EBD5A00A8412C1236E1298F60C72BE6C96B82B404CADAA304AE9F303176B14BA53FBC2D5E86377E35542019E24D97B96A49B2C0E5006E7795954DEAF5DA58958839043C6C70BD3B1B33B6DC5C31316D8A6923F142E26F6711A2258AF977DDF1F970ECC4F1F2B434B96D81BEB6E89BF3BBB3C7C8CC80505070723
310
D6D7D7D3C8CA27CA164A26024FED94B12A86031867241DA53D929636DA600F050BC40CE48B8BA03D69224720DEE2ED2127390BDF5E6EA64527BBD4C4C63FA76BB801FEEC0E61218EC98A8A86CD8313781617877E66692839B9468CF4DB8E50A73986E558E309C0D6F676F921BE02F1185454DC75B111572FF9D27D85EA14C0
310
5AD7271225B391C4275659CA4A43759D0BA44639BE4C30A84DB7F67A41399FB95CBF923B1B1672ABC807C1590557FB18D811983FA97F5E609516D62281D38B1281F68FC75528C35E4CD7DF0F7DBB5E5DD69C414EBEA2F4A5B241B996BA77AE6C772E367408C633EA3E438B68563EA8BE7667F3A4C4FDEEA52ABD78A2820F44
310
3B7914A15F180018D231E64519C56A12F6CA7C8DAE18F06F6B769DBF92329EF6A5D18FBCE600F36BD8E8198DE5CDAA96181F3A756EBA5501CEE58F497EA4F418A2B82565B9BCC611713C0B708CCA1F398B78C5F7D03B3437CC18F13061F55C7BEDADD5ACB1DB0E36D3CE47FF6EA1A563A57E9649EA5D14D1A50EAA45746338
310
1C073777EF1600607BAF6428A7DDC079D47A204EF1E1F1F0589FB054D45E02CE623B3823C317C601E589E22B1E88B448524B86A82828E32345EC18AE17214B42F8C41C6D428016D9BA31DDCB47572561E5A402E5BA4FCE55F78AF7268524AA04130F3A20BA5D1E9F9948EA48FC8F5314FDB35E21898198060034ACE5E3E2BB
310
CA34092518F275190AF65F45867FF0900AA4B81F25427414C372BF51DC29AA855C5428EE1EEDD6B849AD60F6E73475C2D2523F8A2772C840A478DED18A8C5C91B085F255DC4F54EA7AA8947354FD17ECF8FB3B4A0DE7B483CAF3A1165EE05BBA413E5C1FEF3DE1D6B8F2F3F3251C17D9FCAB48A9AAF63AC773A0E413BBC46A
310
9ADF84A566FC920E4D8C52C9769EE3301CADEEEDD92B312E02E2A7E35B7F1E7D203FE5A7D75578B06E99D0E46FFADB8FDA17ED8880390DA29094202D6F645F76F6F96409CDA05495A96E84B04A00D1A6C6C81D7F3DE9376E828CCF144EE50E364ACCE7237EA0BFB5607ED1AC3CFE73794E5B61739D14DF1743441B1AC98F00
310
ECEDE9E7301FA29755FBEFA68C91EF2B314CF510537EF1ABFC9A762496280B546F5EDAAF8A5B387D469FC9A878A92828C88608453ACEC6094DCA54111E7AD5B2663DFE2DD151B7F123B9F4FEF8EE36AB125FD7AD52A59B1B765B3E3F73E3F73DEA93875004D2AFFE3CDE9493B87A9904DD052028949041A91DC0E1BA47BA71
310
4343FD5B25E0A6A09503AFC17C790058A836A324FE31D7893512E28230332F153181C1E018E1124EBE1BA262AA428A518237D1EA7275E48C5C561BD19ED6912EDD8367DA0F31E40EEAE9683DA9257525AEA7B632B97119E17145A90231768A4F3B9120FF32E8319B015E3CBE26F1A754177D8185345817C096B0CE443A955D
310
13AC15E1FB5DEEA0239EC32A3C92241A237B0B02FFCB4F93CF2B02570C8D192E2F2A68CEEB42F12E6F8CEEFF46C251E22B4341C56FB08CCE550E7A9D6F4D6564B9EA52A83D5BF2C6E03FA19D2775E15A8A7ACF30A13C259EE7F5EF2AC3BA354F1500E1A07FC63FB4686E2F12EC69719F9ECF5FE3F35598DF2CE944008CE78F
310
0911BA5BE5D0A34E0098FF038669C26030BA9B300303039852A8F6F496341737CA7E0D2E3AAA36DE0A70AA7D9CA0D54D9AD84B18A44C9E625475E1C97B93BEBB38DCE7D227E67A2D00F531436136355F243D1FC0D712C5765754FA22FCFFAE97919161F46D6E61ACB37D83777B385889770B50765B127768443A5C4D3A4E35
310
A3151111F146B7CA116F918A049F1C272F2CD7976C69A0068773451659A97E0F4A08FE604C3FF6CE7385DB19F4D3ABC8A0D80DA8A42096AC377DB49382B36E270B6FA7570188B4B7D1DDDDA82ACA487CCA5D38BD3BD039ADBAFA4ACFF27809239B722081E2EB9F145320553D183F28471C388BC8814E5045676767AB58A8E7
310
2D1CED2CA731379515D2E533E4CF0B39DFC625F97AC4836831A4DE330E87A8126FA17EBE583D614E71E22A8DBF2825599743E0640037303E8E1B1E8EA4E1ABFA4F62907B5E4E0E5DCFDAB417C36C6848A2B8D15F1E505434C0707E16B1CFC2A1C36A42BBF55734F8F4301DDC2A5110CEE8C0747F69519265012A2174BF4E95
310
5ECD4FDE095A3ABC70536B7AD0B9D7892F81287D667C108703C9B66A221E9A0929D030008F77FF6F5D2108EF5706FC87A3069B976F7C9FC3239D13D283CDEA83597461079FEEE049B0F392889898B7D87D31F8D60ED7B56B91823A8E4EDDB36C6172ECEE42BD42B12CD67994FA0F0DFAE9389356F4CD4425A4B8AA55CBF7EC
310
D585C6A2C2316791E43D5C06841ADBB226A87FD61515FFBB0167B74E56BD7F3E90A57A97FEDCBDF483A0D6699A8C0849CAEB4947FAA90D8E332D9DEBD9F4738C37DA0CAF9CF3DAA68BCB67C420459C7A64498D6E848E5CADE92BB6901F607AA331104A67F7CD650EE169B1DAE94D2C31C2F993632259B6957E246EFE4C5481
310
107B07118607700040E5812A2A2A38DA0076875258C753F60E0F2662C748EDD5F3F3686B8FC3BD6FE631ECCAA1E8B1C1E565AD117E54893E79F4672E32F9E46B2A183DFDCF3EECB4D4D077DBEA0DA254D256045109670050129E9B9B1A9E4A11344D61497A992778095151510C4BB7EF2009B63AA4360635312E4CF668B7E0
310
D3D85A8688E2BD83B569439892ADB63461930D428E0DE42E4AC57CE48DA5CC1449530D8BD3D6A0F08DF20C8E8F570F2CFFFCEA286E30969B4654D498A58D9DA782E19FE3F002181838925592C4A1EF0B332D88B61A92C644547BED490D3A42CFFAB70E36D961F694F6307F72FF15A1C79D5B1B5CEFD353D9E2B52566DEC8F8
310
F09CB3E8359C0F68EBBB7898243E34E12A015B2685AB303C04D3A9E00671FF3DFF0A184E4A2ABEB2B666AF5B3A209C73D8EF29DCDB069C9F391EEE9DD0F74C7BCDE16F8F02E3B8816122BBEB50665775B600549D8BB33A54A6BF940C028118BC6878C79958D6784F9DEAA6E26748386FFAF8D0D0101E2847B6563F5D8DC1D7
310
8F787BE00E2C941AE12148D4A81599FE8F68D4DA5CDED75530ADE138240300EE13B0FC13A1687FED6774662C05A2B7DFB186732F0D7A93545D8B0A6390AE5054D9CB582DA846D7A061B3358B45E2B52DDE63E114397EDB7E09233A579155D795BE76102CF277F4DF8B188C4F2879BEAE3C08347124BF9ED23B128259FE107D
310
31E34A652F090B30B39E0D9AF917B76A2806135621A8A60681F16AF216514BBD02711585B5B1AE823F4B2D0369EA5B6BCB863072727FFC871CA6C9AB79A814D989057E9470A3D238BC87CBB4A0EA49AFE2B86F22E499793CAA9047080450166BDC357524561E258C77CB697F1ABB32562CF87C3B7AA12F911EF19FB3E5C022
310
22E887D08202A60A17151F5E053A86B437771088B4FEE14D652C43E8D939995D34545E12E2FF93D4E366EAD25F10CB7DED141563C3D0C447AF06078A91135FD4B9611583CB4BF3BD167F2399CEAB0E0100F8FFC305F00F1711717173138B4B48C83022295DE657EFEDD97F238ECA80F528AFB4F8D67AD4E2594B9A3AA86D74
310
87EFC313BA95745C186F0CDD84CC12DC9CB0424B42203D351FD9C0A3AF10CC7F388E0329279087386421F194F4A29464C1DEF7EF8BE515E4A199DCD5B909342598D8FE6A231F71336248D5CEC5454455C7BE383B3BC7B260FED27F703FDC39A170F3827239102F59D4DEE7FEF82EAA1A5E4BA94DCC4CC44E7E2EDE20F24244
310
E4454369D2E87C3F823F193FD4FD27E1C23984B01898D15ABC20711A8A558054951A6AE280096BA36CBA439603B7B0B4C45F248C14B2383B4B5CD8ECECE4FF859AD4A6CA2326D020EF090F4041D28DB66E5256B56232CC52829DE8060BAE6BBF37D4B7469B822454FE93210A3E8D15E69FFCF01123222611C51C4FD0A041A0
310
CFA2471CF6BE38D2B20FA4C3525B5B8B586759475CF80ADFE67A284AC24651E52B8E683D24C2622642F27E7C3C22783BCF63648BC398BD6CD0D9C97E7E7E3EACB6126DB7A6C1FD9F1031302EE67ED96F22B77C7CA0239BB324207559B105E4693EB26EC46182A92C9C0DBD24F29B31C5C5AC1F84300E0E17CEEAC15F5736FA
310
4A98971E2F1423BFCD68D4BBD5F86E74B40A369F39507C88FCDB35D2DD8DEBEA4AF999E23CF2816D204200DF6E611781B9884C1AC8888B4DE397320472959434323A5A36B22A8E1F721A270DF3BD65E4A31C11FF048AFB0D8B7B6881423793963A23CFCE935FC189ED36FAE35C46DA3574C979E4394BE52084F3081837BE03
310
3396D2EBD80F1F691B273F660D2B32FA27A33B1DE4ADA5F0FA4651511102DFA410DDA86E065272CA314D5249DF91B06BB92807B28EFD54F08F7B525252782CD276DD02E6B0319B13DF87B1F6361AD6B28FC0D711CF445429B9E5A433CD493051C49A9E03DDB1B147D880253514A5DED88009018620EE229101C041950E2D8A
310
A8E1F5F5438E0C0C0C60EEDEE9E3E0C051948C69F84BB7B2A48A1F3C8EB9E6864687F4F4F6F6E2FA87608ADAF9C5E117B7C1A737E710769DA1D15ECE6A84502AA855398712D5FB51BE92E4EF824969CE18278798AC303C2C7980DD2500ADF8FB1E6D6C2FAAFF9987178923334A244758BAA01A9A1B70FA5097D01E1CC2A58D
310
AD0EC94CE6430AA9B0C10D75E3C6BAC670EFBADEE1607739CE0FC18A2587E3EC3058562014C64219C69BC269082D5C2F4A659278D585755912176D78A1B641719C2A394CED495A1AC5D583FD2F5EDD93308EA7EAE8A6DD396598BDBD3D4CFED62D18A5BDFDE0DD5C80D1A89BA62697B131AE7CE9A6594138582F1B37D68F17
310
49AC7CB67A70695D48A4A056AC1FBD4E82358CEAE38F54B95A9016F9000F9879C0D9D131768635CA798895F27D6F1614F11F2838A83611AA51C9A3DDB539D42979C29F10465655C17BEC3E2760B80DCBF609198C7B171A531905F3EC218D696025975E986C6B4C666666787271F202805577DD5A3EF0CAFAF91B62DC4B2DB4
310
217A7606282F31D8DDBC290593BAA93EA6353AFA9939B877978481E15CFC9F2755CDC00C538F63A4BA3E80AE009B73CA0185687D339A507D165B74290D6EE46D5C58148F020C3668ABE9EF2F7549170DC80DB41FFC1D678FF19AEB10C7133832B104B80F691B3138F97A92D26E551F1F110400D45AC71A9B9AC41A1A1B1DAE
310
ED0B0810638EFFB511D46B121C6FEA0F38CD00E03CFFEB9713FE1F9C263E4DDEC160D0497FA9A132BA608584057FB15380825DE6C7FC3C667EE947D488A09898D8E939C4953BF4EC9836344D2CC6B2971B2A21A572B06096F4982D2CC7232D46E8EA69DC83722E267754D777F97F96D5DA74E1E75178084D0E70F12AD33E5F
310
71EF2AFA599B2BEBF60A5BE475F444F240CBFE8143C334E7ED9150FEEFEF7EB020C4DBED388DD1D6A167A76F3CBF119B578AE8CFA7736ACAFA4440A1C47185638A0D2F3EB5BDDEFDA958FB13CE4AA4923D5BF840392D45544329525749734866684BF7F8D9D54D892E19BCA9F829A0F8BFCBEEA6CFDFC61D74EA1A645ED7A1
310
FF241739F15694BD835B66FEC5677E40FE69BD3F91AE402F036537218A401CB0828604AD189E575015C6F3F6BBC8AC79CF6C70653847254B31551EFCBEB5978B9DB85D58D0FA41A9DFE9C624834AA04949D24B5AE6D299E072D152D12097920F14AA92C31C3B97E28B6C2E6E9C23D63043ECBBC0A60FDF5BD0C33C127EA8A3
310
308B8B6AFFEB28B4455BF6E7AF4FC6222728357EB8E46E85053E6A8843AB23295BF838ABDA94658FEF3F832F147046B4ACD6F7D48E8FCC9618582961C898D1C7A253C91BFECBDA6BA18A1FCF70755DCCEE2222F41B76D23CA98D0CB3D95F0CF66D57FFF65E2A90F5DF40FC3187621E981BD0BC1D992787212688976B94A8F0
310
C6EF646624B570B78E068826F87CE27041A95C9A4871FF65CC17FCB1639629AD6A9517000D63AC231F3D741CB8430777E7ECF80CE7A3F73C0F162F7E56AA71F4DA80A33CD6ACEE78E2C11FAC03DAFCE929B106F8F6B3ED2DC71FF994BD9CEF4E9A94896EF1B6E2B7B4978168BCF0847A3D2A4F1B0500B926E634B174548E9F
310
BAD27153FB5FC36799B1E6C7C38A94E1F9E996796D7B485E635D5287A2AE76FBD11A341DB3F8F810385BB7296391973DC6C37C452A9305AEBBE0CDB6C566DB59FE60C8E94B1FD090354BF51439FFD1B48D725228FFA88C84F686F547107A7A235665A4593B7C34D748C1AC8D56DD5DA861EEFBADDECBBD65117E65851F9035
310
1AEB65F0EFCFF4BCFEF24CB7A5879699FAC437A7AF9099186CF006BB923A59E37D7A36A29FD8D2CBB914A5E9D0A8FD212FBF796AE9A67958FF1D5D8B85F78F96219D4714EB919929241B6C018AAE0C02069F8D919961EC5DDFBFB7573E3AC8E08BFB7C8534BE6DE045B3CD63DBD71F7638BA2309CAE398EA3A7D8F98BBBC7A
310
EB367EFA5CFA27A9F8F2F52FE878058E6209C026453F8E7E8A237DFC389E9590F6059B397CFD65183BBF936E86896612A5B5FEE49DAC8455D026218AFEBEC12B3523A45B57B82C9C97E02ACFA1184DB18E48CF615DBF39C3CC6F0B4AE6BBEEA2E39D944E290302FA3DE33FA7E40296E2EF7BF1CD855BBECFAD0FD622BEE974
310
6FC4FDFDE545AE6E3BC234CADF83A0FB76DFB145BF3828AE3436368AC24989454F8FF70A177672C711CAA1A76107218CF948CA01F873520E7A2B118EBB161ABAD432932029628B6761590C98AB590C8C8C79798CE9F715BA696E839E9131A4BB68BE923F1747FBFF165331FFDD4D05997ACD168F12CA75348DAC04C7F509FE
310
83898A8B421181AF492861CE81E4A2DD0A30850CFA95E05F097FF70F9E777310D584A75BA7018922E271DAB1D785671157685B7D383D3E074DDB4F1E44EF04B07BAAC75A062077C54B9752C738C9D804D402E02851F3F89605AF189738C18C021D2139EAF72513824E10DDD3047BACC8521ED7E98B257D1166903B1B08FA6F
310
918FD7E162913FEC7D0EF4787E29C35FBA8C6E2C9C20E9AB30AE42CA2A01A090E7D010C1B5BF9CEE2A304BF3A987FB40D836979B79E18D70F257DA61E808472DD85B82761825779D6B90CAEB0F23360C6F80A7D7D77545E95B3DFF0CF96A827F9B5BCECD2C9698718417EF80FEEDEE938AFF55859D0D540B7FE09435583A6F
310
04874A0C7E8CF234DF4879722000167F5872CEC6BF3EF7E5A8CC8121E6A359227C8A29C95212F9F735BC72A887D56B8F309FC525BFB4FD767AAEC4AEFF249CFBBD2DE1AB9969A6155C7D8DABC307E47324C1F916C7BCFF40ABA5644E9FFB9238D19ADADA49D9610F01ABBA57E4DFCBDCCBB2B93C8953206C91DE01B0E2651A
310
6D6C31721915B31F7B7CBCE55466F6D70402788FA91D73BE4ADCBA99A35F17D6B83383704917D6833F0FA3CD45C926ADB8BC17999A4A0AFBCE2541F7B8CF4C2F5FBA611B3E626D64407CB32C122DFF4EF8674D6EDBB86C8F7C6A16D50FA685E2CCA34F8F7D1D8265BB0042E9D7F1F666F7BE5FAA5184DF58E12122A42EF02F
310
461B3F369AC746F96528AD208512AB56844CF75B97F352DF7995024FB02855385854F3798670D01CAC771AC3E1889EC25F61A20C1F8CAB46898817F9C47E2CDA1F286BF2F358298709FE567C91133E2638C8B53975E753EA8BFD3578B5F7186B7BF084EBA3F77BAC3132A5779902EC22AF2D2E79F42D324E083386DAEE9810
310
D1B44A5DAA54513C7A71E52A4AB9257D975B621308FE4D2141CC3DCFE946C154A3C1DFCCA7629EC69ACFA831634ADDA93C0388D2A9A2DDAFCF957C6995BCE7FBB6DC4EBAE79E63EB08E9A25F52F67076F7093CA545CA3053B5BF576DEAD4E0017143C5F759F32B2D6F145B52B67B48909B7C7FCA6586EE385A2189C16932CB
310
6DDFD9152AE317C430492A578ED27B72D85D40C7C93C097939E1B50F4D67F05334FE9DC362C30B7FF561B95259138ECFD9274C8D695C31B14D4EAA9F3D7FA8DDF652F8C5DEFA23284C799B7D94416DEE81E05A866302DC70192A5368EA65E1CED8BF107A1E2D3119A71E85DC1A7B0C1E93274CE04DD0F2ABC8AC7C987FDB00
310
2B6F81757B43502EF7A0D92E416494FAEEA4C9C090CD9557AA4D532F4996A272B94355C5A0E4974EEA9627476F30809B94D8D8D860062E02204643BEC7D0438AF800FC7E2B26955D595421E83C69E1A07E0E3122285835F014AD538188CF9737CE76D464A353FA55A001AB2526B84E985083693BC76FE211CA1D000679C889
310
E3C009832C87E1AC2EDD05C302557422DF0800E316FCAC86978A371F025A6C7DAA9F333E7BD160403A1A06EA75AA9888FF01504B0304140006080800F678444D51464CB48900000043010000360000006662782F44333245393844422D414332372D343137412D383339412D3042464336443036384433452F646972656374
310
6F72792E786D6C9D8F310EC2300C45AF127987122606C71DD918B841D4B851A43646695A717C52A85029031293A5A76FBF6FACEF7DA7264E43906840EF0FA03836E242F406C6DCEE4EA06AC22492573150D1F66C60C640E8938CB705396EEDD86DE9B5042FE27813D640EA63BB001C722AF6E55CB61E4863F58284D5D3F53D
310
D715CE1C3985E63FD7F1B7EBDD617E9F1E504B0304140006080800F678444D4167B8B244070000551C0000340000006662782F44333245393844422D414332372D343137412D383339412D3042464336443036384433452F6F626A656374732E786D6CDD59596FDB3810FE2B84F665F741A78FD885E3C2475218DDB4458D2E
310
F64DA065DAE146172829B1F7D7EF90226551916DF5028A758058A6A8E1CC37F768F2F61085E899B08C26F1ADE15A8E81481C245B1AEF6F8D22DF992303BD9DA2094B92BCB6CF40318EC8ADC1978DE964CF9222954B5BB2C345D85CBD9FFF8DB280C4C4404188B3ECD6C8824712610B1779B225D993B5C539B6F6BB83E55AE5
310
469DEC9EE1F4B171548A1989736015D663A0223970F59F20923D9DD87C83B6ADD76D9B77619B2D04D719A57196E33878C555E338EF0C578DE37A6E7F79E70DC6E6A0DFEF99FDA1E79AF3FBF9D2746F7ACE62B8588C677763034D279B24092B05A424DE82168FC6D49DD8FC4E25BE44A18DEF208963124834DB366C89A44B49
310
D6C44403D615A2D51452CA5A5BE87514FECCB64EA0682C69682BE1D477DD7A93CD3F0042D6C54A5946B8956739035D4BEC4B7F702676B9AAE9856628C23961148728A41B86192808B6960AD2C8706FE1A410C74C6851D1ABF30A867DDD97DAB8DC1561C8FDD7980A4FF3C11F499E09CEE8BF849DB8AF9F063C81B4058DF391
310
14363FA640623CB1C56279AFE7C99B25906817E23D580B88C937F5BC065E0B1E0B564B63FAFE7E7358F3F8D07E78CA9294B09C5B9E7066E9774A8335D302E3EB004A89ABAEBB132A9F01FA0F807CC50B9A80E6183DF40F7D253BC371B64B5804DA410E321DF8E7207EF9EA6A62570F4F11D262E5394CC16D7F10A69A18DAD9
310
3548A7936730FA84F5A470EB008760D30F34E67E0E8682C2049620DEEF360763BA82600A8BF0140E417AF89BD8FC12C1574907E24D43436DE1B783A294C334FDECA4AB7760338C0695AA3419CFE13BF821F8CE96EBF7EB82ED70401EA4632FC98EC6348764DACE9006BAE6F25F561F8447CE8F7FE263DD07B55D019CB34F78
310
E068D1CB5AEA0509C5002B3C0F97AA112B0F14DC3D0C714C922293EB6D812A48C284F99BA35FFA70EB597F2923280F9316D01ACC20BB078CA61C14632AD5554542EB84530626869934C17DA9567F5344A98FA3A48879AC7D6D8B4D3E20D0705304AA829AB26CE5B68AEC96EE764506D1AB95E44203523AB4225C9A781F0259
310
1BBF8CEC18862C9AC43E85240CDED27A82764005DE659E3312EE7C1A8645E4EF680889C48F707A867E4709EAA9EB891C5F12B66D25A85B96724A65431C7009AC0249A5AB32E84B9D32F24C799D29129A4A07DA0E59881AD3FE997CC153450BA0CA184BC3BFBB1939036F6C3AB3D18DD9BF1F2ECC993B1E99F7BDE572E1DE2F
310
BDFE7CDEE45385AB7AC20355F23A47F3BFFCB1883631A621DCE062E36DFAE6AD489FB736C4467BD9F3EEC6A3E5DC9C2D3C38DBBD9999A3DE78663AF3FBC570E90C47CBDE9DCD4896142C2099EDD98EAF4C328DF7E7B852DCBD0EA250D75CCF764A5F4D61FEBF41F45D3329684AFC55836815BB5A2AC2AE41943FDA0CA13878
310
E239CA0FA0EC6B759F46106DF2D116E7BE322E3B56CF111FD71D7BCED81B8D07838E614F9CF4DD91AE4D86005ACF22F7931407346F4FA90D643AB2FC55D9C5EAB983121BF5DFF310E0D579B562EA7266924CF934C27BE2EF306F2C5A42E935895BB3DE3E4CB28CC624138DE1AB82B141D3B1A0FED2B3748BD9D2CC8F488EBF
310
C56245A7D1F00288E6A10F2D6CCE870857EB88CA0564D3728E226F9821D50BF98F7E86A3342C9BE36B18B89E8240B5456D16CA99E6473C837DFA38F79D2D11B38E6BD42BF65545D1AAB526F5F137933F038FAA847E223CEA88EEC5963570C7FC338230341CB8BDE14DA58A6B68A9C372DEFC8505B4ABC1D17F2174FFD8A938
310
EDA6955A995716E23989A0F7C579C13A79EC10A289B22D25908C0C0D97A89DF49505A568FA54DB078789AEEF5C495C3B066A571AC370AC9320AFA4683562A10B3108E4F3AEAFF06C85CD55AADF1D317F7A955D77BF484C8CAEE3001576198265FCD1EAF0D64A5DABA1B2179C07104AD7E2DB9C83476CC9F6D4CC69E4DACA7A
310
55D35EABB8573CA44630E6C53CD23EF08BF033065543CB9DD9B2D0B3CBF5154F6D164CB44F7C684CEBB43EBE5B37A8C04AE7A73F718CC84B83825C5DF00EFA02A92FABD3A0A041414AF46575E1F15FA20B510AACCDDE60849C252185493ED9A23D49207FC3A8A24387C2229289BC0CC62B83947A8DD0E1E9E772109BE34DA8
310
9E0E1E314CB343D9BF15014C522167DE1A721DFD06B3533EBE14132DEB095A3719C30C54307A6B80C5E6143A346B033330317114D41B334E706C1CEF79C62F9FAA7E9F1EE3E840543AC955EDE9828B944C7326288553F17201EABEF2C674F2EDA22B7610CEE17253E49530A78593341204F516A1140E46854F12DE03941497
310
E5722DB14783A4D338FFA21D9454CD1CB3BD98C9D7F09E2D3FD97C9CBEFA88D2B0D873755EEA98354A26EFD4C3A29C5C4DC030A49829E655E4E28DFD8925F05E2A42F7148C00FD7E180DFFB01749142571B964CFE4DB2DB47E8477555B5BCD09A1F577DC912D2607F25D80BFC119B1F0367B8205502DA37CA05A42AC194015
310
4D6B06A034C275018F69FB574B24ABA3DA54A51E76393CE245000247E22F80B8DBD437D4A696E00BC095B879BA500B139BC1E47CFA1F504B0304140006080800F678444D0D4B997AE2000000550100003C0000006662782F44333245393844422D414332372D343137412D383339412D3042464336443036384433452F7265
310
736F75726365732F322F636E782E786D6C4D90CD6AC33010845F45087AB42C079786202B2FD1532E419537AA88AC35FA29E9DB7795AAD0D32E331FCBECA8F3630BEC0B52F618173E09C919448BAB8F6EE1B5DC86236767AD1262F9877116CD060B6F32D7CA25AC7B9756B8991A9A1A7CBC77515E1D4448DE5EF7E838B3C1E4
310
BCF06C3F6133C2D4822BE4BB584D3162120932D664814E14BF413F611398022BD707391D87490E727E9F5E4FF2ED34CF17353652AB0FC4D0791F0B24DC5F0ED222AD911249353640AB9A7CA7DA1B64FCC513144F8D646B954BA20E3A56BE77C2FC661C8C4FE4D7D56A6C4FD2783640B315A27F00504B0304140006080800F6
310
78444DFF15A4A45D000000800000003A0000006662782F44333245393844422D414332372D343137412D383339412D3042464336443036384433452F7265736F75726365732F636E782E786D6C4D8B3B0E80201005AF42B6F75B59F0390B113044D83508C6E30BC6C26AF226F3B8BA6360974DA7271430F523308B2B198F9B
310
80925DB700539227A2FCCB80A18E5640D320F996A81C9F32D6E9129A0D1EF74FCE750E6D57BC7165FBCA07504B0304140006080800F678444DDEAE68B64201000056050000300000006662782F44333245393844422D414332372D343137412D383339412D3042464336443036384433452F636E782E786D6CCD94C16A0321
310
10865F65117A5CDD0D290DC135D0439FA087D29BEB4EB626BBBAE8589AB7AFA6266929A13D04929B8C9FF0FF33BFC3571FE350BC83F3DA9A86D4B4220518653B6DFA86045C970B52AC0477D6E2378C14468ED090542682F7CE8629973A58CB30A4EAA0CD361725A2D36D40F0A45083F4BE215EBDC128A90C683BF05BDA4994
310
B4A60EBC0D4E417C8F7A84FC5E3990081D11B3AA5E94755556F3E7FA7E593D2CE7F357CE1229786BED90796D109C9DEE6695B2F168A29C8AB304081E9CCE54F240C4491B6DB5E12CDE0BEEA35ED3670E7753E2A669D04A626C14B30A01CB08811C39FB820567C9F10FDF4F8F2F270DF1D469070AADDB5DAD0DF5B9361CA5D1
310
9888FF75610FFE65DEB69B68F97A733F6B380BBB98DD43727D8CEEEF24C43C49D30FB7F8018ED22E9FFFB85850AB5B347D507621CF6CBF02E3E0D346149F504B0304140006080800F678444D7DC92F437F000000A30000000B0000006662782F636E782E786D6C4D8CD10A832018465F45FE7B37CB51066658B6F788652199
310
0E97638F3F1D5DECEA83C3770EEF3EBB456F1D5EC6BB168A0B01A4DDC3CFC6AD2DC463C10C502778F0FEF8BB0172D3AE5BC818045F838FCF13CD7A99A2CDD41AB79D50D1726C98EAB11CCA1ADF8A5A62461B89497F1F2A452AA6E8988C6B56D2FC7A69735E7C01504B0304140006080800F678444DA6D797065F0000008200
310
000007000000636E782E786D6C4DCB3B0E80201045D1AD90E9FD7516806B51190811670C8A61F982B1B0BAC9C97B72CA7B1037C6D3332918DA1E04D2CAC69353902EDB8C20262D23F3F59B81A079470595414B17391D1F19B4730A5583A7ED43BBE4025D9592775E5ADFFA01504B0304140006080800F678444DECFD112DA8
310
00000026010000130000005B436F6E74656E745F54797065735D2E786D6C7D4F4B0EC22010BD0A61DF525D18634ABB506FE00510A79458060253536F2FD89D5197F3FED3F68B9BD80362B21E25DFD40D6780DADF2C1AC9671AAA3D677DD75E9E0112CB5A4C928F44E12044D22338956A1F003333F8E814E5331A1194BE2B03
310
62DB343BA13D122055543278D79E6050F344ECBC6478EDCD76CE8EABAE5449AE4298AC56946789C28AAFBEABC53F3EAF09A84A1441B91F0101CD4780756578C173A578FFDDBD00504B0304140006080800F678444D3DEE336E64000000790000001B0000006175746F6465736B2D64657369676E2D7061636B6167652E786D
310
6C35CBC10E83200C00D05F21DCA56CA76D41FC96062B120735B69A7DBE268BB7777961F8D5AF396893C2ADB70FE7ADA196782C2DF776D7A97B5933C430F15651E5469C55D70F80A4992A3ADC954792C525AE70A1E4D6AD9816CC044FEFDF01FE3FDE907802504B0304140006080800F678444DB370BD9AF30000008E010000
310
3D0000006662782F44333245393844422D414332372D343137412D383339412D3042464336443036384433452F7265736F75726365732F322F636F72652E786D6C8550CB6EC32010FC156BEFD810D39844984875932FE8A9378489831283C5A3EAE71762576A4F3DED6A76667677F8E96B7E549FDA07E36C0FA4C65069ABDC
310
68ECD4438A57C4A03A09EE9D8BBF68505939EB1E0A0C824FDEA5658394B351DB825A37EA0D9421E808957AE4A687A06E7A96B54C3133C2BD5EA4BACB49D7A45E7982A764C64D6AC6EC66AE467B10B4A3078A873744281D101DBA333A30D622B63FEF2FEDE5D0BE32CA9B22163C9AF967BBF25A463D82D861C210C108D377F2
310
72C4DD91D20FDE14A6E021FAFCF3B6B47C97E9BC59D13F6E6919FF774BC6C676B7B9AD8A0082E4E39E03C19B924E2ECFE8722D498A6F504B0304140006080800F678444DA4881F1BF9000000960100003B0000006662782F44333245393844422D414332372D343137412D383339412D3042464336443036384433452F7265
310
736F75726365732F636F72652E786D6C8550CB6E833010FC15B477030E6E209171A4D2E40B7AEACD321B6225D8C88FAA9F5F3B50A93DF5B4ABD999D9DDE1A7AFF9517CA2F3DA9A1E6859438146D9519BA98718AEA483E224B8B336FCA24161E48C3D6418049F9C8DCB06296B029A8C1A3BE2064AEF3140A11EA9E9C1AB1BCE
310
B294312486BF978B5477396149CB9527788C7ADCA47A4C6EFAAAD181602D3BB07A782394B181B0A13D9343D735A4DB9FF797E672685E3BC6AB2C163CE8F967BB7228038E207635ED08AD49CDDEE9CBB16E8F8C7DF02A3305F7C1A59FB7A5F93B100EBD8D4EA1E7D53AFDE31A97F17FD7A84D68769BEBAAF020683AF23910BC
310
CA29A5F28C30D59CA8F806504B0304140006080800F678444D7DA7F8C4F3000000B1010000310000006662782F44333245393844422D414332372D343137412D383339412D3042464336443036384433452F636F72652E786D6C8D50CB6E833010FC15B477830D3490C8382221FD829E7AB38C43AC041BF951F5F36B072AB5
310
B79CD69A9DF1CC0E3D7ECF8FEC4B5AA78CEE80E41832A98519959E3A08FE8A5AC88E8C5A63FC1F1A649ACFB2830403A3933561D92061B4973AA1DA8C7203B973D243261EF1D181133739F39C071F19EE9E2F5CDCF9247392AF3C46BD9A7FA5C24AEEE508ACC4A44504235C7F90B7036E0E75FD498BC4643404356E566A8CEE
310
EAAAA4053654E565DF0E27D49FCB06D5A4E9515BED7B844FEFE7DD8077ED505D6891C48C3A6FE3CDDB27E9BA57E5ABF05FE6B08C2F6456DA57E566B82A1C3012F33C178C16A9C0389EEDC699CA663F504B0304140006080800F678444DE903F4A054010000DD0200000C0000006662782F636F72652E786D6C8D52CB6EC320
310
10FC158B3B7EC43471224CA4A6C917F4D41BC1C445B1C1C260E5F3BBF82137873E6409A3D9DD999D11F4F8689B6890B6574697288B5314492D4CA5745D22EF6EB840D191516B8CFBD68622CD5B59A20023466B6B7C3743C268277540B5A9E40CF2BE970E45A2814B897AF1295B1E73EFA0A3BFC71D17775ECB388BA73E46BD
310
57D53CAA2A605337252D626447F6243DBDE18C901326A7DD19EF8B22C7C5F6BCBDE4977DFE5A109A8461469D6A1775612577B2426C936605CE529C92F7ECE590EE0E847CD0247432DA3B0B9E67D1E00EB1DBF54193097FE2F35DF5379F57DAE59B996F9AE811CB60BDB1C06812F281DF18DE7386200CF9397E6D160B778006
310
299CB1042A95F16B69E08D97409D46E34793A90ACC23C14F3C9B5F787EE780A0B8AE6135EEE07AF52EA83FEFD4498B07F788B4B12D6FD6E5A615D773157AB2B48C0BD318FB9FE9C5EA1266121E26FB02504B0304140006080800F678444DA1183F7B07010000B201000008000000636F72652E786D6C8D50416EC32010FC0A
310
DA3B36C43476224CA4BAC90B7AEA8D1AE2A2D860018EDADF1762576A6F3D2D9A99DD19869F3EA711DDB50FC6D91668410069DB3B65ECD0C212AFB8017412DC3B177FC9005939E916320C820FDE2DF306F5CE466D336A9DD21B2843D011503FA6470BA1FFD0932CE4129322DC8A59F63739E88216AB4EF068A69FD5DE6B19B5
310
02B123B4C19460C25EE9D391D447C6DE789995822F8B519B9551C9DD5C8DF62058CD0E8C742F9832D661D6D5677C689A0A37FBF3FE525D0ED573C3789997050FD1A73F6F4752CE8882BC675F5EAE94E0EFCE8D9B208552C8D9F10B04E16526FE845E66F58FD0C6C66AB71D5C3702089A023D88649C1B4CE3516F9AB96DF10D
310
504B01021400140006080800F678444D0000000000000000000000003700000000000000000000000000000000006662782F44333245393844422D414332372D343137412D383339412D3042464336443036384433452F617474726962757465732E62696E504B01021400140006080800F678444D00000000000000000000
310
00003500000000000000000000000000550000006662782F44333245393844422D414332372D343137412D383339412D3042464336443036384433452F76657274696365732E62696E504B01021400140006080800F678444DF270F13306000000040000003600000000000000000000000000A80000006662782F44333245
310
393844422D414332372D343137412D383339412D3042464336443036384433452F747269616E676C65732E62696E504B01021400140006080800F678444D88E57597CD3F0000904100004200000000000000000000000000020100006662782F44333245393844422D414332372D343137412D383339412D30424643364430
310
36384433452F7265736F75726365732F322F305F67656E657269632E706E67504B01021400140006080800F678444D51464CB4890000004301000036000000000000000000000000002F4100006662782F44333245393844422D414332372D343137412D383339412D3042464336443036384433452F6469726563746F7279
310
2E786D6C504B01021400140006080800F678444D4167B8B244070000551C000034000000000000000000000000000C4200006662782F44333245393844422D414332372D343137412D383339412D3042464336443036384433452F6F626A656374732E786D6C504B01021400140006080800F678444D0D4B997AE200000055
310
0100003C00000000000000000000000000A24900006662782F44333245393844422D414332372D343137412D383339412D3042464336443036384433452F7265736F75726365732F322F636E782E786D6C504B01021400140006080800F678444DFF15A4A45D000000800000003A00000000000000000000000000DE4A0000
310
6662782F44333245393844422D414332372D343137412D383339412D3042464336443036384433452F7265736F75726365732F636E782E786D6C504B01021400140006080800F678444DDEAE68B642010000560500003000000000000000000000000000934B00006662782F44333245393844422D414332372D343137412D
310
383339412D3042464336443036384433452F636E782E786D6C504B01021400140006080800F678444D7DC92F437F000000A30000000B00000000000000000000000000234D00006662782F636E782E786D6C504B01021400140006080800F678444DA6D797065F000000820000000700000000000000000000000000CB4D00
310
00636E782E786D6C504B01021400140006080800F678444DECFD112DA80000002601000013000000000000000000000000004F4E00005B436F6E74656E745F54797065735D2E786D6C504B01021400140006080800F678444D3DEE336E64000000790000001B00000000000000000000000000284F00006175746F6465736B
310
2D64657369676E2D7061636B6167652E786D6C504B01021400140006080800F678444DB370BD9AF30000008E0100003D00000000000000000000000000C54F00006662782F44333245393844422D414332372D343137412D383339412D3042464336443036384433452F7265736F75726365732F322F636F72652E786D6C50
310
4B01021400140006080800F678444DA4881F1BF9000000960100003B00000000000000000000000000135100006662782F44333245393844422D414332372D343137412D383339412D3042464336443036384433452F7265736F75726365732F636F72652E786D6C504B01021400140006080800F678444D7DA7F8C4F30000
310
00B10100003100000000000000000000000000655200006662782F44333245393844422D414332372D343137412D383339412D3042464336443036384433452F636F72652E786D6C504B01021400140006080800F678444DE903F4A054010000DD0200000C00000000000000000000000000A75300006662782F636F72652E
310
786D6C504B01021400140006080800F678444DA1183F7B07010000B2010000080000000000000000000000000025550000636F72652E786D6C504B050600000000120012002D060000525600000000
  0
XRECORD
  5
17
102
{ACAD_REACTORS
330
12
102
}
330
12
100
AcDbXrecord
280
     1
270
     1
271
     1
  0
XRECORD
  5
16
102
{ACAD_REACTORS
330
12
102
}
330
12
100
AcDbXrecord
280
     1
270
     1
271
     1
  0
XRECORD
  5
18
102
{ACAD_REACTORS
330
12
102
}
330
12
100
AcDbXrecord
280
     1
270
     1
271
     1
  0
XRECORD
  5
15
102
{ACAD_REACTORS
330
12
102
}
330
12
100
AcDbXrecord
280
     1
270
     1
271
     1
  0
XRECORD
  5
24
102
{ACAD_REACTORS
330
22
102
}
330
22
100
AcDbXrecord
280
     1
270
     1
271
     1
  0
XRECORD
  5
23
102
{ACAD_REACTORS
330
22
102
}
330
22
100
AcDbXrecord
280
     1
270
     1
271
     1
  0
XRECORD
  5
27
102
{ACAD_REACTORS
330
22
102
}
330
22
100
AcDbXrecord
280
     1
270
     1
271
     1
  0
XRECORD
  5
26
102
{ACAD_REACTORS
330
22
102
}
330
22
100
AcDbXrecord
280
     1
270
     1
271
     1
  0
XRECORD
  5
28
102
{ACAD_REACTORS
330
22
102
}
330
22
100
AcDbXrecord
280
     1
270
     1
271
     1
  0
XRECORD
  5
25
102
{ACAD_REACTORS
330
22
102
}
330
22
100
AcDbXrecord
280
     1
270
     1
271
     1
  0
CELLSTYLEMAP
  5
352
102
{ACAD_REACTORS
330
351
102
}
330
351
100
AcDbCellStyleMap
 90
        3
300
CELLSTYLE
  1
TABLEFORMAT_BEGIN
 90
        5
170
     1
 91
        0
 92
    32768
 62
   257
 93
        1
300
CONTENTFORMAT
  1
CONTENTFORMAT_BEGIN
 90
        0
 91
        0
 92
      512
 93
        0
300

 40
0.0
140
1.0
 94
        5
 62
     0
340
55
144
0.25
309
CONTENTFORMAT_END
171
     0
 94
        0
309
TABLEFORMAT_END
  1
CELLSTYLE_BEGIN
 90
        1
 91
        1
300
_TITLE
309
CELLSTYLE_END
300
CELLSTYLE
  1
TABLEFORMAT_BEGIN
 90
        5
170
     1
 91
        0
 92
        0
 62
   257
 93
        1
300
CONTENTFORMAT
  1
CONTENTFORMAT_BEGIN
 90
        0
 91
        0
 92
      512
 93
        0
300

 40
0.0
140
1.0
 94
        5
 62
     0
340
55
144
0.18
309
CONTENTFORMAT_END
171
     0
 94
        0
309
TABLEFORMAT_END
  1
CELLSTYLE_BEGIN
 90
        2
 91
        1
300
_HEADER
309
CELLSTYLE_END
300
CELLSTYLE
  1
TABLEFORMAT_BEGIN
 90
        5
170
     1
 91
        0
 92
        0
 62
   257
 93
        1
300
CONTENTFORMAT
  1
CONTENTFORMAT_BEGIN
 90
        0
 91
        0
 92
      512
 93
        0
300

 40
0.0
140
1.0
 94
        2
 62
     0
340
55
144
0.18
309
CONTENTFORMAT_END
171
     0
 94
        0
309
TABLEFORMAT_END
  1
CELLSTYLE_BEGIN
 90
        3
 91
        2
300
_DATA
309
CELLSTYLE_END
  0
ENDSEC
  0
EOF
