  0
SECTION
  2
HEADER
  9
$ACADVER
  1
AC1018
  9
$ACADMAINTVER
 70
   104
  9
$DWGCODEPAGE
  3
ANSI_1252
  9
$AUTHOR
  1
rmorof
  9
$CUSTOMPROPERTYTAG
  1
Manager
  9
$CUSTOMPROPERTY
  1

  9
$CUSTOMPROPERTYTAG
  1
Firma
  9
$CUSTOMPROPERTY
  1

  9
$CUSTOMPROPERTYTAG
  1
Kategorie
  9
$CUSTOMPROPERTY
  1

  9
$CUSTOMPROPERTYTAG
  1
Bauteilnummer
  9
$CUSTOMPROPERTY
  1
ES 200 ER_60008327
  9
$CUSTOMPROPERTYTAG
  1
Bezeichnung
  9
$CUSTOMPROPERTY
  1

  9
$CUSTOMPROPERTYTAG
  1
Projekt
  9
$CUSTOMPROPERTY
  1

  9
$CUSTOMPROPERTYTAG
  1
Konstrukteur
  9
$CUSTOMPROPERTY
  1
rmorof
  9
$CUSTOMPROPERTYTAG
  1
Ingenieur
  9
$CUSTOMPROPERTY
  1

  9
$CUSTOMPROPERTYTAG
  1
Bevollmächtigter
  9
$CUSTOMPROPERTY
  1

  9
$CUSTOMPROPERTYTAG
  1
Kostenstelle
  9
$CUSTOMPROPERTY
  1

  9
$CUSTOMPROPERTYTAG
  1
Zulieferer
  9
$CUSTOMPROPERTY
  1

  9
$CUSTOMPROPERTYTAG
  1
Benutzerstatus
  9
$CUSTOMPROPERTY
  1

  9
$CUSTOMPROPERTYTAG
  1
Konstruktionsstatus
  9
$CUSTOMPROPERTY
  1
InBearbeitung
  9
$CUSTOMPROPERTYTAG
  1
Kontrolliert von
  9
$CUSTOMPROPERTY
  1

  9
$CUSTOMPROPERTYTAG
  1
Konstruktion genehmigt von
  9
$CUSTOMPROPERTY
  1

  9
$CUSTOMPROPERTYTAG
  1
Fertigung genehmigt von
  9
$CUSTOMPROPERTY
  1

  9
$CUSTOMPROPERTYTAG
  1
bez. engl.
  9
$CUSTOMPROPERTY
  1

  9
$CUSTOMPROPERTYTAG
  1
bez. franz.
  9
$CUSTOMPROPERTY
  1

  9
$INSBASE
 10
0.0
 20
0.0
 30
0.0
  9
$EXTMIN
 10
0.0
 20
0.0
 30
0.0
  9
$EXTMAX
 10
297.0
 20
210.0
 30
0.0
  9
$LIMMIN
 10
0.0
 20
0.0
  9
$LIMMAX
 10
297.0
 20
210.0
  9
$ORTHOMODE
 70
     0
  9
$REGENMODE
 70
     1
  9
$FILLMODE
 70
     1
  9
$QTEXTMODE
 70
     0
  9
$MIRRTEXT
 70
     0
  9
$LTSCALE
 40
1.0
  9
$ATTMODE
 70
     1
  9
$TEXTSIZE
 40
0.2
  9
$TRACEWID
 40
0.05
  9
$TEXTSTYLE
  7
Standard
  9
$CLAYER
  8
0
  9
$CELTYPE
  6
ByLayer
  9
$CECOLOR
 62
   256
  9
$CELTSCALE
 40
1.0
  9
$DISPSILH
 70
     0
  9
$DIMSCALE
 40
1.0
  9
$DIMASZ
 40
1.799999999999999
  9
$DIMEXO
 40
0.0625
  9
$DIMDLI
 40
0.38
  9
$DIMRND
 40
0.0
  9
$DIMDLE
 40
0.0
  9
$DIMEXE
 40
0.18
  9
$DIMTP
 40
0.0
  9
$DIMTM
 40
0.0
  9
$DIMTXT
 40
0.3499999940395355
  9
$DIMCEN
 40
0.09
  9
$DIMTSZ
 40
0.0
  9
$DIMTOL
 70
     0
  9
$DIMLIM
 70
     0
  9
$DIMTIH
 70
     1
  9
$DIMTOH
 70
     1
  9
$DIMSE1
 70
     0
  9
$DIMSE2
 70
     0
  9
$DIMTAD
 70
     0
  9
$DIMZIN
 70
     0
  9
$DIMBLK
  1

  9
$DIMASO
 70
     1
  9
$DIMSHO
 70
     1
  9
$DIMPOST
  1

  9
$DIMAPOST
  1

  9
$DIMALT
 70
     0
  9
$DIMALTD
 70
     2
  9
$DIMALTF
 40
25.4
  9
$DIMLFAC
 40
1.0
  9
$DIMTOFL
 70
     0
  9
$DIMTVP
 40
0.0
  9
$DIMTIX
 70
     0
  9
$DIMSOXD
 70
     0
  9
$DIMSAH
 70
     0
  9
$DIMBLK1
  1

  9
$DIMBLK2
  1

  9
$DIMSTYLE
  2
Standard
  9
$DIMCLRD
 70
     0
  9
$DIMCLRE
 70
     0
  9
$DIMCLRT
 70
     0
  9
$DIMTFAC
 40
1.0
  9
$DIMGAP
 40
0.09
  9
$DIMJUST
 70
     0
  9
$DIMSD1
 70
     0
  9
$DIMSD2
 70
     0
  9
$DIMTOLJ
 70
     1
  9
$DIMTZIN
 70
     0
  9
$DIMALTZ
 70
     0
  9
$DIMALTTZ
 70
     0
  9
$DIMUPT
 70
     0
  9
$DIMDEC
 70
     4
  9
$DIMTDEC
 70
     4
  9
$DIMALTU
 70
     2
  9
$DIMALTTD
 70
     2
  9
$DIMTXSTY
  7
Standard
  9
$DIMAUNIT
 70
     0
  9
$DIMADEC
 70
     0
  9
$DIMALTRND
 40
0.0
  9
$DIMAZIN
 70
     0
  9
$DIMDSEP
 70
    46
  9
$DIMATFIT
 70
     3
  9
$DIMFRAC
 70
     0
  9
$DIMLDRBLK
  1

  9
$DIMLUNIT
 70
     2
  9
$DIMLWD
 70
    -2
  9
$DIMLWE
 70
    -2
  9
$DIMTMOVE
 70
     0
  9
$LUNITS
 70
     2
  9
$LUPREC
 70
     4
  9
$SKETCHINC
 40
0.1
  9
$FILLETRAD
 40
0.0
  9
$AUNITS
 70
     0
  9
$AUPREC
 70
     0
  9
$MENU
  1
.
  9
$ELEVATION
 40
0.0
  9
$PELEVATION
 40
0.0
  9
$THICKNESS
 40
0.0
  9
$LIMCHECK
 70
     0
  9
$CHAMFERA
 40
0.0
  9
$CHAMFERB
 40
0.0
  9
$CHAMFERC
 40
0.0
  9
$CHAMFERD
 40
0.0
  9
$SKPOLY
 70
     0
  9
$TDCREATE
 40
2454949.663853380
  9
$TDUCREATE
 40
2454949.580520047
  9
$TDUPDATE
 40
2454949.663853380
  9
$TDUUPDATE
 40
2454949.580520047
  9
$TDINDWG
 40
0.0000177199
  9
$TDUSRTIMER
 40
0.0000177199
  9
$USRTIMER
 70
     1
  9
$ANGBASE
 50
0.0
  9
$ANGDIR
 70
     0
  9
$PDMODE
 70
     0
  9
$PDSIZE
 40
0.0
  9
$PLINEWID
 40
0.0
  9
$SPLFRAME
 70
     0
  9
$SPLINETYPE
 70
     6
  9
$SPLINESEGS
 70
     8
  9
$HANDSEED
  5
326
  9
$SURFTAB1
 70
     6
  9
$SURFTAB2
 70
     6
  9
$SURFTYPE
 70
     6
  9
$SURFU
 70
     6
  9
$SURFV
 70
     6
  9
$UCSBASE
  2

  9
$UCSNAME
  2

  9
$UCSORG
 10
0.0
 20
0.0
 30
0.0
  9
$UCSXDIR
 10
1.0
 20
0.0
 30
0.0
  9
$UCSYDIR
 10
0.0
 20
1.0
 30
0.0
  9
$UCSORTHOREF
  2

  9
$UCSORTHOVIEW
 70
     0
  9
$UCSORGTOP
 10
0.0
 20
0.0
 30
0.0
  9
$UCSORGBOTTOM
 10
0.0
 20
0.0
 30
0.0
  9
$UCSORGLEFT
 10
0.0
 20
0.0
 30
0.0
  9
$UCSORGRIGHT
 10
0.0
 20
0.0
 30
0.0
  9
$UCSORGFRONT
 10
0.0
 20
0.0
 30
0.0
  9
$UCSORGBACK
 10
0.0
 20
0.0
 30
0.0
  9
$PUCSBASE
  2

  9
$PUCSNAME
  2

  9
$PUCSORG
 10
0.0
 20
0.0
 30
0.0
  9
$PUCSXDIR
 10
1.0
 20
0.0
 30
0.0
  9
$PUCSYDIR
 10
0.0
 20
1.0
 30
0.0
  9
$PUCSORTHOREF
  2

  9
$PUCSORTHOVIEW
 70
     0
  9
$PUCSORGTOP
 10
0.0
 20
0.0
 30
0.0
  9
$PUCSORGBOTTOM
 10
0.0
 20
0.0
 30
0.0
  9
$PUCSORGLEFT
 10
0.0
 20
0.0
 30
0.0
  9
$PUCSORGRIGHT
 10
0.0
 20
0.0
 30
0.0
  9
$PUCSORGFRONT
 10
0.0
 20
0.0
 30
0.0
  9
$PUCSORGBACK
 10
0.0
 20
0.0
 30
0.0
  9
$USERI1
 70
     0
  9
$USERI2
 70
     0
  9
$USERI3
 70
     0
  9
$USERI4
 70
     0
  9
$USERI5
 70
     0
  9
$USERR1
 40
0.0
  9
$USERR2
 40
0.0
  9
$USERR3
 40
0.0
  9
$USERR4
 40
0.0
  9
$USERR5
 40
0.0
  9
$WORLDVIEW
 70
     1
  9
$SHADEDGE
 70
     3
  9
$SHADEDIF
 70
    70
  9
$TILEMODE
 70
     1
  9
$MAXACTVP
 70
    64
  9
$PINSBASE
 10
0.0
 20
0.0
 30
0.0
  9
$PLIMCHECK
 70
     0
  9
$PEXTMIN
 10
0.0
 20
0.0
 30
0.0
  9
$PEXTMAX
 10
297.0
 20
210.0
 30
0.0
  9
$PLIMMIN
 10
0.0
 20
0.0
  9
$PLIMMAX
 10
297.0
 20
210.0
  9
$UNITMODE
 70
     0
  9
$VISRETAIN
 70
     1
  9
$PLINEGEN
 70
     0
  9
$PSLTSCALE
 70
     1
  9
$TREEDEPTH
 70
  3020
  9
$CMLSTYLE
  2
Standard
  9
$CMLJUST
 70
     0
  9
$CMLSCALE
 40
1.0
  9
$PROXYGRAPHICS
 70
     1
  9
$MEASUREMENT
 70
     1
  9
$CELWEIGHT
370
    -1
  9
$ENDCAPS
280
     0
  9
$JOINSTYLE
280
     0
  9
$LWDISPLAY
290
     0
  9
$INSUNITS
 70
     4
  9
$HYPERLINKBASE
  1

  9
$STYLESHEET
  1

  9
$XEDIT
290
     1
  9
$CEPSNTYPE
380
     0
  9
$PSTYLEMODE
290
     1
  9
$FINGERPRINTGUID
  2
{4D699EC5-2192-4C1B-BF3E-28FCA275A0D0}
  9
$VERSIONGUID
  2
{7A8B3AD0-E2DD-4956-8072-06087741B3FF}
  9
$EXTNAMES
290
     1
  9
$PSVPSCALE
 40
0.0
  9
$OLESTARTUP
290
     0
  9
$SORTENTS
280
   127
  9
$INDEXCTL
280
     0
  9
$HIDETEXT
280
     1
  9
$XCLIPFRAME
290
     0
  9
$HALOGAP
280
     0
  9
$OBSCOLOR
 70
   257
  9
$OBSLTYPE
280
     0
  9
$INTERSECTIONDISPLAY
280
     0
  9
$INTERSECTIONCOLOR
 70
   257
  9
$DIMASSOC
280
     1
  9
$PROJECTNAME
  1

  0
ENDSEC
  0
SECTION
  2
CLASSES
  0
CLASS
  1
ACDBDICTIONARYWDFLT
  2
AcDbDictionaryWithDefault
  3
ObjectDBX Classes
 90
        0
 91
        1
280
     0
281
     0
  0
CLASS
  1
MATERIAL
  2
AcDbMaterial
  3
ObjectDBX Classes
 90
     1153
 91
        3
280
     0
281
     0
  0
CLASS
  1
VISUALSTYLE
  2
AcDbVisualStyle
  3
ObjectDBX Classes
 90
     4095
 91
       16
280
     0
281
     0
  0
CLASS
  1
SCALE
  2
AcDbScale
  3
ObjectDBX Classes
 90
     1153
 91
       33
280
     0
281
     0
  0
CLASS
  1
TABLESTYLE
  2
AcDbTableStyle
  3
ObjectDBX Classes
 90
     4095
 91
        1
280
     0
281
     0
  0
CLASS
  1
MLEADERSTYLE
  2
AcDbMLeaderStyle
  3
ACDB_MLEADERSTYLE_CLASS
 90
     4095
 91
        1
280
     0
281
     0
  0
CLASS
  1
DICTIONARYVAR
  2
AcDbDictionaryVar
  3
ObjectDBX Classes
 90
        0
 91
        5
280
     0
281
     0
  0
CLASS
  1
CELLSTYLEMAP
  2
AcDbCellStyleMap
  3
ObjectDBX Classes
 90
     1152
 91
        1
280
     0
281
     0
  0
ENDSEC
  0
SECTION
  2
TABLES
  0
TABLE
  2
VPORT
  5
8
330
0
100
AcDbSymbolTable
 70
     1
  0
VPORT
  5
5F
330
8
100
AcDbSymbolTableRecord
100
AcDbViewportTableRecord
  2
*Active
 70
     0
 10
0.0
 20
0.0
 11
1.0
 21
1.0
 12
148.5
 22
105.0
 13
0.0
 23
0.0
 14
1.0
 24
1.0
 15
0.0
 25
0.0
 16
0.0
 26
0.0
 36
1.0
 17
0.0
 27
0.0
 37
0.0
 40
210.0
 41
1.414285714285714
 42
50.0
 43
0.0
 44
0.0
 50
0.0
 51
0.0
 71
     0
 72
   100
 73
     1
 74
     1
 75
     0
 76
     0
 77
     0
 78
     0
281
     0
 65
     1
110
0.0
120
0.0
130
0.0
111
1.0
121
0.0
131
0.0
112
0.0
122
1.0
132
0.0
 79
     0
146
0.0
  0
ENDTAB
  0
TABLE
  2
LTYPE
  5
5
330
0
100
AcDbSymbolTable
 70
    59
  0
LTYPE
  5
63
330
5
100
AcDbSymbolTableRecord
100
AcDbLinetypeTableRecord
  2
ByBlock
 70
     0
  3

 72
    65
 73
     0
 40
0.0
  0
LTYPE
  5
64
330
5
100
AcDbSymbolTableRecord
100
AcDbLinetypeTableRecord
  2
ByLayer
 70
     0
  3

 72
    65
 73
     0
 40
0.0
  0
LTYPE
  5
65
330
5
100
AcDbSymbolTableRecord
100
AcDbLinetypeTableRecord
  2
Continuous
 70
     0
  3
Solid line
 72
    65
 73
     0
 40
0.0
  0
LTYPE
  5
7D
330
5
100
AcDbSymbolTableRecord
100
AcDbLinetypeTableRecord
  2
Section_View_Lines
 70
     0
  3
Section View Lines
 72
    65
 73
     4
 40
0.8406
 49
0.6614
 74
     0
 49
-0.0827
 74
     0
 49
0.0138
 74
     0
 49
-0.0827
 74
     0
  0
LTYPE
  5
7E
330
5
100
AcDbSymbolTableRecord
100
AcDbLinetypeTableRecord
  2
CHAIN
 70
     0
  3
Chain ____ _ ____ _ ____ _ ____ _ ____ _ ____
 72
    65
 73
     4
 40
0.3543
 49
0.2362
 74
     0
 49
-0.0295
 74
     0
 49
0.0591
 74
     0
 49
-0.0295
 74
     0
  0
LTYPE
  5
7F
330
5
100
AcDbSymbolTableRecord
100
AcDbLinetypeTableRecord
  2
DASH_DOT
 70
     0
  3
Dash dot _._._._._._._._._._._._._._._.
 72
    65
 73
     4
 40
0.37
 49
0.24
 74
     0
 49
-0.06
 74
     0
 49
0.01
 74
     0
 49
-0.06
 74
     0
  0
LTYPE
  5
80
330
5
100
AcDbSymbolTableRecord
100
AcDbLinetypeTableRecord
  2
DASH_DOUBLE_DOT
 70
     0
  3
Dash Double Dot __ __ . __ __ . __ __ . __ _
 72
    65
 73
     6
 40
0.4398
 49
0.24
 74
     0
 49
-0.06
 74
     0
 49
0.0098
 74
     0
 49
-0.06
 74
     0
 49
0.01
 74
     0
 49
-0.06
 74
     0
  0
LTYPE
  5
81
330
5
100
AcDbSymbolTableRecord
100
AcDbLinetypeTableRecord
  2
DASH_TRIPLE_DOT
 70
     0
  3
Dash Triple-Dot _ . . . _ . . . _ . . . _
 72
    65
 73
     8
 40
0.51
 49
0.24
 74
     0
 49
-0.06
 74
     0
 49
0.01
 74
     0
 49
-0.06
 74
     0
 49
0.01
 74
     0
 49
-0.06
 74
     0
 49
0.01
 74
     0
 49
-0.06
 74
     0
  0
LTYPE
  5
82
330
5
100
AcDbSymbolTableRecord
100
AcDbLinetypeTableRecord
  2
DASHED
 70
     0
  3
Dashed __ __ __ __ __ __ __ __ __ __ __ __ __ _
 72
    65
 73
     2
 40
0.2067
 49
0.1654
 74
     0
 49
-0.0413
 74
     0
  0
LTYPE
  5
83
330
5
100
AcDbSymbolTableRecord
100
AcDbLinetypeTableRecord
  2
DASHED_SPACE
 70
     0
  3
Dashed Space _._._._._._._._._._._._._._._.
 72
    65
 73
     2
 40
0.2067
 49
0.1654
 74
     0
 49
-0.0413
 74
     0
  0
LTYPE
  5
84
330
5
100
AcDbSymbolTableRecord
100
AcDbLinetypeTableRecord
  2
DOTTED
 70
     0
  3
Dotted . . . . . . . . . . . . . . . . . . . . 
 72
    65
 73
     2
 40
0.0482
 49
0.0069
 74
     0
 49
-0.0413
 74
     0
  0
LTYPE
  5
85
330
5
100
AcDbSymbolTableRecord
100
AcDbLinetypeTableRecord
  2
DOUBLE_DASH_CHAIN
 70
     0
  3
Double Dash Chain ___ _ _ ___ _ _ ___ _ _ ___ _
 72
    65
 73
     6
 40
1.240299999999999
 49
0.6614
 74
     0
 49
-0.0827
 74
     0
 49
0.1654
 74
     0
 49
-0.0827
 74
     0
 49
0.1654
 74
     0
 49
-0.0827
 74
     0
  0
LTYPE
  5
86
330
5
100
AcDbSymbolTableRecord
100
AcDbLinetypeTableRecord
  2
DOUBLE_DASH_DOT
 70
     0
  3
Double Dash Dot __ __ . __ __ . __ __ . __ _
 72
    65
 73
     6
 40
0.67
 49
0.24
 74
     0
 49
-0.06
 74
     0
 49
0.24
 74
     0
 49
-0.06
 74
     0
 49
0.01
 74
     0
 49
-0.06
 74
     0
  0
LTYPE
  5
87
330
5
100
AcDbSymbolTableRecord
100
AcDbLinetypeTableRecord
  2
DOUBLE_DASH_DOUBLE_DOT
 70
     0
  3
Double-dash double-dot _ _ . . _ _ . . _
 72
    65
 73
     8
 40
0.7400000000000001
 49
0.24
 74
     0
 49
-0.06
 74
     0
 49
0.24
 74
     0
 49
-0.06
 74
     0
 49
0.01
 74
     0
 49
-0.06
 74
     0
 49
0.01
 74
     0
 49
-0.06
 74
     0
  0
LTYPE
  5
88
330
5
100
AcDbSymbolTableRecord
100
AcDbLinetypeTableRecord
  2
DOUBLE_DASH_TRIPLE_DOT
 70
     0
  3
Double Dash Triple Dot __ __ . . . __ __ . . .
 72
    65
 73
    10
 40
0.8100000000000001
 49
0.24
 74
     0
 49
-0.06
 74
     0
 49
0.24
 74
     0
 49
-0.06
 74
     0
 49
0.01
 74
     0
 49
-0.06
 74
     0
 49
0.01
 74
     0
 49
-0.06
 74
     0
 49
0.01
 74
     0
 49
-0.06
 74
     0
  0
LTYPE
  5
89
330
5
100
AcDbSymbolTableRecord
100
AcDbLinetypeTableRecord
  2
LONG_DASH_DOTTED
 70
     0
  3
Long-Dash Dot ____ . ____ . ____ . ____ . _
 72
    65
 73
     4
 40
0.3001
 49
0.2362
 74
     0
 49
-0.0295
 74
     0
 49
0.0049
 74
     0
 49
-0.0295
 74
     0
  0
LTYPE
  5
8A
330
5
100
AcDbSymbolTableRecord
100
AcDbLinetypeTableRecord
  2
LONG_DASH_DOUBLE_DOT
 70
     0
  3
Long Dash Double Dot ____ . . ____ . . ____ . .
 72
    65
 73
     6
 40
0.3345
 49
0.2362
 74
     0
 49
-0.0295
 74
     0
 49
0.0049
 74
     0
 49
-0.0295
 74
     0
 49
0.0049
 74
     0
 49
-0.0295
 74
     0
  0
LTYPE
  5
8B
330
5
100
AcDbSymbolTableRecord
100
AcDbLinetypeTableRecord
  2
LONG_DASH_TRIPLE_DOT
 70
     0
  3
Long Dash Triple Dot ____ ... ____ ... ____
 72
    65
 73
     8
 40
0.75
 49
0.48
 74
     0
 49
-0.06
 74
     0
 49
0.01
 74
     0
 49
-0.06
 74
     0
 49
0.01
 74
     0
 49
-0.06
 74
     0
 49
0.01
 74
     0
 49
-0.06
 74
     0
  0
LTYPE
  5
8C
330
5
100
AcDbSymbolTableRecord
100
AcDbLinetypeTableRecord
  2
BORDER
 70
     0
  3
Border __ __ . __ __ . __ __ . __ __ . __ __ .
 72
    65
 73
     6
 40
44.45
 49
12.7
 74
     0
 49
-6.349999999999999
 74
     0
 49
12.7
 74
     0
 49
-6.349999999999999
 74
     0
 49
0.0
 74
     0
 49
-6.349999999999999
 74
     0
  0
LTYPE
  5
8D
330
5
100
AcDbSymbolTableRecord
100
AcDbLinetypeTableRecord
  2
BORDER2
 70
     0
  3
Border (.5x) __.__.__.__.__.__.__.__.__.__.__.
 72
    65
 73
     6
 40
22.225
 49
6.349999999999999
 74
     0
 49
-3.174999999999999
 74
     0
 49
6.349999999999999
 74
     0
 49
-3.174999999999999
 74
     0
 49
0.0
 74
     0
 49
-3.174999999999999
 74
     0
  0
LTYPE
  5
8E
330
5
100
AcDbSymbolTableRecord
100
AcDbLinetypeTableRecord
  2
BORDERX2
 70
     0
  3
Border (2x) ____  ____  .  ____  ____  .  ___
 72
    65
 73
     6
 40
88.9
 49
25.4
 74
     0
 49
-12.7
 74
     0
 49
25.4
 74
     0
 49
-12.7
 74
     0
 49
0.0
 74
     0
 49
-12.7
 74
     0
  0
LTYPE
  5
8F
330
5
100
AcDbSymbolTableRecord
100
AcDbLinetypeTableRecord
  2
CENTER
 70
     0
  3
Center ____ _ ____ _ ____ _ ____ _ ____ _ ____
 72
    65
 73
     4
 40
50.8
 49
31.75
 74
     0
 49
-6.349999999999999
 74
     0
 49
6.349999999999999
 74
     0
 49
-6.349999999999999
 74
     0
  0
LTYPE
  5
90
330
5
100
AcDbSymbolTableRecord
100
AcDbLinetypeTableRecord
  2
CENTER2
 70
     0
  3
Center (.5x) ___ _ ___ _ ___ _ ___ _ ___ _ ___
 72
    65
 73
     4
 40
28.575
 49
19.05
 74
     0
 49
-3.174999999999999
 74
     0
 49
3.174999999999999
 74
     0
 49
-3.174999999999999
 74
     0
  0
LTYPE
  5
91
330
5
100
AcDbSymbolTableRecord
100
AcDbLinetypeTableRecord
  2
CENTERX2
 70
     0
  3
Center (2x) ________  __  ________  __  _____
 72
    65
 73
     4
 40
101.6
 49
63.5
 74
     0
 49
-12.7
 74
     0
 49
12.7
 74
     0
 49
-12.7
 74
     0
  0
LTYPE
  5
92
330
5
100
AcDbSymbolTableRecord
100
AcDbLinetypeTableRecord
  2
DASHDOT2
 70
     0
  3
Dash dot (.5x) _._._._._._._._._._._._._._._.
 72
    65
 73
     4
 40
12.7
 49
6.349999999999999
 74
     0
 49
-3.174999999999999
 74
     0
 49
0.0
 74
     0
 49
-3.174999999999999
 74
     0
  0
LTYPE
  5
93
330
5
100
AcDbSymbolTableRecord
100
AcDbLinetypeTableRecord
  2
DASHDOTX2
 70
     0
  3
Dash dot (2x) ____  .  ____  .  ____  .  ___
 72
    65
 73
     4
 40
50.8
 49
25.4
 74
     0
 49
-12.7
 74
     0
 49
0.0
 74
     0
 49
-12.7
 74
     0
  0
LTYPE
  5
94
330
5
100
AcDbSymbolTableRecord
100
AcDbLinetypeTableRecord
  2
DASHED2
 70
     0
  3
Dashed (.5x) _ _ _ _ _ _ _ _ _ _ _ _ _ _ _ _ _
 72
    65
 73
     2
 40
9.524999999999998
 49
6.349999999999999
 74
     0
 49
-3.174999999999999
 74
     0
  0
LTYPE
  5
95
330
5
100
AcDbSymbolTableRecord
100
AcDbLinetypeTableRecord
  2
DASHEDX2
 70
     0
  3
Dashed (2x) ____  ____  ____  ____  ____  ___
 72
    65
 73
     2
 40
38.1
 49
25.4
 74
     0
 49
-12.7
 74
     0
  0
LTYPE
  5
96
330
5
100
AcDbSymbolTableRecord
100
AcDbLinetypeTableRecord
  2
DIVIDE
 70
     0
  3
Divide ____ . . ____ . . ____ . . ____ . . ____
 72
    65
 73
     6
 40
31.75
 49
12.7
 74
     0
 49
-6.349999999999999
 74
     0
 49
0.0
 74
     0
 49
-6.349999999999999
 74
     0
 49
0.0
 74
     0
 49
-6.349999999999999
 74
     0
  0
LTYPE
  5
97
330
5
100
AcDbSymbolTableRecord
100
AcDbLinetypeTableRecord
  2
DIVIDE2
 70
     0
  3
Divide (.5x) __..__..__..__..__..__..__..__.._
 72
    65
 73
     6
 40
15.875
 49
6.349999999999999
 74
     0
 49
-3.174999999999999
 74
     0
 49
0.0
 74
     0
 49
-3.174999999999999
 74
     0
 49
0.0
 74
     0
 49
-3.174999999999999
 74
     0
  0
LTYPE
  5
98
330
5
100
AcDbSymbolTableRecord
100
AcDbLinetypeTableRecord
  2
DIVIDEX2
 70
     0
  3
Divide (2x) ________  .  .  ________  .  .  _
 72
    65
 73
     6
 40
63.49999999999999
 49
25.4
 74
     0
 49
-12.7
 74
     0
 49
0.0
 74
     0
 49
-12.7
 74
     0
 49
0.0
 74
     0
 49
-12.7
 74
     0
  0
LTYPE
  5
99
330
5
100
AcDbSymbolTableRecord
100
AcDbLinetypeTableRecord
  2
DOT
 70
     0
  3
Dot . . . . . . . . . . . . . . . . . . . . . .
 72
    65
 73
     2
 40
6.349999999999999
 49
0.0
 74
     0
 49
-6.349999999999999
 74
     0
  0
LTYPE
  5
9A
330
5
100
AcDbSymbolTableRecord
100
AcDbLinetypeTableRecord
  2
DOT2
 70
     0
  3
Dot (.5x) .....................................
 72
    65
 73
     2
 40
3.174999999999999
 49
0.0
 74
     0
 49
-3.174999999999999
 74
     0
  0
LTYPE
  5
9B
330
5
100
AcDbSymbolTableRecord
100
AcDbLinetypeTableRecord
  2
DOTX2
 70
     0
  3
Dot (2x) .  .  .  .  .  .  .  .  .  .  .  .  . 
 72
    65
 73
     2
 40
12.7
 49
0.0
 74
     0
 49
-12.7
 74
     0
  0
LTYPE
  5
9C
330
5
100
AcDbSymbolTableRecord
100
AcDbLinetypeTableRecord
  2
HIDDEN
 70
     0
  3
Hidden __ __ __ __ __ __ __ __ __ __ __ __ __ _
 72
    65
 73
     2
 40
9.524999999999998
 49
6.349999999999999
 74
     0
 49
-3.174999999999999
 74
     0
  0
LTYPE
  5
9D
330
5
100
AcDbSymbolTableRecord
100
AcDbLinetypeTableRecord
  2
HIDDEN2
 70
     0
  3
Hidden (.5x) _ _ _ _ _ _ _ _ _ _ _ _ _ _ _ _ _
 72
    65
 73
     2
 40
4.762499999999999
 49
3.174999999999999
 74
     0
 49
-1.587499999999999
 74
     0
  0
LTYPE
  5
9E
330
5
100
AcDbSymbolTableRecord
100
AcDbLinetypeTableRecord
  2
HIDDENX2
 70
     0
  3
Hidden (2x) ____ ____ ____ ____ ____ ____ ____
 72
    65
 73
     2
 40
19.05
 49
12.7
 74
     0
 49
-6.349999999999999
 74
     0
  0
LTYPE
  5
9F
330
5
100
AcDbSymbolTableRecord
100
AcDbLinetypeTableRecord
  2
PHANTOM
 70
     0
  3
Phantom ______  __  __  ______  __  __  ______
 72
    65
 73
     6
 40
63.5
 49
31.75
 74
     0
 49
-6.349999999999999
 74
     0
 49
6.349999999999999
 74
     0
 49
-6.349999999999999
 74
     0
 49
6.349999999999999
 74
     0
 49
-6.349999999999999
 74
     0
  0
LTYPE
  5
A0
330
5
100
AcDbSymbolTableRecord
100
AcDbLinetypeTableRecord
  2
PHANTOM2
 70
     0
  3
Phantom (.5x) ___ _ _ ___ _ _ ___ _ _ ___ _ _
 72
    65
 73
     6
 40
31.75
 49
15.875
 74
     0
 49
-3.174999999999999
 74
     0
 49
3.174999999999999
 74
     0
 49
-3.174999999999999
 74
     0
 49
3.174999999999999
 74
     0
 49
-3.174999999999999
 74
     0
  0
LTYPE
  5
A1
330
5
100
AcDbSymbolTableRecord
100
AcDbLinetypeTableRecord
  2
PHANTOMX2
 70
     0
  3
Phantom (2x) ____________    ____    ____   _
 72
    65
 73
     6
 40
127.0
 49
63.5
 74
     0
 49
-12.7
 74
     0
 49
12.7
 74
     0
 49
-12.7
 74
     0
 49
12.7
 74
     0
 49
-12.7
 74
     0
  0
LTYPE
  5
A2
330
5
100
AcDbSymbolTableRecord
100
AcDbLinetypeTableRecord
  2
ACAD_ISO02W100
 70
     0
  3
ISO dash __ __ __ __ __ __ __ __ __ __ __ __ __
 72
    65
 73
     2
 40
15.0
 49
12.0
 74
     0
 49
-3.0
 74
     0
  0
LTYPE
  5
A3
330
5
100
AcDbSymbolTableRecord
100
AcDbLinetypeTableRecord
  2
ACAD_ISO03W100
 70
     0
  3
ISO dash space __    __    __    __    __    __
 72
    65
 73
     2
 40
30.0
 49
12.0
 74
     0
 49
-18.0
 74
     0
  0
LTYPE
  5
A4
330
5
100
AcDbSymbolTableRecord
100
AcDbLinetypeTableRecord
  2
ACAD_ISO04W100
 70
     0
  3
ISO long-dash dot ____ . ____ . ____ . ____ . _
 72
    65
 73
     4
 40
30.0
 49
24.0
 74
     0
 49
-3.0
 74
     0
 49
0.0
 74
     0
 49
-3.0
 74
     0
  0
LTYPE
  5
A5
330
5
100
AcDbSymbolTableRecord
100
AcDbLinetypeTableRecord
  2
ACAD_ISO05W100
 70
     0
  3
ISO long-dash double-dot ____ .. ____ .. ____ .
 72
    65
 73
     6
 40
33.0
 49
24.0
 74
     0
 49
-3.0
 74
     0
 49
0.0
 74
     0
 49
-3.0
 74
     0
 49
0.0
 74
     0
 49
-3.0
 74
     0
  0
LTYPE
  5
A6
330
5
100
AcDbSymbolTableRecord
100
AcDbLinetypeTableRecord
  2
ACAD_ISO06W100
 70
     0
  3
ISO long-dash triple-dot ____ ... ____ ... ____
 72
    65
 73
     8
 40
36.0
 49
24.0
 74
     0
 49
-3.0
 74
     0
 49
0.0
 74
     0
 49
-3.0
 74
     0
 49
0.0
 74
     0
 49
-3.0
 74
     0
 49
0.0
 74
     0
 49
-3.0
 74
     0
  0
LTYPE
  5
A7
330
5
100
AcDbSymbolTableRecord
100
AcDbLinetypeTableRecord
  2
ACAD_ISO07W100
 70
     0
  3
ISO dot . . . . . . . . . . . . . . . . . . . .
 72
    65
 73
     2
 40
3.0
 49
0.0
 74
     0
 49
-3.0
 74
     0
  0
LTYPE
  5
A8
330
5
100
AcDbSymbolTableRecord
100
AcDbLinetypeTableRecord
  2
ACAD_ISO08W100
 70
     0
  3
ISO long-dash short-dash ____ __ ____ __ ____ _
 72
    65
 73
     4
 40
36.0
 49
24.0
 74
     0
 49
-3.0
 74
     0
 49
6.0
 74
     0
 49
-3.0
 74
     0
  0
LTYPE
  5
A9
330
5
100
AcDbSymbolTableRecord
100
AcDbLinetypeTableRecord
  2
ACAD_ISO09W100
 70
     0
  3
ISO long-dash double-short-dash ____ __ __ ____
 72
    65
 73
     6
 40
45.0
 49
24.0
 74
     0
 49
-3.0
 74
     0
 49
6.0
 74
     0
 49
-3.0
 74
     0
 49
6.0
 74
     0
 49
-3.0
 74
     0
  0
LTYPE
  5
AA
330
5
100
AcDbSymbolTableRecord
100
AcDbLinetypeTableRecord
  2
ACAD_ISO10W100
 70
     0
  3
ISO dash dot __ . __ . __ . __ . __ . __ . __ .
 72
    65
 73
     4
 40
18.0
 49
12.0
 74
     0
 49
-3.0
 74
     0
 49
0.0
 74
     0
 49
-3.0
 74
     0
  0
LTYPE
  5
AB
330
5
100
AcDbSymbolTableRecord
100
AcDbLinetypeTableRecord
  2
ACAD_ISO11W100
 70
     0
  3
ISO double-dash dot __ __ . __ __ . __ __ . __ 
 72
    65
 73
     6
 40
33.0
 49
12.0
 74
     0
 49
-3.0
 74
     0
 49
12.0
 74
     0
 49
-3.0
 74
     0
 49
0.0
 74
     0
 49
-3.0
 74
     0
  0
LTYPE
  5
AC
330
5
100
AcDbSymbolTableRecord
100
AcDbLinetypeTableRecord
  2
ACAD_ISO12W100
 70
     0
  3
ISO dash double-dot __ . . __ . . __ . . __ . .
 72
    65
 73
     6
 40
21.0
 49
12.0
 74
     0
 49
-3.0
 74
     0
 49
0.0
 74
     0
 49
-3.0
 74
     0
 49
0.0
 74
     0
 49
-3.0
 74
     0
  0
LTYPE
  5
AD
330
5
100
AcDbSymbolTableRecord
100
AcDbLinetypeTableRecord
  2
ACAD_ISO13W100
 70
     0
  3
ISO double-dash double-dot __ __ . . __ __ . . 
 72
    65
 73
     8
 40
36.0
 49
12.0
 74
     0
 49
-3.0
 74
     0
 49
12.0
 74
     0
 49
-3.0
 74
     0
 49
0.0
 74
     0
 49
-3.0
 74
     0
 49
0.0
 74
     0
 49
-3.0
 74
     0
  0
LTYPE
  5
AE
330
5
100
AcDbSymbolTableRecord
100
AcDbLinetypeTableRecord
  2
ACAD_ISO14W100
 70
     0
  3
ISO dash triple-dot __ . . . __ . . . __ . . . 
 72
    65
 73
     8
 40
24.0
 49
12.0
 74
     0
 49
-3.0
 74
     0
 49
0.0
 74
     0
 49
-3.0
 74
     0
 49
0.0
 74
     0
 49
-3.0
 74
     0
 49
0.0
 74
     0
 49
-3.0
 74
     0
  0
LTYPE
  5
AF
330
5
100
AcDbSymbolTableRecord
100
AcDbLinetypeTableRecord
  2
ACAD_ISO15W100
 70
     0
  3
ISO double-dash triple-dot __ __ . . . __ __ . 
 72
    65
 73
    10
 40
39.0
 49
12.0
 74
     0
 49
-3.0
 74
     0
 49
12.0
 74
     0
 49
-3.0
 74
     0
 49
0.0
 74
     0
 49
-3.0
 74
     0
 49
0.0
 74
     0
 49
-3.0
 74
     0
 49
0.0
 74
     0
 49
-3.0
 74
     0
  0
LTYPE
  5
B2
330
5
100
AcDbSymbolTableRecord
100
AcDbLinetypeTableRecord
  2
FENCELINE1
 70
     0
  3
Fenceline circle ----0-----0----0-----0----0---
 72
    65
 73
     4
 40
36.83
 49
6.349999999999999
 74
     0
 49
-2.54
 74
     4
 75
   133
340
B1
 46
2.54
 50
0.0
 44
-2.54
 45
0.0
 49
-2.54
 74
     0
 49
25.4
 74
     0
  0
LTYPE
  5
B3
330
5
100
AcDbSymbolTableRecord
100
AcDbLinetypeTableRecord
  2
FENCELINE2
 70
     0
  3
Fenceline square ----[]-----[]----[]-----[]----
 72
    65
 73
     4
 40
36.83
 49
6.349999999999999
 74
     0
 49
-2.54
 74
     4
 75
   132
340
B1
 46
2.54
 50
0.0
 44
-2.54
 45
0.0
 49
-2.54
 74
     0
 49
25.4
 74
     0
  0
LTYPE
  5
B4
330
5
100
AcDbSymbolTableRecord
100
AcDbLinetypeTableRecord
  2
TRACKS
 70
     0
  3
Tracks -|-|-|-|-|-|-|-|-|-|-|-|-|-|-|-|-|-|-|-|
 72
    65
 73
     2
 40
7.62
 49
3.81
 74
     4
 75
   130
340
B1
 46
6.349999999999999
 50
0.0
 44
0.0
 45
0.0
 49
3.81
 74
     0
  0
LTYPE
  5
B5
330
5
100
AcDbSymbolTableRecord
100
AcDbLinetypeTableRecord
  2
BATTING
 70
     0
  3
Batting SSSSSSSSSSSSSSSSSSSSSSSSSSSSSSSSSSSSSSS
 72
    65
 73
     4
 40
10.16254
 49
0.00254
 74
     0
 49
-2.54
 74
     4
 75
   134
340
B1
 46
2.54
 50
0.0
 44
-2.54
 45
0.0
 49
-5.08
 74
     4
 75
   134
340
B1
 46
2.54
 50
180.0
 44
2.54
 45
0.0
 49
-2.54
 74
     0
  0
LTYPE
  5
B6
330
5
100
AcDbSymbolTableRecord
100
AcDbLinetypeTableRecord
  2
HOT_WATER_SUPPLY
 70
     0
  3
Hot water supply ---- HW ---- HW ---- HW ----
 72
    65
 73
     3
 40
22.86
 49
12.7
 74
     0
 49
-5.08
 74
     2
 75
     0
340
5D
 46
2.54
 50
0.0
 44
-2.54
 45
-1.27
  9
HW
 49
-5.08
 74
     0
  0
LTYPE
  5
B7
330
5
100
AcDbSymbolTableRecord
100
AcDbLinetypeTableRecord
  2
GAS_LINE
 70
     0
  3
Gas line ----GAS----GAS----GAS----GAS----GAS---
 72
    65
 73
     3
 40
24.13
 49
12.7
 74
     0
 49
-5.08
 74
     2
 75
     0
340
5D
 46
2.54
 50
0.0
 44
-2.54
 45
-1.27
  9
GAS
 49
-6.349999999999999
 74
     0
  0
LTYPE
  5
B8
330
5
100
AcDbSymbolTableRecord
100
AcDbLinetypeTableRecord
  2
ZIGZAG
 70
     0
  3
Zig zag /\/\/\/\/\/\/\/\/\/\/\/\/\/\/\/\/\/\/\/
 72
    65
 73
     4
 40
20.32254
 49
0.00254
 74
     0
 49
-5.08
 74
     4
 75
   131
340
B1
 46
5.08
 50
0.0
 44
-5.08
 45
0.0
 49
-10.16
 74
     4
 75
   131
340
B1
 46
5.08
 50
180.0
 44
5.08
 45
0.0
 49
-5.08
 74
     0
  0
ENDTAB
  0
TABLE
  2
LAYER
  5
2
330
0
100
AcDbSymbolTable
 70
    26
  0
LAYER
  5
5C
330
2
100
AcDbSymbolTableRecord
100
AcDbLayerTableRecord
  2
0
 70
     0
 62
     7
  6
Continuous
370
    -3
390
F
  0
LAYER
  5
CA
330
2
100
AcDbSymbolTableRecord
100
AcDbLayerTableRecord
  2
Sichtbar MD
 70
     0
 62
     7
  6
Continuous
370
    35
390
F
  0
ENDTAB
  0
TABLE
  2
STYLE
  5
3
330
0
100
AcDbSymbolTable
 70
     3
  0
STYLE
  5
5D
330
3
100
AcDbSymbolTableRecord
100
AcDbTextStyleTableRecord
  2
Standard
 70
     0
 40
0.0
 41
1.0
 50
0.0
 71
     0
 42
0.2
  3
isocpeur.ttf
  4

1001
ACAD
1000
ISOCPEUR
1071
      256
  0
STYLE
  5
62
330
3
100
AcDbSymbolTableRecord
100
AcDbTextStyleTableRecord
  2
Annotative
 70
     0
 40
0.0
 41
1.0
 50
0.0
 71
     0
 42
0.2
  3

  4

1001
AcadAnnotative
1000
AnnotativeData
1002
{
1070
     1
1070
     1
1002
}
  0
STYLE
  5
B1
330
3
100
AcDbSymbolTableRecord
100
AcDbTextStyleTableRecord
  2

 70
     1
 40
0.0
 41
1.0
 50
0.0
 71
     0
 42
0.2
  3
ltypeshp.shx
  4

  0
ENDTAB
  0
TABLE
  2
VIEW
  5
6
330
0
100
AcDbSymbolTable
 70
     0
  0
ENDTAB
  0
TABLE
  2
UCS
  5
7
330
0
100
AcDbSymbolTable
 70
     0
  0
ENDTAB
  0
TABLE
  2
APPID
  5
9
330
0
100
AcDbSymbolTable
 70
     3
  0
APPID
  5
5E
330
9
100
AcDbSymbolTableRecord
100
AcDbRegAppTableRecord
  2
ACAD
 70
     0
  0
APPID
  5
66
330
9
100
AcDbSymbolTableRecord
100
AcDbRegAppTableRecord
  2
AcadAnnotative
 70
     0
  0
APPID
  5
70
330
9
100
AcDbSymbolTableRecord
100
AcDbRegAppTableRecord
  2
ACAD_MLEADERVER
 70
     0
  0
ENDTAB
  0
TABLE
  2
DIMSTYLE
  5
A
330
0
100
AcDbSymbolTable
 70
     2
100
AcDbDimStyleTable
 71
     0
  0
DIMSTYLE
105
60
330
A
100
AcDbSymbolTableRecord
100
AcDbDimStyleTableRecord
  2
Standard
 70
     0
340
5D
  0
DIMSTYLE
105
61
330
A
100
AcDbSymbolTableRecord
100
AcDbDimStyleTableRecord
  2
Annotative
 70
     0
340
5D
1001
AcadAnnotative
1000
AnnotativeData
1002
{
1070
     1
1070
     1
1002
}
  0
ENDTAB
  0
TABLE
  2
BLOCK_RECORD
  5
1
330
0
100
AcDbSymbolTable
 70
     1
  0
BLOCK_RECORD
  5
75
330
1
100
AcDbSymbolTableRecord
100
AcDbBlockTableRecord
  2
*Model_Space
340
78
  0
BLOCK_RECORD
  5
71
330
1
100
AcDbSymbolTableRecord
100
AcDbBlockTableRecord
  2
*Paper_Space
340
74
  0
BLOCK_RECORD
  5
79
330
1
100
AcDbSymbolTableRecord
100
AcDbBlockTableRecord
  2
*Paper_Space0
340
7C
  0
ENDTAB
  0
ENDSEC
  0
SECTION
  2
BLOCKS
  0
BLOCK
  5
76
330
75
100
AcDbEntity
  8
0
100
AcDbBlockBegin
  2
*Model_Space
 70
     0
 10
0.0
 20
0.0
 30
0.0
  3
*Model_Space
  1

  0
ENDBLK
  5
77
330
75
100
AcDbEntity
  8
0
100
AcDbBlockEnd
  0
BLOCK
  5
72
330
71
100
AcDbEntity
 67
     1
  8
0
100
AcDbBlockBegin
  2
*Paper_Space
 70
     0
 10
0.0
 20
0.0
 30
0.0
  3
*Paper_Space
  1

  0
ENDBLK
  5
73
330
71
100
AcDbEntity
 67
     1
  8
0
100
AcDbBlockEnd
  0
BLOCK
  5
7A
330
79
100
AcDbEntity
 67
     1
  8
0
100
AcDbBlockBegin
  2
*Paper_Space0
 70
     0
 10
0.0
 20
0.0
 30
0.0
  3
*Paper_Space0
  1

  0
ENDBLK
  5
7B
330
79
100
AcDbEntity
 67
     1
  8
0
100
AcDbBlockEnd
  0
ENDSEC
  0
SECTION
  2
ENTITIES
  0
LINE
  5
D2
330
75
100
AcDbEntity
  8
Sichtbar MD
100
AcDbLine
 10
69.51240096673908
 20
121.4046181875061
 30
0.0
 11
69.51240096673908
 21
112.9193368132676
 31
0.0
  0
LINE
  5
D3
330
75
100
AcDbEntity
  8
Sichtbar MD
100
AcDbLine
 10
79.51240096673908
 20
112.9193368132676
 30
0.0
 11
79.51240096673908
 21
121.4046181875061
 31
0.0
  0
LINE
  5
D4
330
75
100
AcDbEntity
  8
Sichtbar MD
100
AcDbLine
 10
79.51240096673908
 20
112.9193368132675
 30
0.0
 11
69.5124009667391
 21
112.9193368132675
 31
0.0
  0
LINE
  5
D5
330
75
100
AcDbEntity
  8
Sichtbar MD
100
AcDbLine
 10
69.5124009667391
 20
121.4046181875061
 30
0.0
 11
79.51240096673908
 21
121.4046181875061
 31
0.0
  0
LINE
  5
D6
330
75
100
AcDbEntity
  8
Sichtbar MD
100
AcDbLine
 10
54.51240096673912
 20
108.6619775003869
 30
0.0
 11
54.51240096673912
 21
125.6619775003868
 31
0.0
  0
ARC
  5
D7
330
75
100
AcDbEntity
  8
Sichtbar MD
100
AcDbCircle
 10
55.51240096673911
 20
108.6619775003869
 30
0.0
 40
0.9999999999999985
100
AcDbArc
 50
180.0
 51
270.0
  0
ARC
  5
D8
330
75
100
AcDbEntity
  8
Sichtbar MD
100
AcDbCircle
 10
55.51240096673911
 20
125.6619775003868
 30
0.0
 40
0.9999999999999985
100
AcDbArc
 50
90.0
 51
180.0
  0
LINE
  5
D9
330
75
100
AcDbEntity
  8
Sichtbar MD
100
AcDbLine
 10
55.51240096673914
 20
126.6619775003868
 30
0.0
 11
80.51240096673895
 21
126.6619775003868
 31
0.0
  0
LINE
  5
DA
330
75
100
AcDbEntity
  8
Sichtbar MD
100
AcDbLine
 10
93.51240096673894
 20
126.6619775003868
 30
0.0
 11
93.61240096673896
 21
126.6619775003868
 31
0.0
  0
LINE
  5
DB
330
75
100
AcDbEntity
  8
Sichtbar MD
100
AcDbLine
 10
55.51240096673911
 20
107.6619775003869
 30
0.0
 11
80.51240096673895
 21
107.6619775003869
 31
0.0
  0
LINE
  5
DC
330
75
100
AcDbEntity
  8
Sichtbar MD
100
AcDbLine
 10
93.51240096673894
 20
107.6619775003869
 30
0.0
 11
93.61240096673896
 21
107.6619775003869
 31
0.0
  0
LINE
  5
DD
330
75
100
AcDbEntity
  8
Sichtbar MD
100
AcDbLine
 10
93.61240096673901
 20
96.16197750038692
 30
0.0
 11
93.61240096673901
 21
138.1619775003869
 31
0.0
  0
LINE
  5
DE
330
75
100
AcDbEntity
  8
Sichtbar MD
100
AcDbLine
 10
218.6124009667391
 20
96.16197750038683
 30
0.0
 11
218.6124009667391
 21
138.1619775003869
 31
0.0
  0
LINE
  5
DF
330
75
100
AcDbEntity
  8
Sichtbar MD
100
AcDbLine
 10
93.61240096673903
 20
138.1619775003869
 30
0.0
 11
218.6124009667391
 21
138.1619775003869
 31
0.0
  0
LINE
  5
E0
330
75
100
AcDbEntity
  8
Sichtbar MD
100
AcDbLine
 10
93.61240096673903
 20
96.16197750038688
 30
0.0
 11
218.6124009667391
 21
96.16197750038683
 31
0.0
  0
LINE
  5
E1
330
75
100
AcDbEntity
  8
Sichtbar MD
100
AcDbLine
 10
220.6124009667391
 20
125.389218836339
 30
0.0
 11
220.6124009667391
 21
126.6619775003868
 31
0.0
  0
LINE
  5
E2
330
75
100
AcDbEntity
  8
Sichtbar MD
100
AcDbLine
 10
220.6124009667391
 20
107.6619775003868
 30
0.0
 11
220.6124009667391
 21
108.9347361644347
 31
0.0
  0
LINE
  5
E3
330
75
100
AcDbEntity
  8
Sichtbar MD
100
AcDbLine
 10
220.6124009667391
 20
108.9347361644347
 30
0.0
 11
220.6124009667391
 21
117.1619775003868
 31
0.0
  0
LINE
  5
E4
330
75
100
AcDbEntity
  8
Sichtbar MD
100
AcDbLine
 10
220.6124009667391
 20
117.1619775003868
 30
0.0
 11
220.6124009667391
 21
125.389218836339
 31
0.0
  0
LINE
  5
E5
330
75
100
AcDbEntity
  8
Sichtbar MD
100
AcDbLine
 10
226.1124009667391
 20
126.6619775003868
 30
0.0
 11
226.1124009667391
 21
125.389218836339
 31
0.0
  0
LINE
  5
E6
330
75
100
AcDbEntity
  8
Sichtbar MD
100
AcDbLine
 10
226.1124009667391
 20
125.389218836339
 30
0.0
 11
226.1124009667391
 21
117.1619775003868
 31
0.0
  0
LINE
  5
E7
330
75
100
AcDbEntity
  8
Sichtbar MD
100
AcDbLine
 10
226.1124009667391
 20
117.1619775003868
 30
0.0
 11
226.1124009667391
 21
108.9347361644346
 31
0.0
  0
LINE
  5
E8
330
75
100
AcDbEntity
  8
Sichtbar MD
100
AcDbLine
 10
226.1124009667391
 20
108.9347361644347
 30
0.0
 11
226.1124009667391
 21
107.6619775003868
 31
0.0
  0
POLYLINE
  5
E9
330
75
100
AcDbEntity
  8
Sichtbar MD
100
AcDb2dPolyline
 66
     1
 10
0.0
 20
0.0
 30
0.0
 70
   128
  0
VERTEX
  5
EA
330
E9
100
AcDbEntity
  8
Sichtbar MD
100
AcDbVertex
100
AcDb2dVertex
 10
220.6124010144228
 20
125.389218539663
 30
0.0
  0
VERTEX
  5
EB
330
E9
100
AcDbEntity
  8
Sichtbar MD
100
AcDbVertex
100
AcDb2dVertex
 10
220.6134113131517
 20
125.4804070896584
 30
0.0
  0
VERTEX
  5
ED
330
E9
100
AcDbEntity
  8
Sichtbar MD
100
AcDbVertex
100
AcDb2dVertex
 10
220.6164338646883
 20
125.5714072889763
 30
0.0
  0
VERTEX
  5
EE
330
E9
100
AcDbEntity
  8
Sichtbar MD
100
AcDbVertex
100
AcDb2dVertex
 10
220.6214555560106
 20
125.6622686094719
 30
0.0
  0
VERTEX
  5
EF
330
E9
100
AcDbEntity
  8
Sichtbar MD
100
AcDbVertex
100
AcDb2dVertex
 10
220.6284662543291
 20
125.7530417150932
 30
0.0
  0
VERTEX
  5
F0
330
E9
100
AcDbEntity
  8
Sichtbar MD
100
AcDbVertex
100
AcDb2dVertex
 10
220.6374582110399
 20
125.8437760776955
 30
0.0
  0
VERTEX
  5
F1
330
E9
100
AcDbEntity
  8
Sichtbar MD
100
AcDbVertex
100
AcDb2dVertex
 10
220.6484254656786
 20
125.9345205730873
 30
0.0
  0
VERTEX
  5
F2
330
E9
100
AcDbEntity
  8
Sichtbar MD
100
AcDbVertex
100
AcDb2dVertex
 10
220.66136384592
 20
126.0253240770775
 30
0.0
  0
VERTEX
  5
F3
330
E9
100
AcDbEntity
  8
Sichtbar MD
100
AcDbVertex
100
AcDb2dVertex
 10
220.6762733517641
 20
126.1162336773354
 30
0.0
  0
VERTEX
  5
F4
330
E9
100
AcDbEntity
  8
Sichtbar MD
100
AcDbVertex
100
AcDb2dVertex
 10
220.693152791118
 20
126.2072994417626
 30
0.0
  0
VERTEX
  5
F5
330
E9
100
AcDbEntity
  8
Sichtbar MD
100
AcDbVertex
100
AcDb2dVertex
 10
220.712006336307
 20
126.298567861982
 30
0.0
  0
VERTEX
  5
F6
330
E9
100
AcDbEntity
  8
Sichtbar MD
100
AcDbVertex
100
AcDb2dVertex
 10
220.7328375636095
 20
126.3900884098488
 30
0.0
  0
VERTEX
  5
F7
330
E9
100
AcDbEntity
  8
Sichtbar MD
100
AcDbVertex
100
AcDb2dVertex
 10
220.7556542216295
 20
126.4819093651253
 30
0.0
  0
VERTEX
  5
F8
330
E9
100
AcDbEntity
  8
Sichtbar MD
100
AcDbVertex
100
AcDb2dVertex
 10
220.7804652510637
 20
126.5740784115273
 30
0.0
  0
VERTEX
  5
F9
330
E9
100
AcDbEntity
  8
Sichtbar MD
100
AcDbVertex
100
AcDb2dVertex
 10
220.8072819767946
 20
126.6666444248635
 30
0.0
  0
VERTEX
  5
FA
330
E9
100
AcDbEntity
  8
Sichtbar MD
100
AcDbVertex
100
AcDb2dVertex
 10
220.8361169157976
 20
126.7596574730355
 30
0.0
  0
VERTEX
  5
FB
330
E9
100
AcDbEntity
  8
Sichtbar MD
100
AcDbVertex
100
AcDb2dVertex
 10
220.8669861613268
 20
126.8531670278984
 30
0.0
  0
VERTEX
  5
FC
330
E9
100
AcDbEntity
  8
Sichtbar MD
100
AcDbVertex
100
AcDb2dVertex
 10
220.8999069987291
 20
126.9472225613075
 30
0.0
  0
VERTEX
  5
FD
330
E9
100
AcDbEntity
  8
Sichtbar MD
100
AcDbVertex
100
AcDb2dVertex
 10
220.9348990975374
 20
127.0418753332573
 30
0.0
  0
VERTEX
  5
FE
330
E9
100
AcDbEntity
  8
Sichtbar MD
100
AcDbVertex
100
AcDb2dVertex
 10
220.9719851075167
 20
127.1371771997887
 30
0.0
  0
VERTEX
  5
FF
330
E9
100
AcDbEntity
  8
Sichtbar MD
100
AcDbVertex
100
AcDb2dVertex
 10
221.0111882744783
 20
127.2331800169426
 30
0.0
  0
VERTEX
  5
100
330
E9
100
AcDbEntity
  8
Sichtbar MD
100
AcDbVertex
100
AcDb2dVertex
 10
221.0525366126055
 20
127.3299374288994
 30
0.0
  0
VERTEX
  5
101
330
E9
100
AcDbEntity
  8
Sichtbar MD
100
AcDbVertex
100
AcDb2dVertex
 10
221.0960581360811
 20
127.4275042719322
 30
0.0
  0
VERTEX
  5
102
330
E9
100
AcDbEntity
  8
Sichtbar MD
100
AcDbVertex
100
AcDb2dVertex
 10
221.1417850314135
 20
127.5259353823143
 30
0.0
  0
VERTEX
  5
103
330
E9
100
AcDbEntity
  8
Sichtbar MD
100
AcDbVertex
100
AcDb2dVertex
 10
221.18975127325
 20
127.6252867884117
 30
0.0
  0
SEQEND
  5
EC
330
E9
100
AcDbEntity
  8
Sichtbar MD
  0
LINE
  5
104
330
75
100
AcDbEntity
  8
Sichtbar MD
100
AcDbLine
 10
221.1897512359287
 20
127.6619775003868
 30
0.0
 11
221.1897512359287
 21
127.6252868138388
 31
0.0
  0
LINE
  5
105
330
75
100
AcDbEntity
  8
Sichtbar MD
100
AcDbLine
 10
221.1897512359287
 20
106.6986681869349
 30
0.0
 11
221.1897512359287
 21
106.6619775003868
 31
0.0
  0
POLYLINE
  5
106
330
75
100
AcDbEntity
  8
Sichtbar MD
100
AcDb2dPolyline
 66
     1
 10
0.0
 20
0.0
 30
0.0
 70
   128
  0
VERTEX
  5
107
330
106
100
AcDbEntity
  8
Sichtbar MD
100
AcDbVertex
100
AcDb2dVertex
 10
221.18975127325
 20
106.6986682123619
 30
0.0
  0
VERTEX
  5
108
330
106
100
AcDbEntity
  8
Sichtbar MD
100
AcDbVertex
100
AcDb2dVertex
 10
221.1417850314135
 20
106.7980196184593
 30
0.0
  0
VERTEX
  5
10A
330
106
100
AcDbEntity
  8
Sichtbar MD
100
AcDbVertex
100
AcDb2dVertex
 10
221.0960581360811
 20
106.8964507288414
 30
0.0
  0
VERTEX
  5
10B
330
106
100
AcDbEntity
  8
Sichtbar MD
100
AcDbVertex
100
AcDb2dVertex
 10
221.0525366126055
 20
106.9940175718743
 30
0.0
  0
VERTEX
  5
10C
330
106
100
AcDbEntity
  8
Sichtbar MD
100
AcDbVertex
100
AcDb2dVertex
 10
221.0111882744783
 20
107.090774983831
 30
0.0
  0
VERTEX
  5
10D
330
106
100
AcDbEntity
  8
Sichtbar MD
100
AcDbVertex
100
AcDb2dVertex
 10
220.9719851075167
 20
107.186777800985
 30
0.0
  0
VERTEX
  5
10E
330
106
100
AcDbEntity
  8
Sichtbar MD
100
AcDbVertex
100
AcDb2dVertex
 10
220.9348990975374
 20
107.2820796675163
 30
0.0
  0
VERTEX
  5
10F
330
106
100
AcDbEntity
  8
Sichtbar MD
100
AcDbVertex
100
AcDb2dVertex
 10
220.8999069987291
 20
107.3767324394661
 30
0.0
  0
VERTEX
  5
110
330
106
100
AcDbEntity
  8
Sichtbar MD
100
AcDbVertex
100
AcDb2dVertex
 10
220.8669861613268
 20
107.4707879728752
 30
0.0
  0
VERTEX
  5
111
330
106
100
AcDbEntity
  8
Sichtbar MD
100
AcDbVertex
100
AcDb2dVertex
 10
220.8361169157976
 20
107.5642975277382
 30
0.0
  0
VERTEX
  5
112
330
106
100
AcDbEntity
  8
Sichtbar MD
100
AcDbVertex
100
AcDb2dVertex
 10
220.8072819767946
 20
107.6573105759102
 30
0.0
  0
VERTEX
  5
113
330
106
100
AcDbEntity
  8
Sichtbar MD
100
AcDbVertex
100
AcDb2dVertex
 10
220.7804652510637
 20
107.7498765892464
 30
0.0
  0
VERTEX
  5
114
330
106
100
AcDbEntity
  8
Sichtbar MD
100
AcDbVertex
100
AcDb2dVertex
 10
220.7556542216295
 20
107.8420456356484
 30
0.0
  0
VERTEX
  5
115
330
106
100
AcDbEntity
  8
Sichtbar MD
100
AcDbVertex
100
AcDb2dVertex
 10
220.7328375636095
 20
107.9338665909248
 30
0.0
  0
VERTEX
  5
116
330
106
100
AcDbEntity
  8
Sichtbar MD
100
AcDbVertex
100
AcDb2dVertex
 10
220.712006336307
 20
108.0253871387917
 30
0.0
  0
VERTEX
  5
117
330
106
100
AcDbEntity
  8
Sichtbar MD
100
AcDbVertex
100
AcDb2dVertex
 10
220.693152791118
 20
108.1166555590111
 30
0.0
  0
VERTEX
  5
118
330
106
100
AcDbEntity
  8
Sichtbar MD
100
AcDbVertex
100
AcDb2dVertex
 10
220.6762733517641
 20
108.2077213234383
 30
0.0
  0
VERTEX
  5
119
330
106
100
AcDbEntity
  8
Sichtbar MD
100
AcDbVertex
100
AcDb2dVertex
 10
220.66136384592
 20
108.2986309236962
 30
0.0
  0
VERTEX
  5
11A
330
106
100
AcDbEntity
  8
Sichtbar MD
100
AcDbVertex
100
AcDb2dVertex
 10
220.6484254656786
 20
108.3894344276863
 30
0.0
  0
VERTEX
  5
11B
330
106
100
AcDbEntity
  8
Sichtbar MD
100
AcDbVertex
100
AcDb2dVertex
 10
220.6374582110399
 20
108.4801789230782
 30
0.0
  0
VERTEX
  5
11C
330
106
100
AcDbEntity
  8
Sichtbar MD
100
AcDbVertex
100
AcDb2dVertex
 10
220.6284662543291
 20
108.5709132856804
 30
0.0
  0
VERTEX
  5
11D
330
106
100
AcDbEntity
  8
Sichtbar MD
100
AcDbVertex
100
AcDb2dVertex
 10
220.6214555560106
 20
108.6616863913018
 30
0.0
  0
VERTEX
  5
11E
330
106
100
AcDbEntity
  8
Sichtbar MD
100
AcDbVertex
100
AcDb2dVertex
 10
220.6164338646883
 20
108.7525477117974
 30
0.0
  0
VERTEX
  5
11F
330
106
100
AcDbEntity
  8
Sichtbar MD
100
AcDbVertex
100
AcDb2dVertex
 10
220.6134113131517
 20
108.8435479111153
 30
0.0
  0
VERTEX
  5
120
330
106
100
AcDbEntity
  8
Sichtbar MD
100
AcDbVertex
100
AcDb2dVertex
 10
220.6124010144228
 20
108.9347364611107
 30
0.0
  0
SEQEND
  5
109
330
106
100
AcDbEntity
  8
Sichtbar MD
  0
POLYLINE
  5
121
330
75
100
AcDbEntity
  8
Sichtbar MD
100
AcDb2dPolyline
 66
     1
 10
0.0
 20
0.0
 30
0.0
 70
   128
  0
VERTEX
  5
122
330
121
100
AcDbEntity
  8
Sichtbar MD
100
AcDbVertex
100
AcDb2dVertex
 10
220.6124010144228
 20
108.9347364611107
 30
0.0
  0
VERTEX
  5
123
330
121
100
AcDbEntity
  8
Sichtbar MD
100
AcDbVertex
100
AcDb2dVertex
 10
220.6134113131517
 20
109.0259244150597
 30
0.0
  0
VERTEX
  5
125
330
121
100
AcDbEntity
  8
Sichtbar MD
100
AcDbVertex
100
AcDb2dVertex
 10
220.6164338646883
 20
109.1169246143776
 30
0.0
  0
VERTEX
  5
126
330
121
100
AcDbEntity
  8
Sichtbar MD
100
AcDbVertex
100
AcDb2dVertex
 10
220.6214555560106
 20
109.2077859348732
 30
0.0
  0
VERTEX
  5
127
330
121
100
AcDbEntity
  8
Sichtbar MD
100
AcDbVertex
100
AcDb2dVertex
 10
220.6284662543291
 20
109.2985590404946
 30
0.0
  0
VERTEX
  5
128
330
121
100
AcDbEntity
  8
Sichtbar MD
100
AcDbVertex
100
AcDb2dVertex
 10
220.6374582110399
 20
109.3892934030968
 30
0.0
  0
VERTEX
  5
129
330
121
100
AcDbEntity
  8
Sichtbar MD
100
AcDbVertex
100
AcDb2dVertex
 10
220.6484254656786
 20
109.4800378984886
 30
0.0
  0
VERTEX
  5
12A
330
121
100
AcDbEntity
  8
Sichtbar MD
100
AcDbVertex
100
AcDb2dVertex
 10
220.66136384592
 20
109.5708414024788
 30
0.0
  0
VERTEX
  5
12B
330
121
100
AcDbEntity
  8
Sichtbar MD
100
AcDbVertex
100
AcDb2dVertex
 10
220.6762733517641
 20
109.6617510027367
 30
0.0
  0
VERTEX
  5
12C
330
121
100
AcDbEntity
  8
Sichtbar MD
100
AcDbVertex
100
AcDb2dVertex
 10
220.693152791118
 20
109.7528167671639
 30
0.0
  0
VERTEX
  5
12D
330
121
100
AcDbEntity
  8
Sichtbar MD
100
AcDbVertex
100
AcDb2dVertex
 10
220.712006336307
 20
109.8440851873833
 30
0.0
  0
VERTEX
  5
12E
330
121
100
AcDbEntity
  8
Sichtbar MD
100
AcDbVertex
100
AcDb2dVertex
 10
220.7328375636095
 20
109.9356057352501
 30
0.0
  0
VERTEX
  5
12F
330
121
100
AcDbEntity
  8
Sichtbar MD
100
AcDbVertex
100
AcDb2dVertex
 10
220.7556542216295
 20
110.0274266905266
 30
0.0
  0
VERTEX
  5
130
330
121
100
AcDbEntity
  8
Sichtbar MD
100
AcDbVertex
100
AcDb2dVertex
 10
220.7804652510637
 20
110.1195957369286
 30
0.0
  0
VERTEX
  5
131
330
121
100
AcDbEntity
  8
Sichtbar MD
100
AcDbVertex
100
AcDb2dVertex
 10
220.8072819767946
 20
110.2121617502648
 30
0.0
  0
VERTEX
  5
132
330
121
100
AcDbEntity
  8
Sichtbar MD
100
AcDbVertex
100
AcDb2dVertex
 10
220.8361169157976
 20
110.3051747984368
 30
0.0
  0
VERTEX
  5
133
330
121
100
AcDbEntity
  8
Sichtbar MD
100
AcDbVertex
100
AcDb2dVertex
 10
220.8669861613268
 20
110.3986843532997
 30
0.0
  0
VERTEX
  5
134
330
121
100
AcDbEntity
  8
Sichtbar MD
100
AcDbVertex
100
AcDb2dVertex
 10
220.8999069987291
 20
110.4927398867088
 30
0.0
  0
VERTEX
  5
135
330
121
100
AcDbEntity
  8
Sichtbar MD
100
AcDbVertex
100
AcDb2dVertex
 10
220.9348990975374
 20
110.5873926586586
 30
0.0
  0
VERTEX
  5
136
330
121
100
AcDbEntity
  8
Sichtbar MD
100
AcDbVertex
100
AcDb2dVertex
 10
220.9719851075167
 20
110.68269452519
 30
0.0
  0
VERTEX
  5
137
330
121
100
AcDbEntity
  8
Sichtbar MD
100
AcDbVertex
100
AcDb2dVertex
 10
221.0111882744783
 20
110.7786979383904
 30
0.0
  0
VERTEX
  5
138
330
121
100
AcDbEntity
  8
Sichtbar MD
100
AcDbVertex
100
AcDb2dVertex
 10
221.0525366126055
 20
110.8754553503471
 30
0.0
  0
VERTEX
  5
139
330
121
100
AcDbEntity
  8
Sichtbar MD
100
AcDbVertex
100
AcDb2dVertex
 10
221.0960581360811
 20
110.9730215973335
 30
0.0
  0
VERTEX
  5
13A
330
121
100
AcDbEntity
  8
Sichtbar MD
100
AcDbVertex
100
AcDb2dVertex
 10
221.1417850314135
 20
111.0714521116692
 30
0.0
  0
VERTEX
  5
13B
330
121
100
AcDbEntity
  8
Sichtbar MD
100
AcDbVertex
100
AcDb2dVertex
 10
221.18975127325
 20
111.170804113813
 30
0.0
  0
SEQEND
  5
124
330
121
100
AcDbEntity
  8
Sichtbar MD
  0
LINE
  5
13C
330
75
100
AcDbEntity
  8
Sichtbar MD
100
AcDbLine
 10
221.1897512359287
 20
112.6898415453872
 30
0.0
 11
221.1897512359287
 21
111.1708041419344
 31
0.0
  0
POLYLINE
  5
13D
330
75
100
AcDbEntity
  8
Sichtbar MD
100
AcDb2dPolyline
 66
     1
 10
0.0
 20
0.0
 30
0.0
 70
   128
  0
VERTEX
  5
13E
330
13D
100
AcDbEntity
  8
Sichtbar MD
100
AcDbVertex
100
AcDb2dVertex
 10
221.18975127325
 20
112.6898415989357
 30
0.0
  0
VERTEX
  5
13F
330
13D
100
AcDbEntity
  8
Sichtbar MD
100
AcDbVertex
100
AcDb2dVertex
 10
221.1417850314135
 20
112.888545007177
 30
0.0
  0
VERTEX
  5
141
330
13D
100
AcDbEntity
  8
Sichtbar MD
100
AcDbVertex
100
AcDb2dVertex
 10
221.0960581360811
 20
113.0854066318947
 30
0.0
  0
VERTEX
  5
142
330
13D
100
AcDbEntity
  8
Sichtbar MD
100
AcDbVertex
100
AcDb2dVertex
 10
221.0525366126055
 20
113.2805394238907
 30
0.0
  0
VERTEX
  5
143
330
13D
100
AcDbEntity
  8
Sichtbar MD
100
AcDbVertex
100
AcDb2dVertex
 10
221.0111882744783
 20
113.4740545458275
 30
0.0
  0
VERTEX
  5
144
330
13D
100
AcDbEntity
  8
Sichtbar MD
100
AcDbVertex
100
AcDb2dVertex
 10
220.9719851075167
 20
113.6660604781586
 30
0.0
  0
VERTEX
  5
145
330
13D
100
AcDbEntity
  8
Sichtbar MD
100
AcDbVertex
100
AcDb2dVertex
 10
220.9348990975374
 20
113.8566639131981
 30
0.0
  0
VERTEX
  5
146
330
13D
100
AcDbEntity
  8
Sichtbar MD
100
AcDbVertex
100
AcDb2dVertex
 10
220.8999069987291
 20
114.0459697551209
 30
0.0
  0
VERTEX
  5
147
330
13D
100
AcDbEntity
  8
Sichtbar MD
100
AcDbVertex
100
AcDb2dVertex
 10
220.8669861613268
 20
114.2340811199623
 30
0.0
  0
VERTEX
  5
148
330
13D
100
AcDbEntity
  8
Sichtbar MD
100
AcDbVertex
100
AcDb2dVertex
 10
220.8361169157976
 20
114.4210996336418
 30
0.0
  0
VERTEX
  5
149
330
13D
100
AcDbEntity
  8
Sichtbar MD
100
AcDbVertex
100
AcDb2dVertex
 10
220.8072819767946
 20
114.6071257299858
 30
0.0
  0
VERTEX
  5
14A
330
13D
100
AcDbEntity
  8
Sichtbar MD
100
AcDbVertex
100
AcDb2dVertex
 10
220.7804652510637
 20
114.7922586507279
 30
0.0
  0
VERTEX
  5
14B
330
13D
100
AcDbEntity
  8
Sichtbar MD
100
AcDbVertex
100
AcDb2dVertex
 10
220.7556542216295
 20
114.9765968925434
 30
0.0
  0
VERTEX
  5
14C
330
13D
100
AcDbEntity
  8
Sichtbar MD
100
AcDbVertex
100
AcDb2dVertex
 10
220.7328375636095
 20
115.1602379090267
 30
0.0
  0
VERTEX
  5
14D
330
13D
100
AcDbEntity
  8
Sichtbar MD
100
AcDbVertex
100
AcDb2dVertex
 10
220.712006336307
 20
115.3432790047604
 30
0.0
  0
VERTEX
  5
14E
330
13D
100
AcDbEntity
  8
Sichtbar MD
100
AcDbVertex
100
AcDb2dVertex
 10
220.693152791118
 20
115.5258165902573
 30
0.0
  0
VERTEX
  5
14F
330
13D
100
AcDbEntity
  8
Sichtbar MD
100
AcDbVertex
100
AcDb2dVertex
 10
220.6762733517641
 20
115.7079473740536
 30
0.0
  0
VERTEX
  5
150
330
13D
100
AcDbEntity
  8
Sichtbar MD
100
AcDbVertex
100
AcDb2dVertex
 10
220.66136384592
 20
115.889767468639
 30
0.0
  0
VERTEX
  5
151
330
13D
100
AcDbEntity
  8
Sichtbar MD
100
AcDbVertex
100
AcDb2dVertex
 10
220.6484254656786
 20
116.0713735825497
 30
0.0
  0
VERTEX
  5
152
330
13D
100
AcDbEntity
  8
Sichtbar MD
100
AcDbVertex
100
AcDb2dVertex
 10
220.6374582110399
 20
116.2528624243218
 30
0.0
  0
VERTEX
  5
153
330
13D
100
AcDbEntity
  8
Sichtbar MD
100
AcDbVertex
100
AcDb2dVertex
 10
220.6284662543291
 20
116.4343312985378
 30
0.0
  0
VERTEX
  5
154
330
13D
100
AcDbEntity
  8
Sichtbar MD
100
AcDbVertex
100
AcDb2dVertex
 10
220.6214555560106
 20
116.6158779568154
 30
0.0
  0
VERTEX
  5
155
330
13D
100
AcDbEntity
  8
Sichtbar MD
100
AcDbVertex
100
AcDb2dVertex
 10
220.6164338646883
 20
116.797601193853
 30
0.0
  0
VERTEX
  5
156
330
13D
100
AcDbEntity
  8
Sichtbar MD
100
AcDbVertex
100
AcDb2dVertex
 10
220.6134113131517
 20
116.9796007356721
 30
0.0
  0
VERTEX
  5
157
330
13D
100
AcDbEntity
  8
Sichtbar MD
100
AcDbVertex
100
AcDb2dVertex
 10
220.6124010144228
 20
117.1619775003868
 30
0.0
  0
SEQEND
  5
140
330
13D
100
AcDbEntity
  8
Sichtbar MD
  0
POLYLINE
  5
158
330
75
100
AcDbEntity
  8
Sichtbar MD
100
AcDb2dPolyline
 66
     1
 10
0.0
 20
0.0
 30
0.0
 70
   128
  0
VERTEX
  5
159
330
158
100
AcDbEntity
  8
Sichtbar MD
100
AcDbVertex
100
AcDb2dVertex
 10
220.6124010144228
 20
117.1619775003868
 30
0.0
  0
VERTEX
  5
15A
330
158
100
AcDbEntity
  8
Sichtbar MD
100
AcDbVertex
100
AcDb2dVertex
 10
220.6134113131517
 20
117.3443542651015
 30
0.0
  0
VERTEX
  5
15C
330
158
100
AcDbEntity
  8
Sichtbar MD
100
AcDbVertex
100
AcDb2dVertex
 10
220.6164338646883
 20
117.5263538069206
 30
0.0
  0
VERTEX
  5
15D
330
158
100
AcDbEntity
  8
Sichtbar MD
100
AcDbVertex
100
AcDb2dVertex
 10
220.6214555560106
 20
117.7080770439583
 30
0.0
  0
VERTEX
  5
15E
330
158
100
AcDbEntity
  8
Sichtbar MD
100
AcDbVertex
100
AcDb2dVertex
 10
220.6284662543291
 20
117.8896237022358
 30
0.0
  0
VERTEX
  5
15F
330
158
100
AcDbEntity
  8
Sichtbar MD
100
AcDbVertex
100
AcDb2dVertex
 10
220.6374582110399
 20
118.0710925764519
 30
0.0
  0
VERTEX
  5
160
330
158
100
AcDbEntity
  8
Sichtbar MD
100
AcDbVertex
100
AcDb2dVertex
 10
220.6484254656786
 20
118.252581418224
 30
0.0
  0
VERTEX
  5
161
330
158
100
AcDbEntity
  8
Sichtbar MD
100
AcDbVertex
100
AcDb2dVertex
 10
220.66136384592
 20
118.4341875321347
 30
0.0
  0
VERTEX
  5
162
330
158
100
AcDbEntity
  8
Sichtbar MD
100
AcDbVertex
100
AcDb2dVertex
 10
220.6762733517641
 20
118.6160076267201
 30
0.0
  0
VERTEX
  5
163
330
158
100
AcDbEntity
  8
Sichtbar MD
100
AcDbVertex
100
AcDb2dVertex
 10
220.693152791118
 20
118.7981384105164
 30
0.0
  0
VERTEX
  5
164
330
158
100
AcDbEntity
  8
Sichtbar MD
100
AcDbVertex
100
AcDb2dVertex
 10
220.712006336307
 20
118.9806759960133
 30
0.0
  0
VERTEX
  5
165
330
158
100
AcDbEntity
  8
Sichtbar MD
100
AcDbVertex
100
AcDb2dVertex
 10
220.7328375636095
 20
119.1637170917469
 30
0.0
  0
VERTEX
  5
166
330
158
100
AcDbEntity
  8
Sichtbar MD
100
AcDbVertex
100
AcDb2dVertex
 10
220.7556542216295
 20
119.3473581082302
 30
0.0
  0
VERTEX
  5
167
330
158
100
AcDbEntity
  8
Sichtbar MD
100
AcDbVertex
100
AcDb2dVertex
 10
220.7804652510637
 20
119.5316963500458
 30
0.0
  0
VERTEX
  5
168
330
158
100
AcDbEntity
  8
Sichtbar MD
100
AcDbVertex
100
AcDb2dVertex
 10
220.8072819767946
 20
119.7168292707878
 30
0.0
  0
VERTEX
  5
169
330
158
100
AcDbEntity
  8
Sichtbar MD
100
AcDbVertex
100
AcDb2dVertex
 10
220.8361169157976
 20
119.9028553671318
 30
0.0
  0
VERTEX
  5
16A
330
158
100
AcDbEntity
  8
Sichtbar MD
100
AcDbVertex
100
AcDb2dVertex
 10
220.8669861613268
 20
120.0898738808113
 30
0.0
  0
VERTEX
  5
16B
330
158
100
AcDbEntity
  8
Sichtbar MD
100
AcDbVertex
100
AcDb2dVertex
 10
220.8999069987291
 20
120.2779852456528
 30
0.0
  0
VERTEX
  5
16C
330
158
100
AcDbEntity
  8
Sichtbar MD
100
AcDbVertex
100
AcDb2dVertex
 10
220.9348990975374
 20
120.4672910875755
 30
0.0
  0
VERTEX
  5
16D
330
158
100
AcDbEntity
  8
Sichtbar MD
100
AcDbVertex
100
AcDb2dVertex
 10
220.9719851075167
 20
120.6578945226151
 30
0.0
  0
VERTEX
  5
16E
330
158
100
AcDbEntity
  8
Sichtbar MD
100
AcDbVertex
100
AcDb2dVertex
 10
221.0111882744783
 20
120.8499004549462
 30
0.0
  0
VERTEX
  5
16F
330
158
100
AcDbEntity
  8
Sichtbar MD
100
AcDbVertex
100
AcDb2dVertex
 10
221.0525366126055
 20
121.043415576883
 30
0.0
  0
VERTEX
  5
170
330
158
100
AcDbEntity
  8
Sichtbar MD
100
AcDbVertex
100
AcDb2dVertex
 10
221.0960581360811
 20
121.2385483688789
 30
0.0
  0
VERTEX
  5
171
330
158
100
AcDbEntity
  8
Sichtbar MD
100
AcDbVertex
100
AcDb2dVertex
 10
221.1417850314135
 20
121.4354099935967
 30
0.0
  0
VERTEX
  5
172
330
158
100
AcDbEntity
  8
Sichtbar MD
100
AcDbVertex
100
AcDb2dVertex
 10
221.18975127325
 20
121.6341134018379
 30
0.0
  0
SEQEND
  5
15B
330
158
100
AcDbEntity
  8
Sichtbar MD
  0
LINE
  5
173
330
75
100
AcDbEntity
  8
Sichtbar MD
100
AcDbLine
 10
221.1897512359287
 20
123.1531508588392
 30
0.0
 11
221.1897512359287
 21
121.6341134553864
 31
0.0
  0
POLYLINE
  5
174
330
75
100
AcDbEntity
  8
Sichtbar MD
100
AcDb2dPolyline
 66
     1
 10
0.0
 20
0.0
 30
0.0
 70
   128
  0
VERTEX
  5
175
330
174
100
AcDbEntity
  8
Sichtbar MD
100
AcDbVertex
100
AcDb2dVertex
 10
221.18975127325
 20
123.1531508869606
 30
0.0
  0
VERTEX
  5
176
330
174
100
AcDbEntity
  8
Sichtbar MD
100
AcDbVertex
100
AcDb2dVertex
 10
221.1417850314135
 20
123.2525028891045
 30
0.0
  0
VERTEX
  5
178
330
174
100
AcDbEntity
  8
Sichtbar MD
100
AcDbVertex
100
AcDb2dVertex
 10
221.0960581360811
 20
123.3509334034401
 30
0.0
  0
VERTEX
  5
179
330
174
100
AcDbEntity
  8
Sichtbar MD
100
AcDbVertex
100
AcDb2dVertex
 10
221.0525366126055
 20
123.4484996504265
 30
0.0
  0
VERTEX
  5
17A
330
174
100
AcDbEntity
  8
Sichtbar MD
100
AcDbVertex
100
AcDb2dVertex
 10
221.0111882744783
 20
123.5452570623833
 30
0.0
  0
VERTEX
  5
17B
330
174
100
AcDbEntity
  8
Sichtbar MD
100
AcDbVertex
100
AcDb2dVertex
 10
220.9719851075167
 20
123.6412604755837
 30
0.0
  0
VERTEX
  5
17C
330
174
100
AcDbEntity
  8
Sichtbar MD
100
AcDbVertex
100
AcDb2dVertex
 10
220.9348990975374
 20
123.736562342115
 30
0.0
  0
VERTEX
  5
17D
330
174
100
AcDbEntity
  8
Sichtbar MD
100
AcDbVertex
100
AcDb2dVertex
 10
220.8999069987291
 20
123.8312151140648
 30
0.0
  0
VERTEX
  5
17E
330
174
100
AcDbEntity
  8
Sichtbar MD
100
AcDbVertex
100
AcDb2dVertex
 10
220.8669861613268
 20
123.9252706474739
 30
0.0
  0
VERTEX
  5
17F
330
174
100
AcDbEntity
  8
Sichtbar MD
100
AcDbVertex
100
AcDb2dVertex
 10
220.8361169157976
 20
124.0187802023369
 30
0.0
  0
VERTEX
  5
180
330
174
100
AcDbEntity
  8
Sichtbar MD
100
AcDbVertex
100
AcDb2dVertex
 10
220.8072819767946
 20
124.1117932505089
 30
0.0
  0
VERTEX
  5
181
330
174
100
AcDbEntity
  8
Sichtbar MD
100
AcDbVertex
100
AcDb2dVertex
 10
220.7804652510637
 20
124.2043592638451
 30
0.0
  0
VERTEX
  5
182
330
174
100
AcDbEntity
  8
Sichtbar MD
100
AcDbVertex
100
AcDb2dVertex
 10
220.7556542216295
 20
124.2965283102471
 30
0.0
  0
VERTEX
  5
183
330
174
100
AcDbEntity
  8
Sichtbar MD
100
AcDbVertex
100
AcDb2dVertex
 10
220.7328375636095
 20
124.3883492655236
 30
0.0
  0
VERTEX
  5
184
330
174
100
AcDbEntity
  8
Sichtbar MD
100
AcDbVertex
100
AcDb2dVertex
 10
220.712006336307
 20
124.4798698133904
 30
0.0
  0
VERTEX
  5
185
330
174
100
AcDbEntity
  8
Sichtbar MD
100
AcDbVertex
100
AcDb2dVertex
 10
220.693152791118
 20
124.5711382336098
 30
0.0
  0
VERTEX
  5
186
330
174
100
AcDbEntity
  8
Sichtbar MD
100
AcDbVertex
100
AcDb2dVertex
 10
220.6762733517641
 20
124.662203998037
 30
0.0
  0
VERTEX
  5
187
330
174
100
AcDbEntity
  8
Sichtbar MD
100
AcDbVertex
100
AcDb2dVertex
 10
220.66136384592
 20
124.7531135982949
 30
0.0
  0
VERTEX
  5
188
330
174
100
AcDbEntity
  8
Sichtbar MD
100
AcDbVertex
100
AcDb2dVertex
 10
220.6484254656786
 20
124.843917102285
 30
0.0
  0
VERTEX
  5
189
330
174
100
AcDbEntity
  8
Sichtbar MD
100
AcDbVertex
100
AcDb2dVertex
 10
220.6374582110399
 20
124.9346615976769
 30
0.0
  0
VERTEX
  5
18A
330
174
100
AcDbEntity
  8
Sichtbar MD
100
AcDbVertex
100
AcDb2dVertex
 10
220.6284662543291
 20
125.0253959602791
 30
0.0
  0
VERTEX
  5
18B
330
174
100
AcDbEntity
  8
Sichtbar MD
100
AcDbVertex
100
AcDb2dVertex
 10
220.6214555560106
 20
125.1161690659004
 30
0.0
  0
VERTEX
  5
18C
330
174
100
AcDbEntity
  8
Sichtbar MD
100
AcDbVertex
100
AcDb2dVertex
 10
220.6164338646883
 20
125.207030386396
 30
0.0
  0
VERTEX
  5
18D
330
174
100
AcDbEntity
  8
Sichtbar MD
100
AcDbVertex
100
AcDb2dVertex
 10
220.6134113131517
 20
125.298030585714
 30
0.0
  0
VERTEX
  5
18E
330
174
100
AcDbEntity
  8
Sichtbar MD
100
AcDbVertex
100
AcDb2dVertex
 10
220.6124010144228
 20
125.389218539663
 30
0.0
  0
SEQEND
  5
177
330
174
100
AcDbEntity
  8
Sichtbar MD
  0
POLYLINE
  5
18F
330
75
100
AcDbEntity
  8
Sichtbar MD
100
AcDb2dPolyline
 66
     1
 10
0.0
 20
0.0
 30
0.0
 70
   128
  0
VERTEX
  5
190
330
18F
100
AcDbEntity
  8
Sichtbar MD
100
AcDbVertex
100
AcDb2dVertex
 10
225.5350508748049
 20
127.6252867884117
 30
0.0
  0
VERTEX
  5
191
330
18F
100
AcDbEntity
  8
Sichtbar MD
100
AcDbVertex
100
AcDb2dVertex
 10
225.5830171166414
 20
127.5259353823143
 30
0.0
  0
VERTEX
  5
193
330
18F
100
AcDbEntity
  8
Sichtbar MD
100
AcDbVertex
100
AcDb2dVertex
 10
225.6287434159273
 20
127.4275042719322
 30
0.0
  0
VERTEX
  5
194
330
18F
100
AcDbEntity
  8
Sichtbar MD
100
AcDbVertex
100
AcDb2dVertex
 10
225.6722655354494
 20
127.3299374288994
 30
0.0
  0
VERTEX
  5
195
330
18F
100
AcDbEntity
  8
Sichtbar MD
100
AcDbVertex
100
AcDb2dVertex
 10
225.7136132775301
 20
127.2331800169426
 30
0.0
  0
VERTEX
  5
196
330
18F
100
AcDbEntity
  8
Sichtbar MD
100
AcDbVertex
100
AcDb2dVertex
 10
225.7528176365847
 20
127.1371771997887
 30
0.0
  0
VERTEX
  5
197
330
18F
100
AcDbEntity
  8
Sichtbar MD
100
AcDbVertex
100
AcDb2dVertex
 10
225.789902454471
 20
127.0418753332573
 30
0.0
  0
VERTEX
  5
198
330
18F
100
AcDbEntity
  8
Sichtbar MD
100
AcDbVertex
100
AcDb2dVertex
 10
225.8248951493257
 20
126.9472225613075
 30
0.0
  0
VERTEX
  5
199
330
18F
100
AcDbEntity
  8
Sichtbar MD
100
AcDbVertex
100
AcDb2dVertex
 10
225.8578159867281
 20
126.8531670278984
 30
0.0
  0
VERTEX
  5
19A
330
18F
100
AcDbEntity
  8
Sichtbar MD
100
AcDbVertex
100
AcDb2dVertex
 10
225.8886852322573
 20
126.7596574730355
 30
0.0
  0
VERTEX
  5
19B
330
18F
100
AcDbEntity
  8
Sichtbar MD
100
AcDbVertex
100
AcDb2dVertex
 10
225.9175195752138
 20
126.6666444248635
 30
0.0
  0
VERTEX
  5
19C
330
18F
100
AcDbEntity
  8
Sichtbar MD
100
AcDbVertex
100
AcDb2dVertex
 10
225.9443368969912
 20
126.5740784115273
 30
0.0
  0
VERTEX
  5
19D
330
18F
100
AcDbEntity
  8
Sichtbar MD
100
AcDbVertex
100
AcDb2dVertex
 10
225.9691479264254
 20
126.4819093651253
 30
0.0
  0
VERTEX
  5
19E
330
18F
100
AcDbEntity
  8
Sichtbar MD
100
AcDbVertex
100
AcDb2dVertex
 10
225.9919645844454
 20
126.3900884098488
 30
0.0
  0
VERTEX
  5
19F
330
18F
100
AcDbEntity
  8
Sichtbar MD
100
AcDbVertex
100
AcDb2dVertex
 10
226.0127964077944
 20
126.298567861982
 30
0.0
  0
VERTEX
  5
1A0
330
18F
100
AcDbEntity
  8
Sichtbar MD
100
AcDbVertex
100
AcDb2dVertex
 10
226.0316493569368
 20
126.2072994417626
 30
0.0
  0
VERTEX
  5
1A1
330
18F
100
AcDbEntity
  8
Sichtbar MD
100
AcDbVertex
100
AcDb2dVertex
 10
226.0485293923372
 20
126.1162336773354
 30
0.0
  0
VERTEX
  5
1A2
330
18F
100
AcDbEntity
  8
Sichtbar MD
100
AcDbVertex
100
AcDb2dVertex
 10
226.0634377060885
 20
126.0253240770775
 30
0.0
  0
VERTEX
  5
1A3
330
18F
100
AcDbEntity
  8
Sichtbar MD
100
AcDbVertex
100
AcDb2dVertex
 10
226.0763766823763
 20
125.9345205730873
 30
0.0
  0
VERTEX
  5
1A4
330
18F
100
AcDbEntity
  8
Sichtbar MD
100
AcDbVertex
100
AcDb2dVertex
 10
226.087343937015
 20
125.8437760776955
 30
0.0
  0
VERTEX
  5
1A5
330
18F
100
AcDbEntity
  8
Sichtbar MD
100
AcDbVertex
100
AcDb2dVertex
 10
226.0963358937258
 20
125.7530417150932
 30
0.0
  0
VERTEX
  5
1A6
330
18F
100
AcDbEntity
  8
Sichtbar MD
100
AcDbVertex
100
AcDb2dVertex
 10
226.1033465920442
 20
125.6622686094719
 30
0.0
  0
VERTEX
  5
1A7
330
18F
100
AcDbEntity
  8
Sichtbar MD
100
AcDbVertex
100
AcDb2dVertex
 10
226.1083676873202
 20
125.5714072889763
 30
0.0
  0
VERTEX
  5
1A8
330
18F
100
AcDbEntity
  8
Sichtbar MD
100
AcDbVertex
100
AcDb2dVertex
 10
226.1113908349031
 20
125.4804070896584
 30
0.0
  0
VERTEX
  5
1A9
330
18F
100
AcDbEntity
  8
Sichtbar MD
100
AcDbVertex
100
AcDb2dVertex
 10
226.1124005375856
 20
125.389218539663
 30
0.0
  0
SEQEND
  5
192
330
18F
100
AcDbEntity
  8
Sichtbar MD
  0
LINE
  5
1AA
330
75
100
AcDbEntity
  8
Sichtbar MD
100
AcDbLine
 10
225.5350506975495
 20
127.6252868138388
 30
0.0
 11
225.5350506975495
 21
127.6619775003868
 31
0.0
  0
POLYLINE
  5
1AB
330
75
100
AcDbEntity
  8
Sichtbar MD
100
AcDb2dPolyline
 66
     1
 10
0.0
 20
0.0
 30
0.0
 70
   128
  0
VERTEX
  5
1AC
330
1AB
100
AcDbEntity
  8
Sichtbar MD
100
AcDbVertex
100
AcDb2dVertex
 10
225.5350508748049
 20
121.6341134018379
 30
0.0
  0
VERTEX
  5
1AD
330
1AB
100
AcDbEntity
  8
Sichtbar MD
100
AcDbVertex
100
AcDb2dVertex
 10
225.5830171166414
 20
121.4354099935967
 30
0.0
  0
VERTEX
  5
1AF
330
1AB
100
AcDbEntity
  8
Sichtbar MD
100
AcDbVertex
100
AcDb2dVertex
 10
225.6287434159273
 20
121.2385483688789
 30
0.0
  0
VERTEX
  5
1B0
330
1AB
100
AcDbEntity
  8
Sichtbar MD
100
AcDbVertex
100
AcDb2dVertex
 10
225.6722655354494
 20
121.043415576883
 30
0.0
  0
VERTEX
  5
1B1
330
1AB
100
AcDbEntity
  8
Sichtbar MD
100
AcDbVertex
100
AcDb2dVertex
 10
225.7136132775301
 20
120.8499004549462
 30
0.0
  0
VERTEX
  5
1B2
330
1AB
100
AcDbEntity
  8
Sichtbar MD
100
AcDbVertex
100
AcDb2dVertex
 10
225.7528176365847
 20
120.6578945226151
 30
0.0
  0
VERTEX
  5
1B3
330
1AB
100
AcDbEntity
  8
Sichtbar MD
100
AcDbVertex
100
AcDb2dVertex
 10
225.789902454471
 20
120.4672910875755
 30
0.0
  0
VERTEX
  5
1B4
330
1AB
100
AcDbEntity
  8
Sichtbar MD
100
AcDbVertex
100
AcDb2dVertex
 10
225.8248951493257
 20
120.2779852456528
 30
0.0
  0
VERTEX
  5
1B5
330
1AB
100
AcDbEntity
  8
Sichtbar MD
100
AcDbVertex
100
AcDb2dVertex
 10
225.8578159867281
 20
120.0898738808113
 30
0.0
  0
VERTEX
  5
1B6
330
1AB
100
AcDbEntity
  8
Sichtbar MD
100
AcDbVertex
100
AcDb2dVertex
 10
225.8886852322573
 20
119.9028553671318
 30
0.0
  0
VERTEX
  5
1B7
330
1AB
100
AcDbEntity
  8
Sichtbar MD
100
AcDbVertex
100
AcDb2dVertex
 10
225.9175195752138
 20
119.7168292707878
 30
0.0
  0
VERTEX
  5
1B8
330
1AB
100
AcDbEntity
  8
Sichtbar MD
100
AcDbVertex
100
AcDb2dVertex
 10
225.9443368969912
 20
119.5316963500458
 30
0.0
  0
VERTEX
  5
1B9
330
1AB
100
AcDbEntity
  8
Sichtbar MD
100
AcDbVertex
100
AcDb2dVertex
 10
225.9691479264254
 20
119.3473581082302
 30
0.0
  0
VERTEX
  5
1BA
330
1AB
100
AcDbEntity
  8
Sichtbar MD
100
AcDbVertex
100
AcDb2dVertex
 10
225.9919645844454
 20
119.1637170917469
 30
0.0
  0
VERTEX
  5
1BB
330
1AB
100
AcDbEntity
  8
Sichtbar MD
100
AcDbVertex
100
AcDb2dVertex
 10
226.0127964077944
 20
118.9806759960133
 30
0.0
  0
VERTEX
  5
1BC
330
1AB
100
AcDbEntity
  8
Sichtbar MD
100
AcDbVertex
100
AcDb2dVertex
 10
226.0316493569368
 20
118.7981384105164
 30
0.0
  0
VERTEX
  5
1BD
330
1AB
100
AcDbEntity
  8
Sichtbar MD
100
AcDbVertex
100
AcDb2dVertex
 10
226.0485293923372
 20
118.6160076267201
 30
0.0
  0
VERTEX
  5
1BE
330
1AB
100
AcDbEntity
  8
Sichtbar MD
100
AcDbVertex
100
AcDb2dVertex
 10
226.0634377060885
 20
118.4341875321347
 30
0.0
  0
VERTEX
  5
1BF
330
1AB
100
AcDbEntity
  8
Sichtbar MD
100
AcDbVertex
100
AcDb2dVertex
 10
226.0763766823763
 20
118.252581418224
 30
0.0
  0
VERTEX
  5
1C0
330
1AB
100
AcDbEntity
  8
Sichtbar MD
100
AcDbVertex
100
AcDb2dVertex
 10
226.087343937015
 20
118.0710925764519
 30
0.0
  0
VERTEX
  5
1C1
330
1AB
100
AcDbEntity
  8
Sichtbar MD
100
AcDbVertex
100
AcDb2dVertex
 10
226.0963358937258
 20
117.8896237022358
 30
0.0
  0
VERTEX
  5
1C2
330
1AB
100
AcDbEntity
  8
Sichtbar MD
100
AcDbVertex
100
AcDb2dVertex
 10
226.1033465920442
 20
117.7080770439583
 30
0.0
  0
VERTEX
  5
1C3
330
1AB
100
AcDbEntity
  8
Sichtbar MD
100
AcDbVertex
100
AcDb2dVertex
 10
226.1083676873202
 20
117.5263538069206
 30
0.0
  0
VERTEX
  5
1C4
330
1AB
100
AcDbEntity
  8
Sichtbar MD
100
AcDbVertex
100
AcDb2dVertex
 10
226.1113908349031
 20
117.3443542651015
 30
0.0
  0
VERTEX
  5
1C5
330
1AB
100
AcDbEntity
  8
Sichtbar MD
100
AcDbVertex
100
AcDb2dVertex
 10
226.1124005375856
 20
117.1619775003868
 30
0.0
  0
SEQEND
  5
1AE
330
1AB
100
AcDbEntity
  8
Sichtbar MD
  0
POLYLINE
  5
1C6
330
75
100
AcDbEntity
  8
Sichtbar MD
100
AcDb2dPolyline
 66
     1
 10
0.0
 20
0.0
 30
0.0
 70
   128
  0
VERTEX
  5
1C7
330
1C6
100
AcDbEntity
  8
Sichtbar MD
100
AcDbVertex
100
AcDb2dVertex
 10
226.1124005375856
 20
125.389218539663
 30
0.0
  0
VERTEX
  5
1C8
330
1C6
100
AcDbEntity
  8
Sichtbar MD
100
AcDbVertex
100
AcDb2dVertex
 10
226.1113908349031
 20
125.298030585714
 30
0.0
  0
VERTEX
  5
1CA
330
1C6
100
AcDbEntity
  8
Sichtbar MD
100
AcDbVertex
100
AcDb2dVertex
 10
226.1083676873202
 20
125.207030386396
 30
0.0
  0
VERTEX
  5
1CB
330
1C6
100
AcDbEntity
  8
Sichtbar MD
100
AcDbVertex
100
AcDb2dVertex
 10
226.1033465920442
 20
125.1161690659004
 30
0.0
  0
VERTEX
  5
1CC
330
1C6
100
AcDbEntity
  8
Sichtbar MD
100
AcDbVertex
100
AcDb2dVertex
 10
226.0963358937258
 20
125.0253959602791
 30
0.0
  0
VERTEX
  5
1CD
330
1C6
100
AcDbEntity
  8
Sichtbar MD
100
AcDbVertex
100
AcDb2dVertex
 10
226.087343937015
 20
124.9346615976769
 30
0.0
  0
VERTEX
  5
1CE
330
1C6
100
AcDbEntity
  8
Sichtbar MD
100
AcDbVertex
100
AcDb2dVertex
 10
226.0763766823763
 20
124.843917102285
 30
0.0
  0
VERTEX
  5
1CF
330
1C6
100
AcDbEntity
  8
Sichtbar MD
100
AcDbVertex
100
AcDb2dVertex
 10
226.0634377060885
 20
124.7531135982949
 30
0.0
  0
VERTEX
  5
1D0
330
1C6
100
AcDbEntity
  8
Sichtbar MD
100
AcDbVertex
100
AcDb2dVertex
 10
226.0485293923372
 20
124.662203998037
 30
0.0
  0
VERTEX
  5
1D1
330
1C6
100
AcDbEntity
  8
Sichtbar MD
100
AcDbVertex
100
AcDb2dVertex
 10
226.0316493569368
 20
124.5711382336098
 30
0.0
  0
VERTEX
  5
1D2
330
1C6
100
AcDbEntity
  8
Sichtbar MD
100
AcDbVertex
100
AcDb2dVertex
 10
226.0127964077944
 20
124.4798698133904
 30
0.0
  0
VERTEX
  5
1D3
330
1C6
100
AcDbEntity
  8
Sichtbar MD
100
AcDbVertex
100
AcDb2dVertex
 10
225.9919645844454
 20
124.3883492655236
 30
0.0
  0
VERTEX
  5
1D4
330
1C6
100
AcDbEntity
  8
Sichtbar MD
100
AcDbVertex
100
AcDb2dVertex
 10
225.9691479264254
 20
124.2965283102471
 30
0.0
  0
VERTEX
  5
1D5
330
1C6
100
AcDbEntity
  8
Sichtbar MD
100
AcDbVertex
100
AcDb2dVertex
 10
225.9443368969912
 20
124.2043592638451
 30
0.0
  0
VERTEX
  5
1D6
330
1C6
100
AcDbEntity
  8
Sichtbar MD
100
AcDbVertex
100
AcDb2dVertex
 10
225.9175195752138
 20
124.1117932505089
 30
0.0
  0
VERTEX
  5
1D7
330
1C6
100
AcDbEntity
  8
Sichtbar MD
100
AcDbVertex
100
AcDb2dVertex
 10
225.8886852322573
 20
124.0187802023369
 30
0.0
  0
VERTEX
  5
1D8
330
1C6
100
AcDbEntity
  8
Sichtbar MD
100
AcDbVertex
100
AcDb2dVertex
 10
225.8578159867281
 20
123.9252706474739
 30
0.0
  0
VERTEX
  5
1D9
330
1C6
100
AcDbEntity
  8
Sichtbar MD
100
AcDbVertex
100
AcDb2dVertex
 10
225.8248951493257
 20
123.8312151140648
 30
0.0
  0
VERTEX
  5
1DA
330
1C6
100
AcDbEntity
  8
Sichtbar MD
100
AcDbVertex
100
AcDb2dVertex
 10
225.789902454471
 20
123.736562342115
 30
0.0
  0
VERTEX
  5
1DB
330
1C6
100
AcDbEntity
  8
Sichtbar MD
100
AcDbVertex
100
AcDb2dVertex
 10
225.7528176365847
 20
123.6412604755837
 30
0.0
  0
VERTEX
  5
1DC
330
1C6
100
AcDbEntity
  8
Sichtbar MD
100
AcDbVertex
100
AcDb2dVertex
 10
225.7136132775301
 20
123.5452570623833
 30
0.0
  0
VERTEX
  5
1DD
330
1C6
100
AcDbEntity
  8
Sichtbar MD
100
AcDbVertex
100
AcDb2dVertex
 10
225.6722655354494
 20
123.4484996504265
 30
0.0
  0
VERTEX
  5
1DE
330
1C6
100
AcDbEntity
  8
Sichtbar MD
100
AcDbVertex
100
AcDb2dVertex
 10
225.6287434159273
 20
123.3509334034401
 30
0.0
  0
VERTEX
  5
1DF
330
1C6
100
AcDbEntity
  8
Sichtbar MD
100
AcDbVertex
100
AcDb2dVertex
 10
225.5830171166414
 20
123.2525028891045
 30
0.0
  0
VERTEX
  5
1E0
330
1C6
100
AcDbEntity
  8
Sichtbar MD
100
AcDbVertex
100
AcDb2dVertex
 10
225.5350508748049
 20
123.1531508869606
 30
0.0
  0
SEQEND
  5
1C9
330
1C6
100
AcDbEntity
  8
Sichtbar MD
  0
LINE
  5
1E1
330
75
100
AcDbEntity
  8
Sichtbar MD
100
AcDbLine
 10
225.5350506975495
 20
121.6341134553864
 30
0.0
 11
225.5350506975495
 21
123.1531508588392
 31
0.0
  0
POLYLINE
  5
1E2
330
75
100
AcDbEntity
  8
Sichtbar MD
100
AcDb2dPolyline
 66
     1
 10
0.0
 20
0.0
 30
0.0
 70
   128
  0
VERTEX
  5
1E3
330
1E2
100
AcDbEntity
  8
Sichtbar MD
100
AcDbVertex
100
AcDb2dVertex
 10
225.5350508748049
 20
111.170804113813
 30
0.0
  0
VERTEX
  5
1E4
330
1E2
100
AcDbEntity
  8
Sichtbar MD
100
AcDbVertex
100
AcDb2dVertex
 10
225.5830171166414
 20
111.0714521116692
 30
0.0
  0
VERTEX
  5
1E6
330
1E2
100
AcDbEntity
  8
Sichtbar MD
100
AcDbVertex
100
AcDb2dVertex
 10
225.6287434159273
 20
110.9730215973335
 30
0.0
  0
VERTEX
  5
1E7
330
1E2
100
AcDbEntity
  8
Sichtbar MD
100
AcDbVertex
100
AcDb2dVertex
 10
225.6722655354494
 20
110.8754553503471
 30
0.0
  0
VERTEX
  5
1E8
330
1E2
100
AcDbEntity
  8
Sichtbar MD
100
AcDbVertex
100
AcDb2dVertex
 10
225.7136132775301
 20
110.7786979383904
 30
0.0
  0
VERTEX
  5
1E9
330
1E2
100
AcDbEntity
  8
Sichtbar MD
100
AcDbVertex
100
AcDb2dVertex
 10
225.7528176365847
 20
110.68269452519
 30
0.0
  0
VERTEX
  5
1EA
330
1E2
100
AcDbEntity
  8
Sichtbar MD
100
AcDbVertex
100
AcDb2dVertex
 10
225.789902454471
 20
110.5873926586586
 30
0.0
  0
VERTEX
  5
1EB
330
1E2
100
AcDbEntity
  8
Sichtbar MD
100
AcDbVertex
100
AcDb2dVertex
 10
225.8248951493257
 20
110.4927398867088
 30
0.0
  0
VERTEX
  5
1EC
330
1E2
100
AcDbEntity
  8
Sichtbar MD
100
AcDbVertex
100
AcDb2dVertex
 10
225.8578159867281
 20
110.3986843532997
 30
0.0
  0
VERTEX
  5
1ED
330
1E2
100
AcDbEntity
  8
Sichtbar MD
100
AcDbVertex
100
AcDb2dVertex
 10
225.8886852322573
 20
110.3051747984368
 30
0.0
  0
VERTEX
  5
1EE
330
1E2
100
AcDbEntity
  8
Sichtbar MD
100
AcDbVertex
100
AcDb2dVertex
 10
225.9175195752138
 20
110.2121617502648
 30
0.0
  0
VERTEX
  5
1EF
330
1E2
100
AcDbEntity
  8
Sichtbar MD
100
AcDbVertex
100
AcDb2dVertex
 10
225.9443368969912
 20
110.1195957369286
 30
0.0
  0
VERTEX
  5
1F0
330
1E2
100
AcDbEntity
  8
Sichtbar MD
100
AcDbVertex
100
AcDb2dVertex
 10
225.9691479264254
 20
110.0274266905266
 30
0.0
  0
VERTEX
  5
1F1
330
1E2
100
AcDbEntity
  8
Sichtbar MD
100
AcDbVertex
100
AcDb2dVertex
 10
225.9919645844454
 20
109.9356057352501
 30
0.0
  0
VERTEX
  5
1F2
330
1E2
100
AcDbEntity
  8
Sichtbar MD
100
AcDbVertex
100
AcDb2dVertex
 10
226.0127964077944
 20
109.8440851873833
 30
0.0
  0
VERTEX
  5
1F3
330
1E2
100
AcDbEntity
  8
Sichtbar MD
100
AcDbVertex
100
AcDb2dVertex
 10
226.0316493569368
 20
109.7528167671639
 30
0.0
  0
VERTEX
  5
1F4
330
1E2
100
AcDbEntity
  8
Sichtbar MD
100
AcDbVertex
100
AcDb2dVertex
 10
226.0485293923372
 20
109.6617510027367
 30
0.0
  0
VERTEX
  5
1F5
330
1E2
100
AcDbEntity
  8
Sichtbar MD
100
AcDbVertex
100
AcDb2dVertex
 10
226.0634377060885
 20
109.5708414024788
 30
0.0
  0
VERTEX
  5
1F6
330
1E2
100
AcDbEntity
  8
Sichtbar MD
100
AcDbVertex
100
AcDb2dVertex
 10
226.0763766823763
 20
109.4800378984886
 30
0.0
  0
VERTEX
  5
1F7
330
1E2
100
AcDbEntity
  8
Sichtbar MD
100
AcDbVertex
100
AcDb2dVertex
 10
226.087343937015
 20
109.3892934030968
 30
0.0
  0
VERTEX
  5
1F8
330
1E2
100
AcDbEntity
  8
Sichtbar MD
100
AcDbVertex
100
AcDb2dVertex
 10
226.0963358937258
 20
109.2985590404946
 30
0.0
  0
VERTEX
  5
1F9
330
1E2
100
AcDbEntity
  8
Sichtbar MD
100
AcDbVertex
100
AcDb2dVertex
 10
226.1033465920442
 20
109.2077859348732
 30
0.0
  0
VERTEX
  5
1FA
330
1E2
100
AcDbEntity
  8
Sichtbar MD
100
AcDbVertex
100
AcDb2dVertex
 10
226.1083676873202
 20
109.1169246143776
 30
0.0
  0
VERTEX
  5
1FB
330
1E2
100
AcDbEntity
  8
Sichtbar MD
100
AcDbVertex
100
AcDb2dVertex
 10
226.1113908349031
 20
109.0259244150597
 30
0.0
  0
VERTEX
  5
1FC
330
1E2
100
AcDbEntity
  8
Sichtbar MD
100
AcDbVertex
100
AcDb2dVertex
 10
226.1124005375856
 20
108.9347364611107
 30
0.0
  0
SEQEND
  5
1E5
330
1E2
100
AcDbEntity
  8
Sichtbar MD
  0
POLYLINE
  5
1FD
330
75
100
AcDbEntity
  8
Sichtbar MD
100
AcDb2dPolyline
 66
     1
 10
0.0
 20
0.0
 30
0.0
 70
   128
  0
VERTEX
  5
1FE
330
1FD
100
AcDbEntity
  8
Sichtbar MD
100
AcDbVertex
100
AcDb2dVertex
 10
226.1124005375856
 20
117.1619775003868
 30
0.0
  0
VERTEX
  5
1FF
330
1FD
100
AcDbEntity
  8
Sichtbar MD
100
AcDbVertex
100
AcDb2dVertex
 10
226.1113908349031
 20
116.9796007356721
 30
0.0
  0
VERTEX
  5
201
330
1FD
100
AcDbEntity
  8
Sichtbar MD
100
AcDbVertex
100
AcDb2dVertex
 10
226.1083676873202
 20
116.797601193853
 30
0.0
  0
VERTEX
  5
202
330
1FD
100
AcDbEntity
  8
Sichtbar MD
100
AcDbVertex
100
AcDb2dVertex
 10
226.1033465920442
 20
116.6158779568154
 30
0.0
  0
VERTEX
  5
203
330
1FD
100
AcDbEntity
  8
Sichtbar MD
100
AcDbVertex
100
AcDb2dVertex
 10
226.0963358937258
 20
116.4343312985378
 30
0.0
  0
VERTEX
  5
204
330
1FD
100
AcDbEntity
  8
Sichtbar MD
100
AcDbVertex
100
AcDb2dVertex
 10
226.087343937015
 20
116.2528624243218
 30
0.0
  0
VERTEX
  5
205
330
1FD
100
AcDbEntity
  8
Sichtbar MD
100
AcDbVertex
100
AcDb2dVertex
 10
226.0763766823763
 20
116.0713735825497
 30
0.0
  0
VERTEX
  5
206
330
1FD
100
AcDbEntity
  8
Sichtbar MD
100
AcDbVertex
100
AcDb2dVertex
 10
226.0634377060885
 20
115.889767468639
 30
0.0
  0
VERTEX
  5
207
330
1FD
100
AcDbEntity
  8
Sichtbar MD
100
AcDbVertex
100
AcDb2dVertex
 10
226.0485293923372
 20
115.7079473740536
 30
0.0
  0
VERTEX
  5
208
330
1FD
100
AcDbEntity
  8
Sichtbar MD
100
AcDbVertex
100
AcDb2dVertex
 10
226.0316493569368
 20
115.5258165902573
 30
0.0
  0
VERTEX
  5
209
330
1FD
100
AcDbEntity
  8
Sichtbar MD
100
AcDbVertex
100
AcDb2dVertex
 10
226.0127964077944
 20
115.3432790047604
 30
0.0
  0
VERTEX
  5
20A
330
1FD
100
AcDbEntity
  8
Sichtbar MD
100
AcDbVertex
100
AcDb2dVertex
 10
225.9919645844454
 20
115.1602379090267
 30
0.0
  0
VERTEX
  5
20B
330
1FD
100
AcDbEntity
  8
Sichtbar MD
100
AcDbVertex
100
AcDb2dVertex
 10
225.9691479264254
 20
114.9765968925434
 30
0.0
  0
VERTEX
  5
20C
330
1FD
100
AcDbEntity
  8
Sichtbar MD
100
AcDbVertex
100
AcDb2dVertex
 10
225.9443368969912
 20
114.7922586507279
 30
0.0
  0
VERTEX
  5
20D
330
1FD
100
AcDbEntity
  8
Sichtbar MD
100
AcDbVertex
100
AcDb2dVertex
 10
225.9175195752138
 20
114.6071257299858
 30
0.0
  0
VERTEX
  5
20E
330
1FD
100
AcDbEntity
  8
Sichtbar MD
100
AcDbVertex
100
AcDb2dVertex
 10
225.8886852322573
 20
114.4210996336418
 30
0.0
  0
VERTEX
  5
20F
330
1FD
100
AcDbEntity
  8
Sichtbar MD
100
AcDbVertex
100
AcDb2dVertex
 10
225.8578159867281
 20
114.2340811199623
 30
0.0
  0
VERTEX
  5
210
330
1FD
100
AcDbEntity
  8
Sichtbar MD
100
AcDbVertex
100
AcDb2dVertex
 10
225.8248951493257
 20
114.0459697551209
 30
0.0
  0
VERTEX
  5
211
330
1FD
100
AcDbEntity
  8
Sichtbar MD
100
AcDbVertex
100
AcDb2dVertex
 10
225.789902454471
 20
113.8566639131981
 30
0.0
  0
VERTEX
  5
212
330
1FD
100
AcDbEntity
  8
Sichtbar MD
100
AcDbVertex
100
AcDb2dVertex
 10
225.7528176365847
 20
113.6660604781586
 30
0.0
  0
VERTEX
  5
213
330
1FD
100
AcDbEntity
  8
Sichtbar MD
100
AcDbVertex
100
AcDb2dVertex
 10
225.7136132775301
 20
113.4740545458275
 30
0.0
  0
VERTEX
  5
214
330
1FD
100
AcDbEntity
  8
Sichtbar MD
100
AcDbVertex
100
AcDb2dVertex
 10
225.6722655354494
 20
113.2805394238907
 30
0.0
  0
VERTEX
  5
215
330
1FD
100
AcDbEntity
  8
Sichtbar MD
100
AcDbVertex
100
AcDb2dVertex
 10
225.6287434159273
 20
113.0854066318947
 30
0.0
  0
VERTEX
  5
216
330
1FD
100
AcDbEntity
  8
Sichtbar MD
100
AcDbVertex
100
AcDb2dVertex
 10
225.5830171166414
 20
112.888545007177
 30
0.0
  0
VERTEX
  5
217
330
1FD
100
AcDbEntity
  8
Sichtbar MD
100
AcDbVertex
100
AcDb2dVertex
 10
225.5350508748049
 20
112.6898415989357
 30
0.0
  0
SEQEND
  5
200
330
1FD
100
AcDbEntity
  8
Sichtbar MD
  0
LINE
  5
218
330
75
100
AcDbEntity
  8
Sichtbar MD
100
AcDbLine
 10
225.5350506975495
 20
111.1708041419344
 30
0.0
 11
225.5350506975495
 21
112.6898415453872
 31
0.0
  0
POLYLINE
  5
219
330
75
100
AcDbEntity
  8
Sichtbar MD
100
AcDb2dPolyline
 66
     1
 10
0.0
 20
0.0
 30
0.0
 70
   128
  0
VERTEX
  5
21A
330
219
100
AcDbEntity
  8
Sichtbar MD
100
AcDbVertex
100
AcDb2dVertex
 10
226.1124005375856
 20
108.9347364611107
 30
0.0
  0
VERTEX
  5
21B
330
219
100
AcDbEntity
  8
Sichtbar MD
100
AcDbVertex
100
AcDb2dVertex
 10
226.1113908349031
 20
108.8435479111153
 30
0.0
  0
VERTEX
  5
21D
330
219
100
AcDbEntity
  8
Sichtbar MD
100
AcDbVertex
100
AcDb2dVertex
 10
226.1083676873202
 20
108.7525477117974
 30
0.0
  0
VERTEX
  5
21E
330
219
100
AcDbEntity
  8
Sichtbar MD
100
AcDbVertex
100
AcDb2dVertex
 10
226.1033465920442
 20
108.6616863913018
 30
0.0
  0
VERTEX
  5
21F
330
219
100
AcDbEntity
  8
Sichtbar MD
100
AcDbVertex
100
AcDb2dVertex
 10
226.0963358937258
 20
108.5709132856804
 30
0.0
  0
VERTEX
  5
220
330
219
100
AcDbEntity
  8
Sichtbar MD
100
AcDbVertex
100
AcDb2dVertex
 10
226.087343937015
 20
108.4801789230782
 30
0.0
  0
VERTEX
  5
221
330
219
100
AcDbEntity
  8
Sichtbar MD
100
AcDbVertex
100
AcDb2dVertex
 10
226.0763766823763
 20
108.3894344276863
 30
0.0
  0
VERTEX
  5
222
330
219
100
AcDbEntity
  8
Sichtbar MD
100
AcDbVertex
100
AcDb2dVertex
 10
226.0634377060885
 20
108.2986309236962
 30
0.0
  0
VERTEX
  5
223
330
219
100
AcDbEntity
  8
Sichtbar MD
100
AcDbVertex
100
AcDb2dVertex
 10
226.0485293923372
 20
108.2077213234383
 30
0.0
  0
VERTEX
  5
224
330
219
100
AcDbEntity
  8
Sichtbar MD
100
AcDbVertex
100
AcDb2dVertex
 10
226.0316493569368
 20
108.1166555590111
 30
0.0
  0
VERTEX
  5
225
330
219
100
AcDbEntity
  8
Sichtbar MD
100
AcDbVertex
100
AcDb2dVertex
 10
226.0127964077944
 20
108.0253871387917
 30
0.0
  0
VERTEX
  5
226
330
219
100
AcDbEntity
  8
Sichtbar MD
100
AcDbVertex
100
AcDb2dVertex
 10
225.9919645844454
 20
107.9338665909248
 30
0.0
  0
VERTEX
  5
227
330
219
100
AcDbEntity
  8
Sichtbar MD
100
AcDbVertex
100
AcDb2dVertex
 10
225.9691479264254
 20
107.8420456356484
 30
0.0
  0
VERTEX
  5
228
330
219
100
AcDbEntity
  8
Sichtbar MD
100
AcDbVertex
100
AcDb2dVertex
 10
225.9443368969912
 20
107.7498765892464
 30
0.0
  0
VERTEX
  5
229
330
219
100
AcDbEntity
  8
Sichtbar MD
100
AcDbVertex
100
AcDb2dVertex
 10
225.9175195752138
 20
107.6573105759102
 30
0.0
  0
VERTEX
  5
22A
330
219
100
AcDbEntity
  8
Sichtbar MD
100
AcDbVertex
100
AcDb2dVertex
 10
225.8886852322573
 20
107.5642975277382
 30
0.0
  0
VERTEX
  5
22B
330
219
100
AcDbEntity
  8
Sichtbar MD
100
AcDbVertex
100
AcDb2dVertex
 10
225.8578159867281
 20
107.4707879728752
 30
0.0
  0
VERTEX
  5
22C
330
219
100
AcDbEntity
  8
Sichtbar MD
100
AcDbVertex
100
AcDb2dVertex
 10
225.8248951493257
 20
107.3767324394661
 30
0.0
  0
VERTEX
  5
22D
330
219
100
AcDbEntity
  8
Sichtbar MD
100
AcDbVertex
100
AcDb2dVertex
 10
225.789902454471
 20
107.2820796675163
 30
0.0
  0
VERTEX
  5
22E
330
219
100
AcDbEntity
  8
Sichtbar MD
100
AcDbVertex
100
AcDb2dVertex
 10
225.7528176365847
 20
107.186777800985
 30
0.0
  0
VERTEX
  5
22F
330
219
100
AcDbEntity
  8
Sichtbar MD
100
AcDbVertex
100
AcDb2dVertex
 10
225.7136132775301
 20
107.090774983831
 30
0.0
  0
VERTEX
  5
230
330
219
100
AcDbEntity
  8
Sichtbar MD
100
AcDbVertex
100
AcDb2dVertex
 10
225.6722655354494
 20
106.9940175718743
 30
0.0
  0
VERTEX
  5
231
330
219
100
AcDbEntity
  8
Sichtbar MD
100
AcDbVertex
100
AcDb2dVertex
 10
225.6287434159273
 20
106.8964507288414
 30
0.0
  0
VERTEX
  5
232
330
219
100
AcDbEntity
  8
Sichtbar MD
100
AcDbVertex
100
AcDb2dVertex
 10
225.5830171166414
 20
106.7980196184593
 30
0.0
  0
VERTEX
  5
233
330
219
100
AcDbEntity
  8
Sichtbar MD
100
AcDbVertex
100
AcDb2dVertex
 10
225.5350508748049
 20
106.6986682123619
 30
0.0
  0
SEQEND
  5
21C
330
219
100
AcDbEntity
  8
Sichtbar MD
  0
LINE
  5
234
330
75
100
AcDbEntity
  8
Sichtbar MD
100
AcDbLine
 10
225.5350506975495
 20
106.6619775003868
 30
0.0
 11
225.5350506975495
 21
106.6986681869349
 31
0.0
  0
LINE
  5
235
330
75
100
AcDbEntity
  8
Sichtbar MD
100
AcDbLine
 10
221.1897512359287
 20
127.6252868138388
 30
0.0
 11
225.5350506975495
 21
127.6252868138388
 31
0.0
  0
LINE
  5
236
330
75
100
AcDbEntity
  8
Sichtbar MD
100
AcDbLine
 10
225.5350506975495
 20
106.6986681869349
 30
0.0
 11
221.1897512359287
 21
106.6986681869349
 31
0.0
  0
LINE
  5
237
330
75
100
AcDbEntity
  8
Sichtbar MD
100
AcDbLine
 10
221.1897512359287
 20
111.1708041419344
 30
0.0
 11
225.5350506975495
 21
111.1708041419344
 31
0.0
  0
LINE
  5
238
330
75
100
AcDbEntity
  8
Sichtbar MD
100
AcDbLine
 10
225.5350506975495
 20
112.6898415453872
 30
0.0
 11
221.1897512359287
 21
112.6898415453872
 31
0.0
  0
LINE
  5
239
330
75
100
AcDbEntity
  8
Sichtbar MD
100
AcDbLine
 10
221.1897512359287
 20
121.6341134553864
 30
0.0
 11
225.5350506975495
 21
121.6341134553864
 31
0.0
  0
LINE
  5
23A
330
75
100
AcDbEntity
  8
Sichtbar MD
100
AcDbLine
 10
225.5350506975495
 20
123.1531508588392
 30
0.0
 11
221.1897512359287
 21
123.1531508588392
 31
0.0
  0
LINE
  5
23B
330
75
100
AcDbEntity
  8
Sichtbar MD
100
AcDbLine
 10
244.3624009667391
 20
108.3744775003868
 30
0.0
 11
244.3624009667391
 21
125.9494775003868
 31
0.0
  0
LINE
  5
23C
330
75
100
AcDbEntity
  8
Sichtbar MD
100
AcDbLine
 10
244.8249009667391
 20
107.9119775003868
 30
0.0
 11
244.8249009667391
 21
126.4119775003868
 31
0.0
  0
LINE
  5
23D
330
75
100
AcDbEntity
  8
Sichtbar MD
100
AcDbLine
 10
246.1624009667391
 20
108.3744775003868
 30
0.0
 11
246.1624009667391
 21
125.9494775003868
 31
0.0
  0
LINE
  5
23E
330
75
100
AcDbEntity
  8
Sichtbar MD
100
AcDbLine
 10
242.8924009667391
 20
107.9119775003868
 30
0.0
 11
242.8924009667391
 21
126.4119775003868
 31
0.0
  0
LINE
  5
23F
330
75
100
AcDbEntity
  8
Sichtbar MD
100
AcDbLine
 10
220.6124009667391
 20
126.6619775003868
 30
0.0
 11
221.1897512359287
 21
127.6619775003868
 31
0.0
  0
LINE
  5
240
330
75
100
AcDbEntity
  8
Sichtbar MD
100
AcDbLine
 10
220.6124009667391
 20
107.6619775003868
 30
0.0
 11
221.1897512359287
 21
106.6619775003868
 31
0.0
  0
LINE
  5
241
330
75
100
AcDbEntity
  8
Sichtbar MD
100
AcDbLine
 10
226.1124009667391
 20
126.6619775003868
 30
0.0
 11
225.5350506975495
 21
127.6619775003868
 31
0.0
  0
LINE
  5
242
330
75
100
AcDbEntity
  8
Sichtbar MD
100
AcDbLine
 10
226.1124009667391
 20
107.6619775003868
 30
0.0
 11
225.5350506975495
 21
106.6619775003868
 31
0.0
  0
LINE
  5
243
330
75
100
AcDbEntity
  8
Sichtbar MD
100
AcDbLine
 10
221.1897512359287
 20
127.6619775003868
 30
0.0
 11
225.5350506975495
 21
127.6619775003868
 31
0.0
  0
LINE
  5
244
330
75
100
AcDbEntity
  8
Sichtbar MD
100
AcDbLine
 10
221.1897512359287
 20
106.6619775003868
 30
0.0
 11
225.5350506975495
 21
106.6619775003868
 31
0.0
  0
LINE
  5
245
330
75
100
AcDbEntity
  8
Sichtbar MD
100
AcDbLine
 10
242.8924009667391
 20
123.7619775003868
 30
0.0
 11
244.3624009667391
 21
123.7619775003868
 31
0.0
  0
LINE
  5
246
330
75
100
AcDbEntity
  8
Sichtbar MD
100
AcDbLine
 10
242.8924009667391
 20
110.5619775003868
 30
0.0
 11
244.3624009667391
 21
110.5619775003868
 31
0.0
  0
LINE
  5
247
330
75
100
AcDbEntity
  8
Sichtbar MD
100
AcDbLine
 10
244.3624009667391
 20
125.9494775003868
 30
0.0
 11
244.8249009667391
 21
126.4119775003868
 31
0.0
  0
LINE
  5
248
330
75
100
AcDbEntity
  8
Sichtbar MD
100
AcDbLine
 10
244.3624009667391
 20
108.3744775003868
 30
0.0
 11
244.8249009667391
 21
107.9119775003868
 31
0.0
  0
LINE
  5
249
330
75
100
AcDbEntity
  8
Sichtbar MD
100
AcDbLine
 10
244.8249009667391
 20
126.4119775003868
 30
0.0
 11
245.6999009667391
 21
126.4119775003868
 31
0.0
  0
LINE
  5
24A
330
75
100
AcDbEntity
  8
Sichtbar MD
100
AcDbLine
 10
244.8249009667391
 20
107.9119775003868
 30
0.0
 11
245.6999009667391
 21
107.9119775003868
 31
0.0
  0
ARC
  5
24B
330
75
100
AcDbEntity
  8
Sichtbar MD
100
AcDbCircle
 10
245.6999009667391
 20
108.3744775003868
 30
0.0
 40
0.4625000000000001
100
AcDbArc
 50
270.0
 51
0.0
  0
ARC
  5
24C
330
75
100
AcDbEntity
  8
Sichtbar MD
100
AcDbCircle
 10
245.6999009667391
 20
125.9494775003868
 30
0.0
 40
0.4625000000000001
100
AcDbArc
 50
0.0
 51
90.0
  0
LINE
  5
24D
330
75
100
AcDbEntity
  8
Sichtbar MD
100
AcDbLine
 10
218.6124009667391
 20
126.1619775003868
 30
0.0
 11
220.6124009667391
 21
126.1619775003868
 31
0.0
  0
LINE
  5
24E
330
75
100
AcDbEntity
  8
Sichtbar MD
100
AcDbLine
 10
218.6124009667391
 20
108.1619775003868
 30
0.0
 11
220.6124009667391
 21
108.1619775003868
 31
0.0
  0
LINE
  5
24F
330
75
100
AcDbEntity
  8
Sichtbar MD
100
AcDbLine
 10
226.1124009667391
 20
126.4119775003868
 30
0.0
 11
242.8924009667391
 21
126.4119775003868
 31
0.0
  0
LINE
  5
250
330
75
100
AcDbEntity
  8
Sichtbar MD
100
AcDbLine
 10
226.1124009667391
 20
107.9119775003868
 30
0.0
 11
242.8924009667391
 21
107.9119775003868
 31
0.0
  0
POLYLINE
  5
251
330
75
100
AcDbEntity
  8
Sichtbar MD
100
AcDb2dPolyline
 66
     1
 10
0.0
 20
0.0
 30
0.0
 70
   128
  0
VERTEX
  5
252
330
251
100
AcDbEntity
  8
Sichtbar MD
100
AcDbVertex
100
AcDb2dVertex
 10
43.35451713425043
 20
111.965825170942
 30
0.0
  0
VERTEX
  5
253
330
251
100
AcDbEntity
  8
Sichtbar MD
100
AcDbVertex
100
AcDb2dVertex
 10
43.35547494320251
 20
111.8952729410607
 30
0.0
  0
VERTEX
  5
255
330
251
100
AcDbEntity
  8
Sichtbar MD
100
AcDbVertex
100
AcDb2dVertex
 10
43.35833232278871
 20
111.824987739988
 30
0.0
  0
VERTEX
  5
256
330
251
100
AcDbEntity
  8
Sichtbar MD
100
AcDbVertex
100
AcDb2dVertex
 10
43.36306775756582
 20
111.7549099630791
 30
0.0
  0
VERTEX
  5
257
330
251
100
AcDbEntity
  8
Sichtbar MD
100
AcDbVertex
100
AcDb2dVertex
 10
43.36966303886781
 20
111.6849823898751
 30
0.0
  0
VERTEX
  5
258
330
251
100
AcDbEntity
  8
Sichtbar MD
100
AcDbVertex
100
AcDb2dVertex
 10
43.37810315319273
 20
111.6151489920098
 30
0.0
  0
VERTEX
  5
259
330
251
100
AcDbEntity
  8
Sichtbar MD
100
AcDbVertex
100
AcDb2dVertex
 10
43.38837618834275
 20
111.5453531450707
 30
0.0
  0
VERTEX
  5
25A
330
251
100
AcDbEntity
  8
Sichtbar MD
100
AcDbVertex
100
AcDb2dVertex
 10
43.40047324203822
 20
111.4755406088311
 30
0.0
  0
VERTEX
  5
25B
330
251
100
AcDbEntity
  8
Sichtbar MD
100
AcDbVertex
100
AcDb2dVertex
 10
43.41438836545619
 20
111.4056565470177
 30
0.0
  0
VERTEX
  5
25C
330
251
100
AcDbEntity
  8
Sichtbar MD
100
AcDbVertex
100
AcDb2dVertex
 10
43.43011848756048
 20
111.3356485075432
 30
0.0
  0
VERTEX
  5
25D
330
251
100
AcDbEntity
  8
Sichtbar MD
100
AcDbVertex
100
AcDb2dVertex
 10
43.4476633988035
 20
111.265461058088
 30
0.0
  0
VERTEX
  5
25E
330
251
100
AcDbEntity
  8
Sichtbar MD
100
AcDbVertex
100
AcDb2dVertex
 10
43.46702568826201
 20
111.1950429386574
 30
0.0
  0
VERTEX
  5
25F
330
251
100
AcDbEntity
  8
Sichtbar MD
100
AcDbVertex
100
AcDb2dVertex
 10
43.48821074363711
 20
111.1243393129784
 30
0.0
  0
VERTEX
  5
260
330
251
100
AcDbEntity
  8
Sichtbar MD
100
AcDbVertex
100
AcDb2dVertex
 10
43.51122672331455
 20
111.05329832501
 30
0.0
  0
VERTEX
  5
261
330
251
100
AcDbEntity
  8
Sichtbar MD
100
AcDbVertex
100
AcDb2dVertex
 10
43.53608457964781
 20
110.9818651384789
 30
0.0
  0
VERTEX
  5
262
330
251
100
AcDbEntity
  8
Sichtbar MD
100
AcDbVertex
100
AcDb2dVertex
 10
43.56279804033163
 20
110.9099867052513
 30
0.0
  0
VERTEX
  5
263
330
251
100
AcDbEntity
  8
Sichtbar MD
100
AcDbVertex
100
AcDb2dVertex
 10
43.59138364565494
 20
110.8376081890541
 30
0.0
  0
VERTEX
  5
264
330
251
100
AcDbEntity
  8
Sichtbar MD
100
AcDbVertex
100
AcDb2dVertex
 10
43.62186080438021
 20
110.7646741575676
 30
0.0
  0
VERTEX
  5
265
330
251
100
AcDbEntity
  8
Sichtbar MD
100
AcDbVertex
100
AcDb2dVertex
 10
43.65425177511695
 20
110.6911297745186
 30
0.0
  0
VERTEX
  5
266
330
251
100
AcDbEntity
  8
Sichtbar MD
100
AcDbVertex
100
AcDb2dVertex
 10
43.68858179670694
 20
110.6169178194481
 30
0.0
  0
VERTEX
  5
267
330
251
100
AcDbEntity
  8
Sichtbar MD
100
AcDbVertex
100
AcDb2dVertex
 10
43.7248790882242
 20
110.5419804758507
 30
0.0
  0
VERTEX
  5
268
330
251
100
AcDbEntity
  8
Sichtbar MD
100
AcDbVertex
100
AcDb2dVertex
 10
43.76317496073368
 20
110.466258735128
 30
0.0
  0
VERTEX
  5
269
330
251
100
AcDbEntity
  8
Sichtbar MD
100
AcDbVertex
100
AcDb2dVertex
 10
43.80350394767645
 20
110.3896918005425
 30
0.0
  0
VERTEX
  5
26A
330
251
100
AcDbEntity
  8
Sichtbar MD
100
AcDbVertex
100
AcDb2dVertex
 10
43.84590374899032
 20
110.3122182793099
 30
0.0
  0
VERTEX
  5
26B
330
251
100
AcDbEntity
  8
Sichtbar MD
100
AcDbVertex
100
AcDb2dVertex
 10
43.89041552913311
 20
110.2337743944603
 30
0.0
  0
SEQEND
  5
254
330
251
100
AcDbEntity
  8
Sichtbar MD
  0
LINE
  5
26C
330
75
100
AcDbEntity
  8
Sichtbar MD
100
AcDbLine
 10
43.35451713425043
 20
111.9658250776802
 30
0.0
 11
43.35451713425043
 21
111.1619775003868
 31
0.0
  0
LINE
  5
26D
330
75
100
AcDbEntity
  8
Sichtbar MD
100
AcDbLine
 10
43.35451713425043
 20
123.1619775003869
 30
0.0
 11
43.35451713425043
 21
122.3581299230935
 31
0.0
  0
POLYLINE
  5
26E
330
75
100
AcDbEntity
  8
Sichtbar MD
100
AcDb2dPolyline
 66
     1
 10
0.0
 20
0.0
 30
0.0
 70
   128
  0
VERTEX
  5
26F
330
26E
100
AcDbEntity
  8
Sichtbar MD
100
AcDbVertex
100
AcDb2dVertex
 10
43.89041552913311
 20
124.0901806063134
 30
0.0
  0
VERTEX
  5
270
330
26E
100
AcDbEntity
  8
Sichtbar MD
100
AcDbVertex
100
AcDb2dVertex
 10
43.84590374899032
 20
124.0117367214638
 30
0.0
  0
VERTEX
  5
272
330
26E
100
AcDbEntity
  8
Sichtbar MD
100
AcDbVertex
100
AcDb2dVertex
 10
43.80350394767645
 20
123.9342632002312
 30
0.0
  0
VERTEX
  5
273
330
26E
100
AcDbEntity
  8
Sichtbar MD
100
AcDbVertex
100
AcDb2dVertex
 10
43.76317496073368
 20
123.8576962656456
 30
0.0
  0
VERTEX
  5
274
330
26E
100
AcDbEntity
  8
Sichtbar MD
100
AcDbVertex
100
AcDb2dVertex
 10
43.7248790882242
 20
123.781974524923
 30
0.0
  0
VERTEX
  5
275
330
26E
100
AcDbEntity
  8
Sichtbar MD
100
AcDbVertex
100
AcDb2dVertex
 10
43.68858179670694
 20
123.7070371813256
 30
0.0
  0
VERTEX
  5
276
330
26E
100
AcDbEntity
  8
Sichtbar MD
100
AcDbVertex
100
AcDb2dVertex
 10
43.65425177511695
 20
123.6328252262551
 30
0.0
  0
VERTEX
  5
277
330
26E
100
AcDbEntity
  8
Sichtbar MD
100
AcDbVertex
100
AcDb2dVertex
 10
43.62186080438021
 20
123.5592808432061
 30
0.0
  0
VERTEX
  5
278
330
26E
100
AcDbEntity
  8
Sichtbar MD
100
AcDbVertex
100
AcDb2dVertex
 10
43.59138364565494
 20
123.4863468117195
 30
0.0
  0
VERTEX
  5
279
330
26E
100
AcDbEntity
  8
Sichtbar MD
100
AcDbVertex
100
AcDb2dVertex
 10
43.56279804033163
 20
123.4139682955223
 30
0.0
  0
VERTEX
  5
27A
330
26E
100
AcDbEntity
  8
Sichtbar MD
100
AcDbVertex
100
AcDb2dVertex
 10
43.53608457964781
 20
123.3420898622948
 30
0.0
  0
VERTEX
  5
27B
330
26E
100
AcDbEntity
  8
Sichtbar MD
100
AcDbVertex
100
AcDb2dVertex
 10
43.51122672331455
 20
123.2706566757637
 30
0.0
  0
VERTEX
  5
27C
330
26E
100
AcDbEntity
  8
Sichtbar MD
100
AcDbVertex
100
AcDb2dVertex
 10
43.48821074363711
 20
123.1996156877953
 30
0.0
  0
VERTEX
  5
27D
330
26E
100
AcDbEntity
  8
Sichtbar MD
100
AcDbVertex
100
AcDb2dVertex
 10
43.46702568826201
 20
123.1289120621163
 30
0.0
  0
VERTEX
  5
27E
330
26E
100
AcDbEntity
  8
Sichtbar MD
100
AcDbVertex
100
AcDb2dVertex
 10
43.4476633988035
 20
123.0584939426857
 30
0.0
  0
VERTEX
  5
27F
330
26E
100
AcDbEntity
  8
Sichtbar MD
100
AcDbVertex
100
AcDb2dVertex
 10
43.43011848756048
 20
122.9883064932305
 30
0.0
  0
VERTEX
  5
280
330
26E
100
AcDbEntity
  8
Sichtbar MD
100
AcDbVertex
100
AcDb2dVertex
 10
43.41438836545619
 20
122.918298453756
 30
0.0
  0
VERTEX
  5
281
330
26E
100
AcDbEntity
  8
Sichtbar MD
100
AcDbVertex
100
AcDb2dVertex
 10
43.40047324203822
 20
122.8484143919426
 30
0.0
  0
VERTEX
  5
282
330
26E
100
AcDbEntity
  8
Sichtbar MD
100
AcDbVertex
100
AcDb2dVertex
 10
43.38837618834275
 20
122.778601855703
 30
0.0
  0
VERTEX
  5
283
330
26E
100
AcDbEntity
  8
Sichtbar MD
100
AcDbVertex
100
AcDb2dVertex
 10
43.37810315319273
 20
122.7088060087639
 30
0.0
  0
VERTEX
  5
284
330
26E
100
AcDbEntity
  8
Sichtbar MD
100
AcDbVertex
100
AcDb2dVertex
 10
43.36966303886781
 20
122.6389726108986
 30
0.0
  0
VERTEX
  5
285
330
26E
100
AcDbEntity
  8
Sichtbar MD
100
AcDbVertex
100
AcDb2dVertex
 10
43.36306775756582
 20
122.5690450376946
 30
0.0
  0
VERTEX
  5
286
330
26E
100
AcDbEntity
  8
Sichtbar MD
100
AcDbVertex
100
AcDb2dVertex
 10
43.35833232278871
 20
122.4989672607857
 30
0.0
  0
VERTEX
  5
287
330
26E
100
AcDbEntity
  8
Sichtbar MD
100
AcDbVertex
100
AcDb2dVertex
 10
43.35547494320251
 20
122.428682059713
 30
0.0
  0
VERTEX
  5
288
330
26E
100
AcDbEntity
  8
Sichtbar MD
100
AcDbVertex
100
AcDb2dVertex
 10
43.35451713425043
 20
122.3581298298317
 30
0.0
  0
SEQEND
  5
271
330
26E
100
AcDbEntity
  8
Sichtbar MD
  0
POLYLINE
  5
289
330
75
100
AcDbEntity
  8
Sichtbar MD
100
AcDb2dPolyline
 66
     1
 10
0.0
 20
0.0
 30
0.0
 70
   128
  0
VERTEX
  5
28A
330
289
100
AcDbEntity
  8
Sichtbar MD
100
AcDbVertex
100
AcDb2dVertex
 10
43.35451713425043
 20
122.3581298298317
 30
0.0
  0
VERTEX
  5
28B
330
289
100
AcDbEntity
  8
Sichtbar MD
100
AcDbVertex
100
AcDb2dVertex
 10
43.35547494320251
 20
122.2875775999504
 30
0.0
  0
VERTEX
  5
28D
330
289
100
AcDbEntity
  8
Sichtbar MD
100
AcDbVertex
100
AcDb2dVertex
 10
43.35833232278871
 20
122.2172923988777
 30
0.0
  0
VERTEX
  5
28E
330
289
100
AcDbEntity
  8
Sichtbar MD
100
AcDbVertex
100
AcDb2dVertex
 10
43.36306775756582
 20
122.1472149199921
 30
0.0
  0
VERTEX
  5
28F
330
289
100
AcDbEntity
  8
Sichtbar MD
100
AcDbVertex
100
AcDb2dVertex
 10
43.36966303886781
 20
122.0772873467881
 30
0.0
  0
VERTEX
  5
290
330
289
100
AcDbEntity
  8
Sichtbar MD
100
AcDbVertex
100
AcDb2dVertex
 10
43.37810315319273
 20
122.0074536508995
 30
0.0
  0
VERTEX
  5
291
330
289
100
AcDbEntity
  8
Sichtbar MD
100
AcDbVertex
100
AcDb2dVertex
 10
43.38837618834275
 20
121.9376581019837
 30
0.0
  0
VERTEX
  5
292
330
289
100
AcDbEntity
  8
Sichtbar MD
100
AcDbVertex
100
AcDb2dVertex
 10
43.40047324203822
 20
121.8678452677208
 30
0.0
  0
VERTEX
  5
293
330
289
100
AcDbEntity
  8
Sichtbar MD
100
AcDbVertex
100
AcDb2dVertex
 10
43.41438836545619
 20
121.7979618019539
 30
0.0
  0
VERTEX
  5
294
330
289
100
AcDbEntity
  8
Sichtbar MD
100
AcDbVertex
100
AcDb2dVertex
 10
43.43011848756048
 20
121.727953166433
 30
0.0
  0
VERTEX
  5
295
330
289
100
AcDbEntity
  8
Sichtbar MD
100
AcDbVertex
100
AcDb2dVertex
 10
43.4476633988035
 20
121.6577663130242
 30
0.0
  0
VERTEX
  5
296
330
289
100
AcDbEntity
  8
Sichtbar MD
100
AcDbVertex
100
AcDb2dVertex
 10
43.46702568826201
 20
121.5873475975472
 30
0.0
  0
VERTEX
  5
297
330
289
100
AcDbEntity
  8
Sichtbar MD
100
AcDbVertex
100
AcDb2dVertex
 10
43.48821074363711
 20
121.5166442698914
 30
0.0
  0
VERTEX
  5
298
330
289
100
AcDbEntity
  8
Sichtbar MD
100
AcDbVertex
100
AcDb2dVertex
 10
43.51122672331455
 20
121.4456029838997
 30
0.0
  0
VERTEX
  5
299
330
289
100
AcDbEntity
  8
Sichtbar MD
100
AcDbVertex
100
AcDb2dVertex
 10
43.53608457964781
 20
121.3741700953919
 30
0.0
  0
VERTEX
  5
29A
330
289
100
AcDbEntity
  8
Sichtbar MD
100
AcDbVertex
100
AcDb2dVertex
 10
43.56279804033163
 20
121.3022913641411
 30
0.0
  0
VERTEX
  5
29B
330
289
100
AcDbEntity
  8
Sichtbar MD
100
AcDbVertex
100
AcDb2dVertex
 10
43.59138364565494
 20
121.2299128479439
 30
0.0
  0
VERTEX
  5
29C
330
289
100
AcDbEntity
  8
Sichtbar MD
100
AcDbVertex
100
AcDb2dVertex
 10
43.62186080438021
 20
121.1569794125038
 30
0.0
  0
VERTEX
  5
29D
330
289
100
AcDbEntity
  8
Sichtbar MD
100
AcDbVertex
100
AcDb2dVertex
 10
43.65425177511695
 20
121.0834347314316
 30
0.0
  0
VERTEX
  5
29E
330
289
100
AcDbEntity
  8
Sichtbar MD
100
AcDbVertex
100
AcDb2dVertex
 10
43.68858179670694
 20
121.0092227763611
 30
0.0
  0
VERTEX
  5
29F
330
289
100
AcDbEntity
  8
Sichtbar MD
100
AcDbVertex
100
AcDb2dVertex
 10
43.7248790882242
 20
120.9342854327637
 30
0.0
  0
VERTEX
  5
2A0
330
289
100
AcDbEntity
  8
Sichtbar MD
100
AcDbVertex
100
AcDb2dVertex
 10
43.76317496073368
 20
120.8585633940178
 30
0.0
  0
VERTEX
  5
2A1
330
289
100
AcDbEntity
  8
Sichtbar MD
100
AcDbVertex
100
AcDb2dVertex
 10
43.80350394767645
 20
120.7819967574555
 30
0.0
  0
VERTEX
  5
2A2
330
289
100
AcDbEntity
  8
Sichtbar MD
100
AcDbVertex
100
AcDb2dVertex
 10
43.84590374899032
 20
120.7045232362229
 30
0.0
  0
VERTEX
  5
2A3
330
289
100
AcDbEntity
  8
Sichtbar MD
100
AcDbVertex
100
AcDb2dVertex
 10
43.89041552913311
 20
120.6260790533501
 30
0.0
  0
SEQEND
  5
28C
330
289
100
AcDbEntity
  8
Sichtbar MD
  0
LINE
  5
2A4
330
75
100
AcDbEntity
  8
Sichtbar MD
100
AcDbLine
 10
43.35451713425043
 20
122.3581299230935
 30
0.0
 11
43.35451713425043
 21
117.6619775003868
 31
0.0
  0
LINE
  5
2A5
330
75
100
AcDbEntity
  8
Sichtbar MD
100
AcDbLine
 10
43.36652445501584
 20
117.6619775078374
 30
0.0
 11
43.35451713425043
 21
117.6619775078374
 31
0.0
  0
POLYLINE
  5
2A6
330
75
100
AcDbEntity
  8
Sichtbar MD
100
AcDb2dPolyline
 66
     1
 10
0.0
 20
0.0
 30
0.0
 70
   128
  0
VERTEX
  5
2A7
330
2A6
100
AcDbEntity
  8
Sichtbar MD
100
AcDbVertex
100
AcDb2dVertex
 10
43.89041552913311
 20
120.6260790533501
 30
0.0
  0
VERTEX
  5
2A8
330
2A6
100
AcDbEntity
  8
Sichtbar MD
100
AcDbVertex
100
AcDb2dVertex
 10
43.85236954909685
 20
120.4923286146599
 30
0.0
  0
VERTEX
  5
2AA
330
2A6
100
AcDbEntity
  8
Sichtbar MD
100
AcDbVertex
100
AcDb2dVertex
 10
43.81586025130871
 20
120.3600000447708
 30
0.0
  0
VERTEX
  5
2AB
330
2A6
100
AcDbEntity
  8
Sichtbar MD
100
AcDbVertex
100
AcDb2dVertex
 10
43.7808617077482
 20
120.2290143675286
 30
0.0
  0
VERTEX
  5
2AC
330
2A6
100
AcDbEntity
  8
Sichtbar MD
100
AcDbVertex
100
AcDb2dVertex
 10
43.74734989029291
 20
120.0992937988716
 30
0.0
  0
VERTEX
  5
2AD
330
2A6
100
AcDbEntity
  8
Sichtbar MD
100
AcDbVertex
100
AcDb2dVertex
 10
43.71530237269523
 20
119.9707632369477
 30
0.0
  0
VERTEX
  5
2AE
330
2A6
100
AcDbEntity
  8
Sichtbar MD
100
AcDbVertex
100
AcDb2dVertex
 10
43.68469851684692
 20
119.8433484739739
 30
0.0
  0
VERTEX
  5
2AF
330
2A6
100
AcDbEntity
  8
Sichtbar MD
100
AcDbVertex
100
AcDb2dVertex
 10
43.65551939827326
 20
119.7169767922837
 30
0.0
  0
VERTEX
  5
2B0
330
2A6
100
AcDbEntity
  8
Sichtbar MD
100
AcDbVertex
100
AcDb2dVertex
 10
43.62774758261564
 20
119.5915768153149
 30
0.0
  0
VERTEX
  5
2B1
330
2A6
100
AcDbEntity
  8
Sichtbar MD
100
AcDbVertex
100
AcDb2dVertex
 10
43.60136731189611
 20
119.4670782095867
 30
0.0
  0
VERTEX
  5
2B2
330
2A6
100
AcDbEntity
  8
Sichtbar MD
100
AcDbVertex
100
AcDb2dVertex
 10
43.57636433687928
 20
119.3434118337113
 30
0.0
  0
VERTEX
  5
2B3
330
2A6
100
AcDbEntity
  8
Sichtbar MD
100
AcDbVertex
100
AcDb2dVertex
 10
43.55272595432523
 20
119.2205092913586
 30
0.0
  0
VERTEX
  5
2B4
330
2A6
100
AcDbEntity
  8
Sichtbar MD
100
AcDbVertex
100
AcDb2dVertex
 10
43.5304409697366
 20
119.0983027822453
 30
0.0
  0
VERTEX
  5
2B5
330
2A6
100
AcDbEntity
  8
Sichtbar MD
100
AcDbVertex
100
AcDb2dVertex
 10
43.50949966010573
 20
118.9767254001576
 30
0.0
  0
VERTEX
  5
2B6
330
2A6
100
AcDbEntity
  8
Sichtbar MD
100
AcDbVertex
100
AcDb2dVertex
 10
43.48989381116751
 20
118.8557106859166
 30
0.0
  0
VERTEX
  5
2B7
330
2A6
100
AcDbEntity
  8
Sichtbar MD
100
AcDbVertex
100
AcDb2dVertex
 10
43.47161665220681
 20
118.7351923293549
 30
0.0
  0
VERTEX
  5
2B8
330
2A6
100
AcDbEntity
  8
Sichtbar MD
100
AcDbVertex
100
AcDb2dVertex
 10
43.45466288399818
 20
118.6151044673401
 30
0.0
  0
VERTEX
  5
2B9
330
2A6
100
AcDbEntity
  8
Sichtbar MD
100
AcDbVertex
100
AcDb2dVertex
 10
43.4390286601794
 20
118.4953812367398
 30
0.0
  0
VERTEX
  5
2BA
330
2A6
100
AcDbEntity
  8
Sichtbar MD
100
AcDbVertex
100
AcDb2dVertex
 10
43.42471161519113
 20
118.3759571469504
 30
0.0
  0
VERTEX
  5
2BB
330
2A6
100
AcDbEntity
  8
Sichtbar MD
100
AcDbVertex
100
AcDb2dVertex
 10
43.41171083633724
 20
118.256766111322
 30
0.0
  0
VERTEX
  5
2BC
330
2A6
100
AcDbEntity
  8
Sichtbar MD
100
AcDbVertex
100
AcDb2dVertex
 10
43.40002691966417
 20
118.1377421177107
 30
0.0
  0
VERTEX
  5
2BD
330
2A6
100
AcDbEntity
  8
Sichtbar MD
100
AcDbVertex
100
AcDb2dVertex
 10
43.38966193969297
 20
118.01881848342
 30
0.0
  0
VERTEX
  5
2BE
330
2A6
100
AcDbEntity
  8
Sichtbar MD
100
AcDbVertex
100
AcDb2dVertex
 10
43.38061950529861
 20
117.8999284512478
 30
0.0
  0
VERTEX
  5
2BF
330
2A6
100
AcDbEntity
  8
Sichtbar MD
100
AcDbVertex
100
AcDb2dVertex
 10
43.37290476669493
 20
117.7810042209107
 30
0.0
  0
VERTEX
  5
2C0
330
2A6
100
AcDbEntity
  8
Sichtbar MD
100
AcDbVertex
100
AcDb2dVertex
 10
43.36652445501584
 20
117.6619775078374
 30
0.0
  0
SEQEND
  5
2A9
330
2A6
100
AcDbEntity
  8
Sichtbar MD
  0
LINE
  5
2C1
330
75
100
AcDbEntity
  8
Sichtbar MD
100
AcDbLine
 10
43.35451713425043
 20
116.6619774929363
 30
0.0
 11
43.36652445501584
 21
116.6619774929363
 31
0.0
  0
LINE
  5
2C2
330
75
100
AcDbEntity
  8
Sichtbar MD
100
AcDbLine
 10
43.35451713425043
 20
116.6619775003868
 30
0.0
 11
43.35451713425043
 21
111.9658250776802
 31
0.0
  0
POLYLINE
  5
2C3
330
75
100
AcDbEntity
  8
Sichtbar MD
100
AcDb2dPolyline
 66
     1
 10
0.0
 20
0.0
 30
0.0
 70
   128
  0
VERTEX
  5
2C4
330
2C3
100
AcDbEntity
  8
Sichtbar MD
100
AcDbVertex
100
AcDb2dVertex
 10
43.89041552913311
 20
113.6978759474236
 30
0.0
  0
VERTEX
  5
2C5
330
2C3
100
AcDbEntity
  8
Sichtbar MD
100
AcDbVertex
100
AcDb2dVertex
 10
43.84590374899032
 20
113.6194317645508
 30
0.0
  0
VERTEX
  5
2C7
330
2C3
100
AcDbEntity
  8
Sichtbar MD
100
AcDbVertex
100
AcDb2dVertex
 10
43.80350394767645
 20
113.5419582433182
 30
0.0
  0
VERTEX
  5
2C8
330
2C3
100
AcDbEntity
  8
Sichtbar MD
100
AcDbVertex
100
AcDb2dVertex
 10
43.76317496073368
 20
113.4653916067559
 30
0.0
  0
VERTEX
  5
2C9
330
2C3
100
AcDbEntity
  8
Sichtbar MD
100
AcDbVertex
100
AcDb2dVertex
 10
43.7248790882242
 20
113.38966956801
 30
0.0
  0
VERTEX
  5
2CA
330
2C3
100
AcDbEntity
  8
Sichtbar MD
100
AcDbVertex
100
AcDb2dVertex
 10
43.68858179670694
 20
113.3147322244126
 30
0.0
  0
VERTEX
  5
2CB
330
2C3
100
AcDbEntity
  8
Sichtbar MD
100
AcDbVertex
100
AcDb2dVertex
 10
43.65425177511695
 20
113.2405202693421
 30
0.0
  0
VERTEX
  5
2CC
330
2C3
100
AcDbEntity
  8
Sichtbar MD
100
AcDbVertex
100
AcDb2dVertex
 10
43.62186080438021
 20
113.1669755882698
 30
0.0
  0
VERTEX
  5
2CD
330
2C3
100
AcDbEntity
  8
Sichtbar MD
100
AcDbVertex
100
AcDb2dVertex
 10
43.59138364565494
 20
113.0940421528298
 30
0.0
  0
VERTEX
  5
2CE
330
2C3
100
AcDbEntity
  8
Sichtbar MD
100
AcDbVertex
100
AcDb2dVertex
 10
43.56279804033163
 20
113.0216636366326
 30
0.0
  0
VERTEX
  5
2CF
330
2C3
100
AcDbEntity
  8
Sichtbar MD
100
AcDbVertex
100
AcDb2dVertex
 10
43.53608457964781
 20
112.9497849053818
 30
0.0
  0
VERTEX
  5
2D0
330
2C3
100
AcDbEntity
  8
Sichtbar MD
100
AcDbVertex
100
AcDb2dVertex
 10
43.51122672331455
 20
112.878352016874
 30
0.0
  0
VERTEX
  5
2D1
330
2C3
100
AcDbEntity
  8
Sichtbar MD
100
AcDbVertex
100
AcDb2dVertex
 10
43.48821074363711
 20
112.8073107308823
 30
0.0
  0
VERTEX
  5
2D2
330
2C3
100
AcDbEntity
  8
Sichtbar MD
100
AcDbVertex
100
AcDb2dVertex
 10
43.46702568826201
 20
112.7366074032265
 30
0.0
  0
VERTEX
  5
2D3
330
2C3
100
AcDbEntity
  8
Sichtbar MD
100
AcDbVertex
100
AcDb2dVertex
 10
43.4476633988035
 20
112.6661886877495
 30
0.0
  0
VERTEX
  5
2D4
330
2C3
100
AcDbEntity
  8
Sichtbar MD
100
AcDbVertex
100
AcDb2dVertex
 10
43.43011848756048
 20
112.5960018343407
 30
0.0
  0
VERTEX
  5
2D5
330
2C3
100
AcDbEntity
  8
Sichtbar MD
100
AcDbVertex
100
AcDb2dVertex
 10
43.41438836545619
 20
112.5259931988198
 30
0.0
  0
VERTEX
  5
2D6
330
2C3
100
AcDbEntity
  8
Sichtbar MD
100
AcDbVertex
100
AcDb2dVertex
 10
43.40047324203822
 20
112.4561097330529
 30
0.0
  0
VERTEX
  5
2D7
330
2C3
100
AcDbEntity
  8
Sichtbar MD
100
AcDbVertex
100
AcDb2dVertex
 10
43.38837618834275
 20
112.38629689879
 30
0.0
  0
VERTEX
  5
2D8
330
2C3
100
AcDbEntity
  8
Sichtbar MD
100
AcDbVertex
100
AcDb2dVertex
 10
43.37810315319273
 20
112.3165013498741
 30
0.0
  0
VERTEX
  5
2D9
330
2C3
100
AcDbEntity
  8
Sichtbar MD
100
AcDbVertex
100
AcDb2dVertex
 10
43.36966303886781
 20
112.2466676539856
 30
0.0
  0
VERTEX
  5
2DA
330
2C3
100
AcDbEntity
  8
Sichtbar MD
100
AcDbVertex
100
AcDb2dVertex
 10
43.36306775756582
 20
112.1767400807816
 30
0.0
  0
VERTEX
  5
2DB
330
2C3
100
AcDbEntity
  8
Sichtbar MD
100
AcDbVertex
100
AcDb2dVertex
 10
43.35833232278871
 20
112.1066626018959
 30
0.0
  0
VERTEX
  5
2DC
330
2C3
100
AcDbEntity
  8
Sichtbar MD
100
AcDbVertex
100
AcDb2dVertex
 10
43.35547494320251
 20
112.0363774008232
 30
0.0
  0
VERTEX
  5
2DD
330
2C3
100
AcDbEntity
  8
Sichtbar MD
100
AcDbVertex
100
AcDb2dVertex
 10
43.35451713425043
 20
111.965825170942
 30
0.0
  0
SEQEND
  5
2C6
330
2C3
100
AcDbEntity
  8
Sichtbar MD
  0
POLYLINE
  5
2DE
330
75
100
AcDbEntity
  8
Sichtbar MD
100
AcDb2dPolyline
 66
     1
 10
0.0
 20
0.0
 30
0.0
 70
   128
  0
VERTEX
  5
2DF
330
2DE
100
AcDbEntity
  8
Sichtbar MD
100
AcDbVertex
100
AcDb2dVertex
 10
43.36652445501584
 20
116.6619774929363
 30
0.0
  0
VERTEX
  5
2E0
330
2DE
100
AcDbEntity
  8
Sichtbar MD
100
AcDbVertex
100
AcDb2dVertex
 10
43.37290476669493
 20
116.542950779863
 30
0.0
  0
VERTEX
  5
2E2
330
2DE
100
AcDbEntity
  8
Sichtbar MD
100
AcDbVertex
100
AcDb2dVertex
 10
43.38061950529861
 20
116.4240265495259
 30
0.0
  0
VERTEX
  5
2E3
330
2DE
100
AcDbEntity
  8
Sichtbar MD
100
AcDbVertex
100
AcDb2dVertex
 10
43.38966193969297
 20
116.3051365173537
 30
0.0
  0
VERTEX
  5
2E4
330
2DE
100
AcDbEntity
  8
Sichtbar MD
100
AcDbVertex
100
AcDb2dVertex
 10
43.40002691966417
 20
116.186212883063
 30
0.0
  0
VERTEX
  5
2E5
330
2DE
100
AcDbEntity
  8
Sichtbar MD
100
AcDbVertex
100
AcDb2dVertex
 10
43.41171083633724
 20
116.0671888894516
 30
0.0
  0
VERTEX
  5
2E6
330
2DE
100
AcDbEntity
  8
Sichtbar MD
100
AcDbVertex
100
AcDb2dVertex
 10
43.42471161519113
 20
115.9479978538233
 30
0.0
  0
VERTEX
  5
2E7
330
2DE
100
AcDbEntity
  8
Sichtbar MD
100
AcDbVertex
100
AcDb2dVertex
 10
43.4390286601794
 20
115.8285737640339
 30
0.0
  0
VERTEX
  5
2E8
330
2DE
100
AcDbEntity
  8
Sichtbar MD
100
AcDbVertex
100
AcDb2dVertex
 10
43.45466288399818
 20
115.7088505334336
 30
0.0
  0
VERTEX
  5
2E9
330
2DE
100
AcDbEntity
  8
Sichtbar MD
100
AcDbVertex
100
AcDb2dVertex
 10
43.47161665220681
 20
115.5887626714188
 30
0.0
  0
VERTEX
  5
2EA
330
2DE
100
AcDbEntity
  8
Sichtbar MD
100
AcDbVertex
100
AcDb2dVertex
 10
43.48989381116751
 20
115.4682443148571
 30
0.0
  0
VERTEX
  5
2EB
330
2DE
100
AcDbEntity
  8
Sichtbar MD
100
AcDbVertex
100
AcDb2dVertex
 10
43.50949966010573
 20
115.3472296006161
 30
0.0
  0
VERTEX
  5
2EC
330
2DE
100
AcDbEntity
  8
Sichtbar MD
100
AcDbVertex
100
AcDb2dVertex
 10
43.5304409697366
 20
115.2256522185284
 30
0.0
  0
VERTEX
  5
2ED
330
2DE
100
AcDbEntity
  8
Sichtbar MD
100
AcDbVertex
100
AcDb2dVertex
 10
43.55272595432523
 20
115.1034457094151
 30
0.0
  0
VERTEX
  5
2EE
330
2DE
100
AcDbEntity
  8
Sichtbar MD
100
AcDbVertex
100
AcDb2dVertex
 10
43.57636433687928
 20
114.9805431670624
 30
0.0
  0
VERTEX
  5
2EF
330
2DE
100
AcDbEntity
  8
Sichtbar MD
100
AcDbVertex
100
AcDb2dVertex
 10
43.60136731189611
 20
114.8568767911869
 30
0.0
  0
VERTEX
  5
2F0
330
2DE
100
AcDbEntity
  8
Sichtbar MD
100
AcDbVertex
100
AcDb2dVertex
 10
43.62774758261564
 20
114.7323781854588
 30
0.0
  0
VERTEX
  5
2F1
330
2DE
100
AcDbEntity
  8
Sichtbar MD
100
AcDbVertex
100
AcDb2dVertex
 10
43.65551939827326
 20
114.60697820849
 30
0.0
  0
VERTEX
  5
2F2
330
2DE
100
AcDbEntity
  8
Sichtbar MD
100
AcDbVertex
100
AcDb2dVertex
 10
43.68469851684692
 20
114.4806065267998
 30
0.0
  0
VERTEX
  5
2F3
330
2DE
100
AcDbEntity
  8
Sichtbar MD
100
AcDbVertex
100
AcDb2dVertex
 10
43.71530237269523
 20
114.353191763826
 30
0.0
  0
VERTEX
  5
2F4
330
2DE
100
AcDbEntity
  8
Sichtbar MD
100
AcDbVertex
100
AcDb2dVertex
 10
43.74734989029291
 20
114.224661201902
 30
0.0
  0
VERTEX
  5
2F5
330
2DE
100
AcDbEntity
  8
Sichtbar MD
100
AcDbVertex
100
AcDb2dVertex
 10
43.7808617077482
 20
114.0949406332451
 30
0.0
  0
VERTEX
  5
2F6
330
2DE
100
AcDbEntity
  8
Sichtbar MD
100
AcDbVertex
100
AcDb2dVertex
 10
43.81586025130871
 20
113.9639549560028
 30
0.0
  0
VERTEX
  5
2F7
330
2DE
100
AcDbEntity
  8
Sichtbar MD
100
AcDbVertex
100
AcDb2dVertex
 10
43.85236954909685
 20
113.8316263861138
 30
0.0
  0
VERTEX
  5
2F8
330
2DE
100
AcDbEntity
  8
Sichtbar MD
100
AcDbVertex
100
AcDb2dVertex
 10
43.89041552913311
 20
113.6978759474236
 30
0.0
  0
SEQEND
  5
2E1
330
2DE
100
AcDbEntity
  8
Sichtbar MD
  0
LINE
  5
2F9
330
75
100
AcDbEntity
  8
Sichtbar MD
100
AcDbLine
 10
43.35451713425043
 20
111.1619775003868
 30
0.0
 11
43.89041551911268
 21
110.2337742701113
 31
0.0
  0
LINE
  5
2FA
330
75
100
AcDbEntity
  8
Sichtbar MD
100
AcDbLine
 10
43.35451713425043
 20
123.1619775003868
 30
0.0
 11
43.89041551911268
 21
124.0901807306624
 31
0.0
  0
LINE
  5
2FB
330
75
100
AcDbEntity
  8
Sichtbar MD
100
AcDbLine
 10
43.89041551911268
 20
113.6978758852491
 30
0.0
 11
51.85451713425042
 21
113.6978758852491
 31
0.0
  0
LINE
  5
2FC
330
75
100
AcDbEntity
  8
Sichtbar MD
100
AcDbLine
 10
51.85451713425042
 20
110.2337742701113
 30
0.0
 11
43.89041551911268
 21
110.2337742701113
 31
0.0
  0
LINE
  5
2FD
330
75
100
AcDbEntity
  8
Sichtbar MD
100
AcDbLine
 10
51.85451713425042
 20
124.0901807306624
 30
0.0
 11
43.89041551911268
 21
124.0901807306624
 31
0.0
  0
LINE
  5
2FE
330
75
100
AcDbEntity
  8
Sichtbar MD
100
AcDbLine
 10
51.85451713425042
 20
120.6260791155246
 30
0.0
 11
43.89041551911268
 21
120.6260791155246
 31
0.0
  0
LINE
  5
2FF
330
75
100
AcDbEntity
  8
Sichtbar MD
100
AcDbLine
 10
51.85451713425042
 20
116.6619775003868
 30
0.0
 11
43.36652445488169
 21
116.6619775003868
 31
0.0
  0
LINE
  5
300
330
75
100
AcDbEntity
  8
Sichtbar MD
100
AcDbLine
 10
43.36652445488169
 20
117.6619775003868
 30
0.0
 11
51.85451713425042
 21
117.6619775003868
 31
0.0
  0
LINE
  5
301
330
75
100
AcDbEntity
  8
Sichtbar MD
100
AcDbLine
 10
52.85451701504114
 20
117.6619775078374
 30
0.0
 11
54.51240053993585
 21
117.6619775078374
 31
0.0
  0
LINE
  5
302
330
75
100
AcDbEntity
  8
Sichtbar MD
100
AcDbLine
 10
51.85451713425042
 20
117.6619775003868
 30
0.0
 11
52.85451713425041
 21
117.6619775003868
 31
0.0
  0
LINE
  5
303
330
75
100
AcDbEntity
  8
Sichtbar MD
100
AcDbLine
 10
52.85451713425041
 20
116.6619775003868
 30
0.0
 11
51.85451713425042
 21
116.6619775003868
 31
0.0
  0
LINE
  5
304
330
75
100
AcDbEntity
  8
Sichtbar MD
100
AcDbLine
 10
54.51240053993585
 20
116.6619774929363
 30
0.0
 11
52.85451701504114
 21
116.6619774929363
 31
0.0
  0
LINE
  5
305
330
75
100
AcDbEntity
  8
Sichtbar MD
100
AcDbLine
 10
43.35451713425043
 20
116.6619775003868
 30
0.0
 11
43.35451713425043
 21
117.6619775003868
 31
0.0
  0
LINE
  5
306
330
75
100
AcDbEntity
  8
Sichtbar MD
100
AcDbLine
 10
52.85451713425043
 20
109.1619775003868
 30
0.0
 11
52.85451713425043
 21
116.6619775003869
 31
0.0
  0
LINE
  5
307
330
75
100
AcDbEntity
  8
Sichtbar MD
100
AcDbLine
 10
52.85451713425043
 20
117.6619775003868
 30
0.0
 11
52.85451713425043
 21
125.1619775003868
 31
0.0
  0
LINE
  5
308
330
75
100
AcDbEntity
  8
Sichtbar MD
100
AcDbLine
 10
51.85451713425042
 20
109.1619775003868
 30
0.0
 11
52.85451713425041
 21
109.1619775003868
 31
0.0
  0
LINE
  5
309
330
75
100
AcDbEntity
  8
Sichtbar MD
100
AcDbLine
 10
54.51240096673912
 20
109.6062061344468
 30
0.0
 11
52.85451713425041
 21
109.1619775003868
 31
0.0
  0
LINE
  5
30A
330
75
100
AcDbEntity
  8
Sichtbar MD
100
AcDbLine
 10
54.51240096673912
 20
124.7177488663269
 30
0.0
 11
52.85451713425041
 21
125.1619775003868
 31
0.0
  0
LINE
  5
30B
330
75
100
AcDbEntity
  8
Sichtbar MD
100
AcDbLine
 10
51.85451713425042
 20
125.1619775003868
 30
0.0
 11
52.85451713425041
 21
125.1619775003868
 31
0.0
  0
LINE
  5
30C
330
75
100
AcDbEntity
  8
Sichtbar MD
100
AcDbLine
 10
51.85451713425042
 20
109.1619775003868
 30
0.0
 11
51.85451713425042
 21
116.6619775003869
 31
0.0
  0
LINE
  5
30D
330
75
100
AcDbEntity
  8
Sichtbar MD
100
AcDbLine
 10
51.85451713425042
 20
117.6619775003868
 30
0.0
 11
51.85451713425042
 21
125.1619775003868
 31
0.0
  0
LINE
  5
30E
330
75
100
AcDbEntity
  8
Sichtbar MD
100
AcDbLine
 10
80.512400966739
 20
105.1619775003869
 30
0.0
 11
80.512400966739
 21
129.1619775003869
 31
0.0
  0
LINE
  5
30F
330
75
100
AcDbEntity
  8
Sichtbar MD
100
AcDbLine
 10
90.512400966739
 20
98.16197750038691
 30
0.0
 11
90.512400966739
 21
136.1619775003869
 31
0.0
  0
LINE
  5
310
330
75
100
AcDbEntity
  8
Sichtbar MD
100
AcDbLine
 10
93.51240096673903
 20
98.16197750038691
 30
0.0
 11
93.51240096673903
 21
136.1619775003869
 31
0.0
  0
LINE
  5
311
330
75
100
AcDbEntity
  8
Sichtbar MD
100
AcDbLine
 10
80.512400966739
 20
129.1619775003869
 30
0.0
 11
86.33477565578429
 21
129.1619775003869
 31
0.0
  0
LINE
  5
312
330
75
100
AcDbEntity
  8
Sichtbar MD
100
AcDbLine
 10
80.512400966739
 20
105.1619775003869
 30
0.0
 11
86.33477565578429
 21
105.1619775003869
 31
0.0
  0
ARC
  5
313
330
75
100
AcDbEntity
  8
Sichtbar MD
100
AcDbCircle
 10
86.33477565578429
 20
102.1619775003869
 30
0.0
 40
3.0
100
AcDbArc
 50
15.00000000000007
 51
90.0
  0
ARC
  5
314
330
75
100
AcDbEntity
  8
Sichtbar MD
100
AcDbCircle
 10
86.33477565578429
 20
132.1619775003869
 30
0.0
 40
3.0
100
AcDbArc
 50
270.0
 51
344.9999999999999
  0
LINE
  5
315
330
75
100
AcDbEntity
  8
Sichtbar MD
100
AcDbLine
 10
89.23255313465148
 20
131.3855203650793
 30
0.0
 11
90.512400966739
 21
136.1619775003869
 31
0.0
  0
LINE
  5
316
330
75
100
AcDbEntity
  8
Sichtbar MD
100
AcDbLine
 10
89.23255313465148
 20
102.9384346356944
 30
0.0
 11
90.512400966739
 21
98.16197750038691
 31
0.0
  0
LINE
  5
317
330
75
100
AcDbEntity
  8
Sichtbar MD
100
AcDbLine
 10
90.512400966739
 20
136.1619775003869
 30
0.0
 11
93.51240096673903
 21
136.1619775003869
 31
0.0
  0
LINE
  5
318
330
75
100
AcDbEntity
  8
Sichtbar MD
100
AcDbLine
 10
90.512400966739
 20
98.16197750038691
 30
0.0
 11
93.51240096673903
 21
98.16197750038691
 31
0.0
  0
ENDSEC
  0
SECTION
  2
OBJECTS
  0
DICTIONARY
  5
C
330
0
100
AcDbDictionary
281
     1
  3
ACAD_COLOR
350
6B
  3
ACAD_GROUP
350
D
  3
ACAD_LAYOUT
350
6A
  3
ACAD_MATERIAL
350
10
  3
ACAD_MLEADERSTYLE
350
6E
  3
ACAD_MLINESTYLE
350
67
  3
ACAD_PLOTSETTINGS
350
69
  3
ACAD_PLOTSTYLENAME
350
E
  3
ACAD_SCALELIST
350
3A
  3
ACAD_TABLESTYLE
350
6C
  3
ACAD_VISUALSTYLE
350
29
  3
ACDB_RECOMPOSE_DATA
350
321
  3
AcDbVariableDictionary
350
319
  0
DICTIONARY
  5
6B
102
{ACAD_REACTORS
330
C
102
}
330
C
100
AcDbDictionary
281
     1
  0
DICTIONARY
  5
D
102
{ACAD_REACTORS
330
C
102
}
330
C
100
AcDbDictionary
281
     1
  0
DICTIONARY
  5
6A
102
{ACAD_REACTORS
330
C
102
}
330
C
100
AcDbDictionary
281
     1
  3
Layout1
350
74
  3
Layout2
350
7C
  3
Model
350
78
  0
DICTIONARY
  5
10
102
{ACAD_REACTORS
330
C
102
}
330
C
100
AcDbDictionary
281
     1
  3
ByBlock
350
19
  3
ByLayer
350
11
  3
Global
350
21
  0
DICTIONARY
  5
6E
102
{ACAD_REACTORS
330
C
102
}
330
C
100
AcDbDictionary
281
     1
  3
Standard
350
6F
  0
DICTIONARY
  5
67
102
{ACAD_REACTORS
330
C
102
}
330
C
100
AcDbDictionary
281
     1
  3
Standard
350
68
  0
DICTIONARY
  5
69
102
{ACAD_REACTORS
330
C
102
}
330
C
100
AcDbDictionary
281
     1
  0
ACDBDICTIONARYWDFLT
  5
E
102
{ACAD_REACTORS
330
C
102
}
330
C
100
AcDbDictionary
281
     1
  3
Normal
350
F
100
AcDbDictionaryWithDefault
340
F
  0
DICTIONARY
  5
3A
102
{ACAD_REACTORS
330
C
102
}
330
C
100
AcDbDictionary
281
     1
  3
A0
350
3B
  3
A1
350
3C
  3
A2
350
3D
  3
A3
350
3E
  3
A4
350
3F
  3
A5
350
40
  3
A6
350
41
  3
A7
350
42
  3
A8
350
43
  3
A9
350
44
  3
B0
350
45
  3
B1
350
46
  3
B2
350
47
  3
B3
350
48
  3
B4
350
49
  3
B5
350
4A
  3
B6
350
4B
  3
B7
350
4C
  3
B8
350
4D
  3
B9
350
4E
  3
C0
350
4F
  3
C1
350
50
  3
C2
350
51
  3
C3
350
52
  3
C4
350
53
  3
C5
350
54
  3
C6
350
55
  3
C7
350
56
  3
C8
350
57
  3
C9
350
58
  3
D0
350
59
  3
D1
350
5A
  3
D2
350
5B
  0
DICTIONARY
  5
6C
102
{ACAD_REACTORS
330
C
102
}
330
C
100
AcDbDictionary
281
     1
  3
Standard
350
6D
  0
DICTIONARY
  5
29
102
{ACAD_REACTORS
330
C
102
}
330
C
100
AcDbDictionary
281
     1
  3
2dWireframe
350
2F
  3
3D Hidden
350
31
  3
3dWireframe
350
30
  3
Basic
350
2E
  3
Brighten
350
35
  3
ColorChange
350
39
  3
Conceptual
350
32
  3
Dim
350
34
  3
Facepattern
350
38
  3
Flat
350
2A
  3
FlatWithEdges
350
2B
  3
Gouraud
350
2C
  3
GouraudWithEdges
350
2D
  3
Linepattern
350
37
  3
Realistic
350
33
  3
Thicken
350
36
  0
XRECORD
  5
321
102
{ACAD_REACTORS
330
C
102
}
330
C
100
AcDbXrecord
280
     1
 90
        1
330
6D
  0
DICTIONARY
  5
319
102
{ACAD_REACTORS
330
C
102
}
330
C
100
AcDbDictionary
281
     1
  3
CANNOSCALE
350
31D
  3
CMLEADERSTYLE
350
31B
  3
CTABLESTYLE
350
31A
  3
LIGHTINGUNITS
350
31E
  3
MSLTSCALE
350
31C
  0
LAYOUT
  5
74
102
{ACAD_REACTORS
330
6A
102
}
330
6A
100
AcDbPlotSettings
  1

  2

  4

  6

 40
0.0
 41
0.0
 42
0.0
 43
0.0
 44
0.0
 45
0.0
 46
0.0
 47
0.0
 48
0.0
 49
0.0
140
0.0
141
0.0
142
1.0
143
1.0
 70
   688
 72
     0
 73
     0
 74
     5
  7

 75
    16
147
1.0
 76
     0
 77
     2
 78
   300
148
0.0
149
0.0
100
AcDbLayout
  1
Layout1
 70
     1
 71
     1
 10
0.0
 20
0.0
 11
12.0
 21
9.0
 12
0.0
 22
0.0
 32
0.0
 14
0.0
 24
0.0
 34
0.0
 15
0.0
 25
0.0
 35
0.0
146
0.0
 13
0.0
 23
0.0
 33
0.0
 16
1.0
 26
0.0
 36
0.0
 17
0.0
 27
1.0
 37
0.0
 76
     0
330
71
  0
LAYOUT
  5
7C
102
{ACAD_REACTORS
330
6A
102
}
330
6A
100
AcDbPlotSettings
  1

  2

  4

  6

 40
0.0
 41
0.0
 42
0.0
 43
0.0
 44
0.0
 45
0.0
 46
0.0
 47
0.0
 48
0.0
 49
0.0
140
0.0
141
0.0
142
1.0
143
1.0
 70
   688
 72
     0
 73
     0
 74
     5
  7

 75
    16
147
1.0
 76
     0
 77
     2
 78
   300
148
0.0
149
0.0
100
AcDbLayout
  1
Layout2
 70
     1
 71
     2
 10
0.0
 20
0.0
 11
12.0
 21
9.0
 12
0.0
 22
0.0
 32
0.0
 14
0.0
 24
0.0
 34
0.0
 15
0.0
 25
0.0
 35
0.0
146
0.0
 13
0.0
 23
0.0
 33
0.0
 16
1.0
 26
0.0
 36
0.0
 17
0.0
 27
1.0
 37
0.0
 76
     0
330
79
  0
LAYOUT
  5
78
102
{ACAD_REACTORS
330
6A
102
}
330
6A
100
AcDbPlotSettings
  1

  2

  4

  6

 40
0.0
 41
0.0
 42
0.0
 43
0.0
 44
0.0
 45
0.0
 46
0.0
 47
0.0
 48
0.0
 49
0.0
140
0.0
141
0.0
142
1.0
143
1.0
 70
  1712
 72
     0
 73
     0
 74
     0
  7

 75
     0
147
1.0
 76
     0
 77
     2
 78
   300
148
0.0
149
0.0
100
AcDbLayout
  1
Model
 70
     1
 71
     0
 10
0.0
 20
0.0
 11
12.0
 21
9.0
 12
0.0
 22
0.0
 32
0.0
 14
0.0
 24
0.0
 34
0.0
 15
0.0
 25
0.0
 35
0.0
146
0.0
 13
0.0
 23
0.0
 33
0.0
 16
1.0
 26
0.0
 36
0.0
 17
0.0
 27
1.0
 37
0.0
 76
     0
330
75
  0
MATERIAL
  5
19
102
{ACAD_XDICTIONARY
360
1A
102
}
102
{ACAD_REACTORS
330
10
102
}
330
10
100
AcDbMaterial
  1
ByBlock
 72
     0
 43
0.0208333333333333
 43
0.0
 43
0.0
 43
0.0
 43
0.0
 43
0.0208333333333333
 43
0.0
 43
0.0
 43
0.0
 43
0.0
 43
1.0
 43
0.0
 43
0.0
 43
0.0
 43
0.0
 43
1.0
 77
     0
 47
0.0208333333333333
 47
0.0
 47
0.0
 47
0.0
 47
0.0
 47
0.0208333333333333
 47
0.0
 47
0.0
 47
0.0
 47
0.0
 47
1.0
 47
0.0
 47
0.0
 47
0.0
 47
0.0
 47
1.0
171
     0
 49
0.0208333333333333
 49
0.0
 49
0.0
 49
0.0
 49
0.0
 49
0.0208333333333333
 49
0.0
 49
0.0
 49
0.0
 49
0.0
 49
1.0
 49
0.0
 49
0.0
 49
0.0
 49
0.0
 49
1.0
175
     0
142
0.0208333333333333
142
0.0
142
0.0
142
0.0
142
0.0
142
0.0208333333333333
142
0.0
142
0.0
142
0.0
142
0.0
142
1.0
142
0.0
142
0.0
142
0.0
142
0.0
142
1.0
179
     0
144
0.0208333333333333
144
0.0
144
0.0
144
0.0
144
0.0
144
0.0208333333333333
144
0.0
144
0.0
144
0.0
144
0.0
144
1.0
144
0.0
144
0.0
144
0.0
144
0.0
144
1.0
147
0.0208333333333333
147
0.0
147
0.0
147
0.0
147
0.0
147
0.0208333333333333
147
0.0
147
0.0
147
0.0
147
0.0
147
1.0
147
0.0
147
0.0
147
0.0
147
0.0
147
1.0
  0
MATERIAL
  5
11
102
{ACAD_XDICTIONARY
360
12
102
}
102
{ACAD_REACTORS
330
10
102
}
330
10
100
AcDbMaterial
  1
ByLayer
 72
     0
 43
0.0208333333333333
 43
0.0
 43
0.0
 43
0.0
 43
0.0
 43
0.0208333333333333
 43
0.0
 43
0.0
 43
0.0
 43
0.0
 43
1.0
 43
0.0
 43
0.0
 43
0.0
 43
0.0
 43
1.0
 77
     0
 47
0.0208333333333333
 47
0.0
 47
0.0
 47
0.0
 47
0.0
 47
0.0208333333333333
 47
0.0
 47
0.0
 47
0.0
 47
0.0
 47
1.0
 47
0.0
 47
0.0
 47
0.0
 47
0.0
 47
1.0
171
     0
 49
0.0208333333333333
 49
0.0
 49
0.0
 49
0.0
 49
0.0
 49
0.0208333333333333
 49
0.0
 49
0.0
 49
0.0
 49
0.0
 49
1.0
 49
0.0
 49
0.0
 49
0.0
 49
0.0
 49
1.0
175
     0
142
0.0208333333333333
142
0.0
142
0.0
142
0.0
142
0.0
142
0.0208333333333333
142
0.0
142
0.0
142
0.0
142
0.0
142
1.0
142
0.0
142
0.0
142
0.0
142
0.0
142
1.0
179
     0
144
0.0208333333333333
144
0.0
144
0.0
144
0.0
144
0.0
144
0.0208333333333333
144
0.0
144
0.0
144
0.0
144
0.0
144
1.0
144
0.0
144
0.0
144
0.0
144
0.0
144
1.0
147
0.0208333333333333
147
0.0
147
0.0
147
0.0
147
0.0
147
0.0208333333333333
147
0.0
147
0.0
147
0.0
147
0.0
147
1.0
147
0.0
147
0.0
147
0.0
147
0.0
147
1.0
  0
MATERIAL
  5
21
102
{ACAD_XDICTIONARY
360
22
102
}
102
{ACAD_REACTORS
330
10
102
}
330
10
100
AcDbMaterial
  1
Global
 72
     0
 43
0.0208333333333333
 43
0.0
 43
0.0
 43
0.0
 43
0.0
 43
0.0208333333333333
 43
0.0
 43
0.0
 43
0.0
 43
0.0
 43
1.0
 43
0.0
 43
0.0
 43
0.0
 43
0.0
 43
1.0
 77
     0
 47
0.0208333333333333
 47
0.0
 47
0.0
 47
0.0
 47
0.0
 47
0.0208333333333333
 47
0.0
 47
0.0
 47
0.0
 47
0.0
 47
1.0
 47
0.0
 47
0.0
 47
0.0
 47
0.0
 47
1.0
171
     0
 49
0.0208333333333333
 49
0.0
 49
0.0
 49
0.0
 49
0.0
 49
0.0208333333333333
 49
0.0
 49
0.0
 49
0.0
 49
0.0
 49
1.0
 49
0.0
 49
0.0
 49
0.0
 49
0.0
 49
1.0
175
     0
142
0.0208333333333333
142
0.0
142
0.0
142
0.0
142
0.0
142
0.0208333333333333
142
0.0
142
0.0
142
0.0
142
0.0
142
1.0
142
0.0
142
0.0
142
0.0
142
0.0
142
1.0
179
     0
144
0.0208333333333333
144
0.0
144
0.0
144
0.0
144
0.0
144
0.0208333333333333
144
0.0
144
0.0
144
0.0
144
0.0
144
1.0
144
0.0
144
0.0
144
0.0
144
0.0
144
1.0
147
0.0208333333333333
147
0.0
147
0.0
147
0.0
147
0.0
147
0.0208333333333333
147
0.0
147
0.0
147
0.0
147
0.0
147
1.0
147
0.0
147
0.0
147
0.0
147
0.0
147
1.0
  0
MLEADERSTYLE
  5
6F
102
{ACAD_REACTORS
330
6E
102
}
330
6E
100
AcDbMLeaderStyle
170
     2
171
     1
172
     0
 90
        2
 40
0.0
 41
0.0
173
     1
 91
-1056964608
340
63
 92
       -2
290
     1
 42
0.09
291
     1
 43
0.36
  3
Standard
 44
0.18
300

342
5D
174
     1
178
     6
175
     1
176
     0
 93
-1056964608
 45
0.18
292
     0
297
     0
 46
0.18
 94
-1056964608
 47
1.0
 49
1.0
140
1.0
293
     1
141
0.0
294
     1
177
     0
142
1.0
295
     0
296
     0
143
0.125
1001
ACAD_MLEADERVER
1070
     2
  0
MLINESTYLE
  5
68
102
{ACAD_REACTORS
330
67
102
}
330
67
100
AcDbMlineStyle
  2
STANDARD
 70
     0
  3

 62
   256
 51
90.0
 52
90.0
 71
     2
 49
0.5
 62
   256
  6
BYLAYER
 49
-0.5
 62
   256
  6
BYLAYER
  0
ACDBPLACEHOLDER
  5
F
102
{ACAD_REACTORS
330
E
102
}
330
E
  0
SCALE
  5
3B
102
{ACAD_REACTORS
330
3A
102
}
330
3A
100
AcDbScale
 70
     0
300
1:1
140
1.0
141
1.0
290
     1
  0
SCALE
  5
3C
102
{ACAD_REACTORS
330
3A
102
}
330
3A
100
AcDbScale
 70
     0
300
1:2
140
1.0
141
2.0
290
     0
  0
SCALE
  5
3D
102
{ACAD_REACTORS
330
3A
102
}
330
3A
100
AcDbScale
 70
     0
300
1:4
140
1.0
141
4.0
290
     0
  0
SCALE
  5
3E
102
{ACAD_REACTORS
330
3A
102
}
330
3A
100
AcDbScale
 70
     0
300
1:5
140
1.0
141
5.0
290
     0
  0
SCALE
  5
3F
102
{ACAD_REACTORS
330
3A
102
}
330
3A
100
AcDbScale
 70
     0
300
1:8
140
1.0
141
8.0
290
     0
  0
SCALE
  5
40
102
{ACAD_REACTORS
330
3A
102
}
330
3A
100
AcDbScale
 70
     0
300
1:10
140
1.0
141
10.0
290
     0
  0
SCALE
  5
41
102
{ACAD_REACTORS
330
3A
102
}
330
3A
100
AcDbScale
 70
     0
300
1:16
140
1.0
141
16.0
290
     0
  0
SCALE
  5
42
102
{ACAD_REACTORS
330
3A
102
}
330
3A
100
AcDbScale
 70
     0
300
1:20
140
1.0
141
20.0
290
     0
  0
SCALE
  5
43
102
{ACAD_REACTORS
330
3A
102
}
330
3A
100
AcDbScale
 70
     0
300
1:30
140
1.0
141
30.0
290
     0
  0
SCALE
  5
44
102
{ACAD_REACTORS
330
3A
102
}
330
3A
100
AcDbScale
 70
     0
300
1:40
140
1.0
141
40.0
290
     0
  0
SCALE
  5
45
102
{ACAD_REACTORS
330
3A
102
}
330
3A
100
AcDbScale
 70
     0
300
1:50
140
1.0
141
50.0
290
     0
  0
SCALE
  5
46
102
{ACAD_REACTORS
330
3A
102
}
330
3A
100
AcDbScale
 70
     0
300
1:100
140
1.0
141
100.0
290
     0
  0
SCALE
  5
47
102
{ACAD_REACTORS
330
3A
102
}
330
3A
100
AcDbScale
 70
     0
300
2:1
140
2.0
141
1.0
290
     0
  0
SCALE
  5
48
102
{ACAD_REACTORS
330
3A
102
}
330
3A
100
AcDbScale
 70
     0
300
4:1
140
4.0
141
1.0
290
     0
  0
SCALE
  5
49
102
{ACAD_REACTORS
330
3A
102
}
330
3A
100
AcDbScale
 70
     0
300
8:1
140
8.0
141
1.0
290
     0
  0
SCALE
  5
4A
102
{ACAD_REACTORS
330
3A
102
}
330
3A
100
AcDbScale
 70
     0
300
10:1
140
10.0
141
1.0
290
     0
  0
SCALE
  5
4B
102
{ACAD_REACTORS
330
3A
102
}
330
3A
100
AcDbScale
 70
     0
300
100:1
140
100.0
141
1.0
290
     0
  0
SCALE
  5
4C
102
{ACAD_REACTORS
330
3A
102
}
330
3A
100
AcDbScale
 70
     0
300
1/128" = 1'-0"
140
0.0078125
141
12.0
290
     0
  0
SCALE
  5
4D
102
{ACAD_REACTORS
330
3A
102
}
330
3A
100
AcDbScale
 70
     0
300
1/64" = 1'-0"
140
0.015625
141
12.0
290
     0
  0
SCALE
  5
4E
102
{ACAD_REACTORS
330
3A
102
}
330
3A
100
AcDbScale
 70
     0
300
1/32" = 1'-0"
140
0.03125
141
12.0
290
     0
  0
SCALE
  5
4F
102
{ACAD_REACTORS
330
3A
102
}
330
3A
100
AcDbScale
 70
     0
300
1/16" = 1'-0"
140
0.0625
141
12.0
290
     0
  0
SCALE
  5
50
102
{ACAD_REACTORS
330
3A
102
}
330
3A
100
AcDbScale
 70
     0
300
3/32" = 1'-0"
140
0.09375
141
12.0
290
     0
  0
SCALE
  5
51
102
{ACAD_REACTORS
330
3A
102
}
330
3A
100
AcDbScale
 70
     0
300
1/8" = 1'-0"
140
0.125
141
12.0
290
     0
  0
SCALE
  5
52
102
{ACAD_REACTORS
330
3A
102
}
330
3A
100
AcDbScale
 70
     0
300
3/16" = 1'-0"
140
0.1875
141
12.0
290
     0
  0
SCALE
  5
53
102
{ACAD_REACTORS
330
3A
102
}
330
3A
100
AcDbScale
 70
     0
300
1/4" = 1'-0"
140
0.25
141
12.0
290
     0
  0
SCALE
  5
54
102
{ACAD_REACTORS
330
3A
102
}
330
3A
100
AcDbScale
 70
     0
300
3/8" = 1'-0"
140
0.375
141
12.0
290
     0
  0
SCALE
  5
55
102
{ACAD_REACTORS
330
3A
102
}
330
3A
100
AcDbScale
 70
     0
300
1/2" = 1'-0"
140
0.5
141
12.0
290
     0
  0
SCALE
  5
56
102
{ACAD_REACTORS
330
3A
102
}
330
3A
100
AcDbScale
 70
     0
300
3/4" = 1'-0"
140
0.75
141
12.0
290
     0
  0
SCALE
  5
57
102
{ACAD_REACTORS
330
3A
102
}
330
3A
100
AcDbScale
 70
     0
300
1" = 1'-0"
140
1.0
141
12.0
290
     0
  0
SCALE
  5
58
102
{ACAD_REACTORS
330
3A
102
}
330
3A
100
AcDbScale
 70
     0
300
1-1/2" = 1'-0"
140
1.5
141
12.0
290
     0
  0
SCALE
  5
59
102
{ACAD_REACTORS
330
3A
102
}
330
3A
100
AcDbScale
 70
     0
300
3" = 1'-0"
140
3.0
141
12.0
290
     0
  0
SCALE
  5
5A
102
{ACAD_REACTORS
330
3A
102
}
330
3A
100
AcDbScale
 70
     0
300
6" = 1'-0"
140
6.0
141
12.0
290
     0
  0
SCALE
  5
5B
102
{ACAD_REACTORS
330
3A
102
}
330
3A
100
AcDbScale
 70
     0
300
1'-0" = 1'-0"
140
12.0
141
12.0
290
     0
  0
TABLESTYLE
  5
6D
102
{ACAD_XDICTIONARY
360
31F
102
}
102
{ACAD_REACTORS
330
6C
102
}
330
6C
100
AcDbTableStyle
  3
Standard
 70
     0
 71
     0
 40
0.06
 41
0.06
280
     0
281
     0
  7
Standard
140
0.18
170
     2
 62
     0
 63
     7
283
     0
274
    -2
284
     1
 64
     0
275
    -2
285
     1
 65
     0
276
    -2
286
     1
 66
     0
277
    -2
287
     1
 67
     0
278
    -2
288
     1
 68
     0
279
    -2
289
     1
 69
     0
  7
Standard
140
0.25
170
     5
 62
     0
 63
     7
283
     0
274
    -2
284
     1
 64
     0
275
    -2
285
     1
 65
     0
276
    -2
286
     1
 66
     0
277
    -2
287
     1
 67
     0
278
    -2
288
     1
 68
     0
279
    -2
289
     1
 69
     0
  7
Standard
140
0.18
170
     5
 62
     0
 63
     7
283
     0
274
    -2
284
     1
 64
     0
275
    -2
285
     1
 65
     0
276
    -2
286
     1
 66
     0
277
    -2
287
     1
 67
     0
278
    -2
288
     1
 68
     0
279
    -2
289
     1
 69
     0
  0
VISUALSTYLE
  5
2F
102
{ACAD_REACTORS
330
29
102
}
330
29
100
AcDbVisualStyle
  2
2dWireframe
 70
     4
 71
     0
 72
     2
 73
     0
 90
        0
 40
-0.6
 41
-30.0
 62
     5
 63
     7
421
 16777215
 74
     1
 91
        4
 64
     7
 65
   257
 75
     1
175
     1
 42
1.0
 92
        0
 66
   257
 43
1.0
 76
     1
 77
     6
 78
     2
 67
     7
 79
     5
170
     0
171
     0
290
     0
174
     0
 93
        1
 44
0.0
173
     0
291
     0
 45
0.0
1001
ACAD
1000
AcDbSavedByObjectVersion
1070
     0
  0
VISUALSTYLE
  5
31
102
{ACAD_REACTORS
330
29
102
}
330
29
100
AcDbVisualStyle
  2
3D Hidden
 70
     6
 71
     1
 72
     2
 73
     2
 90
        0
 40
-0.6
 41
-30.0
 62
     5
 63
     7
421
 16777215
 74
     2
 91
        2
 64
     7
 65
   257
 75
     2
175
     1
 42
40.0
 92
        0
 66
   257
 43
1.0
 76
     1
 77
     6
 78
     2
 67
     7
 79
     3
170
     0
171
     0
290
     0
174
     0
 93
        1
 44
0.0
173
     0
291
     0
 45
0.0
1001
ACAD
1000
AcDbSavedByObjectVersion
1070
     0
  0
VISUALSTYLE
  5
30
102
{ACAD_REACTORS
330
29
102
}
330
29
100
AcDbVisualStyle
  2
3dWireframe
 70
     5
 71
     0
 72
     2
 73
     0
 90
        0
 40
-0.6
 41
-30.0
 62
     5
 63
     7
421
 16777215
 74
     1
 91
        4
 64
     7
 65
   257
 75
     1
175
     1
 42
1.0
 92
        0
 66
   257
 43
1.0
 76
     1
 77
     6
 78
     2
 67
     7
 79
     5
170
     0
171
     0
290
     0
174
     0
 93
        1
 44
0.0
173
     0
291
     0
 45
0.0
1001
ACAD
1000
AcDbSavedByObjectVersion
1070
     0
  0
VISUALSTYLE
  5
2E
102
{ACAD_REACTORS
330
29
102
}
330
29
100
AcDbVisualStyle
  2
Basic
 70
     7
 71
     1
 72
     0
 73
     1
 90
        0
 40
-0.6
 41
-30.0
 62
     5
 63
     7
421
 16777215
 74
     0
 91
        4
 64
     7
 65
   257
 75
     1
175
     1
 42
1.0
 92
        8
 66
     7
 43
1.0
 76
     1
 77
     6
 78
     2
 67
     7
 79
     5
170
     0
171
     0
290
     0
174
     0
 93
        1
 44
0.0
173
     0
291
     1
 45
0.0
1001
ACAD
1000
AcDbSavedByObjectVersion
1070
     0
  0
VISUALSTYLE
  5
35
102
{ACAD_REACTORS
330
29
102
}
330
29
100
AcDbVisualStyle
  2
Brighten
 70
    12
 71
     2
 72
     2
 73
     0
 90
        0
 40
-0.6
 41
-30.0
 62
     5
 63
     7
421
 16777215
 74
     1
 91
        4
 64
     7
 65
   257
 75
     1
175
     1
 42
1.0
 92
        8
 66
     7
 43
1.0
 76
     1
 77
     6
 78
     2
 67
     7
 79
     5
170
     0
171
     0
290
     0
174
     0
 93
        1
 44
50.0
173
     0
291
     1
 45
0.0
1001
ACAD
1000
AcDbSavedByObjectVersion
1070
     0
  0
VISUALSTYLE
  5
39
102
{ACAD_REACTORS
330
29
102
}
330
29
100
AcDbVisualStyle
  2
ColorChange
 70
    16
 71
     2
 72
     2
 73
     3
 90
        0
 40
-0.6
 41
-30.0
 62
     5
 63
     8
421
  8421504
 74
     1
 91
        4
 64
     7
 65
   257
 75
     1
175
     1
 42
1.0
 92
        8
 66
     8
424
  8421504
 43
1.0
 76
     1
 77
     6
 78
     2
 67
     7
 79
     5
170
     0
171
     0
290
     0
174
     0
 93
        1
 44
0.0
173
     0
291
     1
 45
0.0
1001
ACAD
1000
AcDbSavedByObjectVersion
1070
     0
  0
VISUALSTYLE
  5
32
102
{ACAD_REACTORS
330
29
102
}
330
29
100
AcDbVisualStyle
  2
Conceptual
 70
     9
 71
     3
 72
     2
 73
     0
 90
        0
 40
-0.6
 41
-30.0
 62
     5
 63
     7
421
 16777215
 74
     2
 91
        2
 64
     7
 65
   257
 75
     1
175
     1
 42
40.0
 92
        8
 66
     7
 43
1.0
 76
     1
 77
     6
 78
     2
 67
     7
 79
     3
170
     0
171
     0
290
     0
174
     0
 93
        1
 44
0.0
173
     0
291
     0
 45
0.0
1001
ACAD
1000
AcDbSavedByObjectVersion
1070
     0
  0
VISUALSTYLE
  5
34
102
{ACAD_REACTORS
330
29
102
}
330
29
100
AcDbVisualStyle
  2
Dim
 70
    11
 71
     2
 72
     2
 73
     0
 90
        0
 40
-0.6
 41
-30.0
 62
     5
 63
     7
421
 16777215
 74
     1
 91
        4
 64
     7
 65
   257
 75
     1
175
     1
 42
1.0
 92
        8
 66
     7
 43
1.0
 76
     1
 77
     6
 78
     2
 67
     7
 79
     5
170
     0
171
     0
290
     0
174
     0
 93
        1
 44
-50.0
173
     0
291
     1
 45
0.0
1001
ACAD
1000
AcDbSavedByObjectVersion
1070
     0
  0
VISUALSTYLE
  5
38
102
{ACAD_REACTORS
330
29
102
}
330
29
100
AcDbVisualStyle
  2
Facepattern
 70
    15
 71
     2
 72
     2
 73
     0
 90
        0
 40
-0.6
 41
-30.0
 62
     5
 63
     7
421
 16777215
 74
     1
 91
        4
 64
     7
 65
   257
 75
     1
175
     1
 42
1.0
 92
        8
 66
     7
 43
1.0
 76
     1
 77
     6
 78
     2
 67
     7
 79
     5
170
     0
171
     0
290
     0
174
     0
 93
        1
 44
0.0
173
     0
291
     1
 45
0.0
1001
ACAD
1000
AcDbSavedByObjectVersion
1070
     0
  0
VISUALSTYLE
  5
2A
102
{ACAD_REACTORS
330
29
102
}
330
29
100
AcDbVisualStyle
  2
Flat
 70
     0
 71
     2
 72
     1
 73
     1
 90
        2
 40
-0.6
 41
30.0
 62
     5
 63
     7
421
 16777215
 74
     0
 91
        4
 64
     7
 65
   257
 75
     1
175
     1
 42
1.0
 92
        8
 66
     7
 43
1.0
 76
     1
 77
     6
 78
     2
 67
     7
 79
     5
170
     0
171
     0
290
     0
174
     0
 93
       13
 44
0.0
173
     0
291
     1
 45
0.0
1001
ACAD
1000
AcDbSavedByObjectVersion
1070
     0
  0
VISUALSTYLE
  5
2B
102
{ACAD_REACTORS
330
29
102
}
330
29
100
AcDbVisualStyle
  2
FlatWithEdges
 70
     1
 71
     2
 72
     1
 73
     1
 90
        2
 40
-0.6
 41
30.0
 62
     5
 63
     7
421
 16777215
 74
     1
 91
        4
 64
     7
 65
   257
 75
     1
175
     1
 42
1.0
 92
        0
 66
   257
 43
1.0
 76
     1
 77
     6
 78
     2
 67
     7
 79
     5
170
     0
171
     0
290
     0
174
     0
 93
       13
 44
0.0
173
     0
291
     1
 45
0.0
1001
ACAD
1000
AcDbSavedByObjectVersion
1070
     0
  0
VISUALSTYLE
  5
2C
102
{ACAD_REACTORS
330
29
102
}
330
29
100
AcDbVisualStyle
  2
Gouraud
 70
     2
 71
     2
 72
     2
 73
     1
 90
        2
 40
-0.6
 41
30.0
 62
     5
 63
     7
421
 16777215
 74
     0
 91
        4
 64
     7
 65
   257
 75
     1
175
     1
 42
1.0
 92
        0
 66
     7
 43
1.0
 76
     1
 77
     6
 78
     2
 67
     7
 79
     5
170
     0
171
     0
290
     0
174
     0
 93
       13
 44
0.0
173
     0
291
     1
 45
0.0
1001
ACAD
1000
AcDbSavedByObjectVersion
1070
     0
  0
VISUALSTYLE
  5
2D
102
{ACAD_REACTORS
330
29
102
}
330
29
100
AcDbVisualStyle
  2
GouraudWithEdges
 70
     3
 71
     2
 72
     2
 73
     1
 90
        2
 40
-0.6
 41
30.0
 62
     5
 63
     7
421
 16777215
 74
     1
 91
        4
 64
     7
 65
   257
 75
     1
175
     1
 42
1.0
 92
        0
 66
   257
 43
1.0
 76
     1
 77
     6
 78
     2
 67
     7
 79
     5
170
     0
171
     0
290
     0
174
     0
 93
       13
 44
0.0
173
     0
291
     1
 45
0.0
1001
ACAD
1000
AcDbSavedByObjectVersion
1070
     0
  0
VISUALSTYLE
  5
37
102
{ACAD_REACTORS
330
29
102
}
330
29
100
AcDbVisualStyle
  2
Linepattern
 70
    14
 71
     2
 72
     2
 73
     0
 90
        0
 40
-0.6
 41
-30.0
 62
     5
 63
     7
421
 16777215
 74
     1
 91
        4
 64
     7
 65
   257
 75
     7
175
     7
 42
1.0
 92
        8
 66
     7
 43
1.0
 76
     1
 77
     6
 78
     2
 67
     7
 79
     5
170
     0
171
     0
290
     0
174
     0
 93
        1
 44
0.0
173
     0
291
     1
 45
0.0
1001
ACAD
1000
AcDbSavedByObjectVersion
1070
     0
  0
VISUALSTYLE
  5
33
102
{ACAD_REACTORS
330
29
102
}
330
29
100
AcDbVisualStyle
  2
Realistic
 70
     8
 71
     2
 72
     2
 73
     0
 90
        0
 40
-0.6
 41
-30.0
 62
     5
 63
     7
421
 16777215
 74
     1
 91
        0
 64
     7
 65
   257
 75
     1
175
     1
 42
1.0
 92
        8
 66
     8
424
  7895160
 43
1.0
 76
     1
 77
     6
 78
     2
 67
     7
 79
     5
170
     0
171
     0
290
     0
174
     0
 93
       13
 44
0.0
173
     0
291
     0
 45
0.0
1001
ACAD
1000
AcDbSavedByObjectVersion
1070
     0
  0
VISUALSTYLE
  5
36
102
{ACAD_REACTORS
330
29
102
}
330
29
100
AcDbVisualStyle
  2
Thicken
 70
    13
 71
     2
 72
     2
 73
     0
 90
        0
 40
-0.6
 41
-30.0
 62
     5
 63
     7
421
 16777215
 74
     1
 91
        4
 64
     7
 65
   257
 75
     1
175
     1
 42
1.0
 92
       12
 66
     7
 43
1.0
 76
     1
 77
     6
 78
     2
 67
     7
 79
     5
170
     0
171
     0
290
     0
174
     0
 93
        1
 44
0.0
173
     0
291
     1
 45
0.0
1001
ACAD
1000
AcDbSavedByObjectVersion
1070
     0
  0
DICTIONARYVAR
  5
31D
102
{ACAD_REACTORS
330
319
102
}
330
319
100
DictionaryVariables
280
     0
  1
1:1
  0
DICTIONARYVAR
  5
31B
102
{ACAD_REACTORS
330
319
102
}
330
319
100
DictionaryVariables
280
     0
  1
STANDARD
  0
DICTIONARYVAR
  5
31A
102
{ACAD_REACTORS
330
319
102
}
330
319
100
DictionaryVariables
280
     0
  1
STANDARD
  0
DICTIONARYVAR
  5
31E
102
{ACAD_REACTORS
330
319
102
}
330
319
100
DictionaryVariables
280
     0
  1
2
  0
DICTIONARYVAR
  5
31C
102
{ACAD_REACTORS
330
319
102
}
330
319
100
DictionaryVariables
280
     0
  1
1
  0
DICTIONARY
  5
1A
330
19
100
AcDbDictionary
280
     1
281
     1
  3
ACAD_XREC_ROUNDTRIP
360
323
  3
BUMPTILE
360
1C
  3
DIFFUSETILE
360
1B
  3
OPACITYTILE
360
1F
  3
REFLECTIONTILE
360
1E
  3
REFRACTIONTILE
360
20
  3
SPECULARTILE
360
1D
  0
DICTIONARY
  5
12
330
11
100
AcDbDictionary
280
     1
281
     1
  3
ACAD_XREC_ROUNDTRIP
360
322
  3
BUMPTILE
360
14
  3
DIFFUSETILE
360
13
  3
OPACITYTILE
360
17
  3
REFLECTIONTILE
360
16
  3
REFRACTIONTILE
360
18
  3
SPECULARTILE
360
15
  0
DICTIONARY
  5
22
330
21
100
AcDbDictionary
280
     1
281
     1
  3
ACAD_XREC_ROUNDTRIP
360
324
  3
BUMPTILE
360
24
  3
DIFFUSETILE
360
23
  3
OPACITYTILE
360
27
  3
REFLECTIONTILE
360
26
  3
REFRACTIONTILE
360
28
  3
SPECULARTILE
360
25
  0
DICTIONARY
  5
31F
330
6D
100
AcDbDictionary
280
     1
281
     1
  3
ACAD_ROUNDTRIP_2008_TABLESTYLE_CELLSTYLEMAP
360
320
  3
ACAD_XREC_ROUNDTRIP
360
325
  0
XRECORD
  5
323
102
{ACAD_REACTORS
330
1A
102
}
330
1A
100
AcDbXrecord
280
     1
102
MATERIAL
148
0.0
149
0.0
149
0.0
 93
        0
 94
      127
282
     0
 72
     0
 77
     0
171
     0
175
     0
179
     0
273
     0
  0
XRECORD
  5
1C
102
{ACAD_REACTORS
330
1A
102
}
330
1A
100
AcDbXrecord
280
     1
270
     1
271
     1
  0
XRECORD
  5
1B
102
{ACAD_REACTORS
330
1A
102
}
330
1A
100
AcDbXrecord
280
     1
270
     1
271
     1
  0
XRECORD
  5
1F
102
{ACAD_REACTORS
330
1A
102
}
330
1A
100
AcDbXrecord
280
     1
270
     1
271
     1
  0
XRECORD
  5
1E
102
{ACAD_REACTORS
330
1A
102
}
330
1A
100
AcDbXrecord
280
     1
270
     1
271
     1
  0
XRECORD
  5
20
102
{ACAD_REACTORS
330
1A
102
}
330
1A
100
AcDbXrecord
280
     1
270
     1
271
     1
  0
XRECORD
  5
1D
102
{ACAD_REACTORS
330
1A
102
}
330
1A
100
AcDbXrecord
280
     1
270
     1
271
     1
  0
XRECORD
  5
322
102
{ACAD_REACTORS
330
12
102
}
330
12
100
AcDbXrecord
280
     1
102
MATERIAL
148
0.0
149
0.0
149
0.0
 93
        0
 94
      127
282
     0
 72
     0
 77
     0
171
     0
175
     0
179
     0
273
     0
  0
XRECORD
  5
14
102
{ACAD_REACTORS
330
12
102
}
330
12
100
AcDbXrecord
280
     1
270
     1
271
     1
  0
XRECORD
  5
13
102
{ACAD_REACTORS
330
12
102
}
330
12
100
AcDbXrecord
280
     1
270
     1
271
     1
  0
XRECORD
  5
17
102
{ACAD_REACTORS
330
12
102
}
330
12
100
AcDbXrecord
280
     1
270
     1
271
     1
  0
XRECORD
  5
16
102
{ACAD_REACTORS
330
12
102
}
330
12
100
AcDbXrecord
280
     1
270
     1
271
     1
  0
XRECORD
  5
18
102
{ACAD_REACTORS
330
12
102
}
330
12
100
AcDbXrecord
280
     1
270
     1
271
     1
  0
XRECORD
  5
15
102
{ACAD_REACTORS
330
12
102
}
330
12
100
AcDbXrecord
280
     1
270
     1
271
     1
  0
XRECORD
  5
324
102
{ACAD_REACTORS
330
22
102
}
330
22
100
AcDbXrecord
280
     1
102
MATERIAL
148
0.0
149
0.0
149
0.0
 93
        0
 94
      127
282
     0
 72
     0
 77
     0
171
     0
175
     0
179
     0
273
     0
  0
XRECORD
  5
24
102
{ACAD_REACTORS
330
22
102
}
330
22
100
AcDbXrecord
280
     1
270
     1
271
     1
  0
XRECORD
  5
23
102
{ACAD_REACTORS
330
22
102
}
330
22
100
AcDbXrecord
280
     1
270
     1
271
     1
  0
XRECORD
  5
27
102
{ACAD_REACTORS
330
22
102
}
330
22
100
AcDbXrecord
280
     1
270
     1
271
     1
  0
XRECORD
  5
26
102
{ACAD_REACTORS
330
22
102
}
330
22
100
AcDbXrecord
280
     1
270
     1
271
     1
  0
XRECORD
  5
28
102
{ACAD_REACTORS
330
22
102
}
330
22
100
AcDbXrecord
280
     1
270
     1
271
     1
  0
XRECORD
  5
25
102
{ACAD_REACTORS
330
22
102
}
330
22
100
AcDbXrecord
280
     1
270
     1
271
     1
  0
CELLSTYLEMAP
  5
320
102
{ACAD_REACTORS
330
31F
102
}
330
31F
100
AcDbCellStyleMap
 90
        3
300
CELLSTYLE
  1
TABLEFORMAT_BEGIN
 90
        5
170
     1
 91
        0
 92
    32768
 62
   257
 93
        1
300
CONTENTFORMAT
  1
CONTENTFORMAT_BEGIN
 90
        0
 91
        0
 92
      512
 93
        0
300

 40
0.0
140
1.0
 94
        5
 62
     0
340
5D
144
0.25
309
CONTENTFORMAT_END
171
     0
 94
        0
309
TABLEFORMAT_END
  1
CELLSTYLE_BEGIN
 90
        1
 91
        1
300
_TITLE
309
CELLSTYLE_END
300
CELLSTYLE
  1
TABLEFORMAT_BEGIN
 90
        5
170
     1
 91
        0
 92
        0
 62
   257
 93
        1
300
CONTENTFORMAT
  1
CONTENTFORMAT_BEGIN
 90
        0
 91
        0
 92
      512
 93
        0
300

 40
0.0
140
1.0
 94
        5
 62
     0
340
5D
144
0.18
309
CONTENTFORMAT_END
171
     0
 94
        0
309
TABLEFORMAT_END
  1
CELLSTYLE_BEGIN
 90
        2
 91
        1
300
_HEADER
309
CELLSTYLE_END
300
CELLSTYLE
  1
TABLEFORMAT_BEGIN
 90
        5
170
     1
 91
        0
 92
        0
 62
   257
 93
        1
300
CONTENTFORMAT
  1
CONTENTFORMAT_BEGIN
 90
        0
 91
        0
 92
      512
 93
        0
300

 40
0.0
140
1.0
 94
        2
 62
     0
340
5D
144
0.18
309
CONTENTFORMAT_END
171
     0
 94
        0
309
TABLEFORMAT_END
  1
CELLSTYLE_BEGIN
 90
        3
 91
        2
300
_DATA
309
CELLSTYLE_END
  0
XRECORD
  5
325
102
{ACAD_REACTORS
330
31F
102
}
330
31F
100
AcDbXrecord
280
     1
102
ACAD_ROUNDTRIP_PRE2007_TABLESTYLE
 90
      512
 91
        0
  1

 92
      512
 93
        0
  2

 94
      512
 95
        0
  3

  0
ENDSEC
  0
EOF
