  0
SECTION
  2
HEADER
  9
$ACADVER
  1
AC1018
  9
$ACADMAINTVER
 70
   104
  9
$DWGCODEPAGE
  3
ANSI_1252
  9
$AUTHOR
  1
rmorof
  9
$CUSTOMPROPERTYTAG
  1
Manager
  9
$CUSTOMPROPERTY
  1

  9
$CUSTOMPROPERTYTAG
  1
Firma
  9
$CUSTOMPROPERTY
  1

  9
$CUSTOMPROPERTYTAG
  1
Kategorie
  9
$CUSTOMPROPERTY
  1

  9
$CUSTOMPROPERTYTAG
  1
Bauteilnummer
  9
$CUSTOMPROPERTY
  1
ES 450 ER_60012137
  9
$CUSTOMPROPERTYTAG
  1
Bezeichnung
  9
$CUSTOMPROPERTY
  1

  9
$CUSTOMPROPERTYTAG
  1
Projekt
  9
$CUSTOMPROPERTY
  1

  9
$CUSTOMPROPERTYTAG
  1
Konstrukteur
  9
$CUSTOMPROPERTY
  1
rmorof
  9
$CUSTOMPROPERTYTAG
  1
Ingenieur
  9
$CUSTOMPROPERTY
  1

  9
$CUSTOMPROPERTYTAG
  1
Bevollmächtigter
  9
$CUSTOMPROPERTY
  1

  9
$CUSTOMPROPERTYTAG
  1
Kostenstelle
  9
$CUSTOMPROPERTY
  1

  9
$CUSTOMPROPERTYTAG
  1
Zulieferer
  9
$CUSTOMPROPERTY
  1

  9
$CUSTOMPROPERTYTAG
  1
Benutzerstatus
  9
$CUSTOMPROPERTY
  1

  9
$CUSTOMPROPERTYTAG
  1
Konstruktionsstatus
  9
$CUSTOMPROPERTY
  1
InBearbeitung
  9
$CUSTOMPROPERTYTAG
  1
Kontrolliert von
  9
$CUSTOMPROPERTY
  1

  9
$CUSTOMPROPERTYTAG
  1
Konstruktion genehmigt von
  9
$CUSTOMPROPERTY
  1

  9
$CUSTOMPROPERTYTAG
  1
Fertigung genehmigt von
  9
$CUSTOMPROPERTY
  1

  9
$CUSTOMPROPERTYTAG
  1
bez. engl.
  9
$CUSTOMPROPERTY
  1

  9
$CUSTOMPROPERTYTAG
  1
bez. franz.
  9
$CUSTOMPROPERTY
  1

  9
$INSBASE
 10
0.0
 20
0.0
 30
0.0
  9
$EXTMIN
 10
0.0
 20
0.0
 30
0.0
  9
$EXTMAX
 10
297.0
 20
210.0
 30
0.0
  9
$LIMMIN
 10
0.0
 20
0.0
  9
$LIMMAX
 10
297.0
 20
210.0
  9
$ORTHOMODE
 70
     0
  9
$REGENMODE
 70
     1
  9
$FILLMODE
 70
     1
  9
$QTEXTMODE
 70
     0
  9
$MIRRTEXT
 70
     0
  9
$LTSCALE
 40
1.0
  9
$ATTMODE
 70
     1
  9
$TEXTSIZE
 40
0.2
  9
$TRACEWID
 40
0.05
  9
$TEXTSTYLE
  7
Standard
  9
$CLAYER
  8
0
  9
$CELTYPE
  6
ByLayer
  9
$CECOLOR
 62
   256
  9
$CELTSCALE
 40
1.0
  9
$DISPSILH
 70
     0
  9
$DIMSCALE
 40
1.0
  9
$DIMASZ
 40
1.799999999999999
  9
$DIMEXO
 40
0.0625
  9
$DIMDLI
 40
0.38
  9
$DIMRND
 40
0.0
  9
$DIMDLE
 40
0.0
  9
$DIMEXE
 40
0.18
  9
$DIMTP
 40
0.0
  9
$DIMTM
 40
0.0
  9
$DIMTXT
 40
0.3499999940395355
  9
$DIMCEN
 40
0.09
  9
$DIMTSZ
 40
0.0
  9
$DIMTOL
 70
     0
  9
$DIMLIM
 70
     0
  9
$DIMTIH
 70
     1
  9
$DIMTOH
 70
     1
  9
$DIMSE1
 70
     0
  9
$DIMSE2
 70
     0
  9
$DIMTAD
 70
     0
  9
$DIMZIN
 70
     0
  9
$DIMBLK
  1

  9
$DIMASO
 70
     1
  9
$DIMSHO
 70
     1
  9
$DIMPOST
  1

  9
$DIMAPOST
  1

  9
$DIMALT
 70
     0
  9
$DIMALTD
 70
     2
  9
$DIMALTF
 40
25.4
  9
$DIMLFAC
 40
1.0
  9
$DIMTOFL
 70
     0
  9
$DIMTVP
 40
0.0
  9
$DIMTIX
 70
     0
  9
$DIMSOXD
 70
     0
  9
$DIMSAH
 70
     0
  9
$DIMBLK1
  1

  9
$DIMBLK2
  1

  9
$DIMSTYLE
  2
Standard
  9
$DIMCLRD
 70
     0
  9
$DIMCLRE
 70
     0
  9
$DIMCLRT
 70
     0
  9
$DIMTFAC
 40
1.0
  9
$DIMGAP
 40
0.09
  9
$DIMJUST
 70
     0
  9
$DIMSD1
 70
     0
  9
$DIMSD2
 70
     0
  9
$DIMTOLJ
 70
     1
  9
$DIMTZIN
 70
     0
  9
$DIMALTZ
 70
     0
  9
$DIMALTTZ
 70
     0
  9
$DIMUPT
 70
     0
  9
$DIMDEC
 70
     4
  9
$DIMTDEC
 70
     4
  9
$DIMALTU
 70
     2
  9
$DIMALTTD
 70
     2
  9
$DIMTXSTY
  7
Standard
  9
$DIMAUNIT
 70
     0
  9
$DIMADEC
 70
     0
  9
$DIMALTRND
 40
0.0
  9
$DIMAZIN
 70
     0
  9
$DIMDSEP
 70
    46
  9
$DIMATFIT
 70
     3
  9
$DIMFRAC
 70
     0
  9
$DIMLDRBLK
  1

  9
$DIMLUNIT
 70
     2
  9
$DIMLWD
 70
    -2
  9
$DIMLWE
 70
    -2
  9
$DIMTMOVE
 70
     0
  9
$LUNITS
 70
     2
  9
$LUPREC
 70
     4
  9
$SKETCHINC
 40
0.1
  9
$FILLETRAD
 40
0.0
  9
$AUNITS
 70
     0
  9
$AUPREC
 70
     0
  9
$MENU
  1
.
  9
$ELEVATION
 40
0.0
  9
$PELEVATION
 40
0.0
  9
$THICKNESS
 40
0.0
  9
$LIMCHECK
 70
     0
  9
$CHAMFERA
 40
0.0
  9
$CHAMFERB
 40
0.0
  9
$CHAMFERC
 40
0.0
  9
$CHAMFERD
 40
0.0
  9
$SKPOLY
 70
     0
  9
$TDCREATE
 40
2454949.659085047
  9
$TDUCREATE
 40
2454949.575751713
  9
$TDUPDATE
 40
2454949.659085047
  9
$TDUUPDATE
 40
2454949.575751713
  9
$TDINDWG
 40
0.0000233333
  9
$TDUSRTIMER
 40
0.0000233333
  9
$USRTIMER
 70
     1
  9
$ANGBASE
 50
0.0
  9
$ANGDIR
 70
     0
  9
$PDMODE
 70
     0
  9
$PDSIZE
 40
0.0
  9
$PLINEWID
 40
0.0
  9
$SPLFRAME
 70
     0
  9
$SPLINETYPE
 70
     6
  9
$SPLINESEGS
 70
     8
  9
$HANDSEED
  5
390
  9
$SURFTAB1
 70
     6
  9
$SURFTAB2
 70
     6
  9
$SURFTYPE
 70
     6
  9
$SURFU
 70
     6
  9
$SURFV
 70
     6
  9
$UCSBASE
  2

  9
$UCSNAME
  2

  9
$UCSORG
 10
0.0
 20
0.0
 30
0.0
  9
$UCSXDIR
 10
1.0
 20
0.0
 30
0.0
  9
$UCSYDIR
 10
0.0
 20
1.0
 30
0.0
  9
$UCSORTHOREF
  2

  9
$UCSORTHOVIEW
 70
     0
  9
$UCSORGTOP
 10
0.0
 20
0.0
 30
0.0
  9
$UCSORGBOTTOM
 10
0.0
 20
0.0
 30
0.0
  9
$UCSORGLEFT
 10
0.0
 20
0.0
 30
0.0
  9
$UCSORGRIGHT
 10
0.0
 20
0.0
 30
0.0
  9
$UCSORGFRONT
 10
0.0
 20
0.0
 30
0.0
  9
$UCSORGBACK
 10
0.0
 20
0.0
 30
0.0
  9
$PUCSBASE
  2

  9
$PUCSNAME
  2

  9
$PUCSORG
 10
0.0
 20
0.0
 30
0.0
  9
$PUCSXDIR
 10
1.0
 20
0.0
 30
0.0
  9
$PUCSYDIR
 10
0.0
 20
1.0
 30
0.0
  9
$PUCSORTHOREF
  2

  9
$PUCSORTHOVIEW
 70
     0
  9
$PUCSORGTOP
 10
0.0
 20
0.0
 30
0.0
  9
$PUCSORGBOTTOM
 10
0.0
 20
0.0
 30
0.0
  9
$PUCSORGLEFT
 10
0.0
 20
0.0
 30
0.0
  9
$PUCSORGRIGHT
 10
0.0
 20
0.0
 30
0.0
  9
$PUCSORGFRONT
 10
0.0
 20
0.0
 30
0.0
  9
$PUCSORGBACK
 10
0.0
 20
0.0
 30
0.0
  9
$USERI1
 70
     0
  9
$USERI2
 70
     0
  9
$USERI3
 70
     0
  9
$USERI4
 70
     0
  9
$USERI5
 70
     0
  9
$USERR1
 40
0.0
  9
$USERR2
 40
0.0
  9
$USERR3
 40
0.0
  9
$USERR4
 40
0.0
  9
$USERR5
 40
0.0
  9
$WORLDVIEW
 70
     1
  9
$SHADEDGE
 70
     3
  9
$SHADEDIF
 70
    70
  9
$TILEMODE
 70
     1
  9
$MAXACTVP
 70
    64
  9
$PINSBASE
 10
0.0
 20
0.0
 30
0.0
  9
$PLIMCHECK
 70
     0
  9
$PEXTMIN
 10
0.0
 20
0.0
 30
0.0
  9
$PEXTMAX
 10
297.0
 20
210.0
 30
0.0
  9
$PLIMMIN
 10
0.0
 20
0.0
  9
$PLIMMAX
 10
297.0
 20
210.0
  9
$UNITMODE
 70
     0
  9
$VISRETAIN
 70
     1
  9
$PLINEGEN
 70
     0
  9
$PSLTSCALE
 70
     1
  9
$TREEDEPTH
 70
  3020
  9
$CMLSTYLE
  2
Standard
  9
$CMLJUST
 70
     0
  9
$CMLSCALE
 40
1.0
  9
$PROXYGRAPHICS
 70
     1
  9
$MEASUREMENT
 70
     1
  9
$CELWEIGHT
370
    -1
  9
$ENDCAPS
280
     0
  9
$JOINSTYLE
280
     0
  9
$LWDISPLAY
290
     0
  9
$INSUNITS
 70
     4
  9
$HYPERLINKBASE
  1

  9
$STYLESHEET
  1

  9
$XEDIT
290
     1
  9
$CEPSNTYPE
380
     0
  9
$PSTYLEMODE
290
     1
  9
$FINGERPRINTGUID
  2
{F7A8FF8A-ED8F-4C2E-95B3-D286D84AB12A}
  9
$VERSIONGUID
  2
{C561D42E-DC16-4A15-B64F-2B0333DA58AC}
  9
$EXTNAMES
290
     1
  9
$PSVPSCALE
 40
0.0
  9
$OLESTARTUP
290
     0
  9
$SORTENTS
280
   127
  9
$INDEXCTL
280
     0
  9
$HIDETEXT
280
     1
  9
$XCLIPFRAME
290
     0
  9
$HALOGAP
280
     0
  9
$OBSCOLOR
 70
   257
  9
$OBSLTYPE
280
     0
  9
$INTERSECTIONDISPLAY
280
     0
  9
$INTERSECTIONCOLOR
 70
   257
  9
$DIMASSOC
280
     1
  9
$PROJECTNAME
  1

  0
ENDSEC
  0
SECTION
  2
CLASSES
  0
CLASS
  1
ACDBDICTIONARYWDFLT
  2
AcDbDictionaryWithDefault
  3
ObjectDBX Classes
 90
        0
 91
        1
280
     0
281
     0
  0
CLASS
  1
MATERIAL
  2
AcDbMaterial
  3
ObjectDBX Classes
 90
     1153
 91
        3
280
     0
281
     0
  0
CLASS
  1
VISUALSTYLE
  2
AcDbVisualStyle
  3
ObjectDBX Classes
 90
     4095
 91
       16
280
     0
281
     0
  0
CLASS
  1
SCALE
  2
AcDbScale
  3
ObjectDBX Classes
 90
     1153
 91
       33
280
     0
281
     0
  0
CLASS
  1
TABLESTYLE
  2
AcDbTableStyle
  3
ObjectDBX Classes
 90
     4095
 91
        1
280
     0
281
     0
  0
CLASS
  1
MLEADERSTYLE
  2
AcDbMLeaderStyle
  3
ACDB_MLEADERSTYLE_CLASS
 90
     4095
 91
        1
280
     0
281
     0
  0
CLASS
  1
DICTIONARYVAR
  2
AcDbDictionaryVar
  3
ObjectDBX Classes
 90
        0
 91
        5
280
     0
281
     0
  0
CLASS
  1
CELLSTYLEMAP
  2
AcDbCellStyleMap
  3
ObjectDBX Classes
 90
     1152
 91
        1
280
     0
281
     0
  0
ENDSEC
  0
SECTION
  2
TABLES
  0
TABLE
  2
VPORT
  5
8
330
0
100
AcDbSymbolTable
 70
     1
  0
VPORT
  5
5F
330
8
100
AcDbSymbolTableRecord
100
AcDbViewportTableRecord
  2
*Active
 70
     0
 10
0.0
 20
0.0
 11
1.0
 21
1.0
 12
148.5
 22
105.0
 13
0.0
 23
0.0
 14
1.0
 24
1.0
 15
0.0
 25
0.0
 16
0.0
 26
0.0
 36
1.0
 17
0.0
 27
0.0
 37
0.0
 40
210.0
 41
1.414285714285714
 42
50.0
 43
0.0
 44
0.0
 50
0.0
 51
0.0
 71
     0
 72
   100
 73
     1
 74
     1
 75
     0
 76
     0
 77
     0
 78
     0
281
     0
 65
     1
110
0.0
120
0.0
130
0.0
111
1.0
121
0.0
131
0.0
112
0.0
122
1.0
132
0.0
 79
     0
146
0.0
  0
ENDTAB
  0
TABLE
  2
LTYPE
  5
5
330
0
100
AcDbSymbolTable
 70
    59
  0
LTYPE
  5
63
330
5
100
AcDbSymbolTableRecord
100
AcDbLinetypeTableRecord
  2
ByBlock
 70
     0
  3

 72
    65
 73
     0
 40
0.0
  0
LTYPE
  5
64
330
5
100
AcDbSymbolTableRecord
100
AcDbLinetypeTableRecord
  2
ByLayer
 70
     0
  3

 72
    65
 73
     0
 40
0.0
  0
LTYPE
  5
65
330
5
100
AcDbSymbolTableRecord
100
AcDbLinetypeTableRecord
  2
Continuous
 70
     0
  3
Solid line
 72
    65
 73
     0
 40
0.0
  0
LTYPE
  5
7D
330
5
100
AcDbSymbolTableRecord
100
AcDbLinetypeTableRecord
  2
Section_View_Lines
 70
     0
  3
Section View Lines
 72
    65
 73
     4
 40
0.8406
 49
0.6614
 74
     0
 49
-0.0827
 74
     0
 49
0.0138
 74
     0
 49
-0.0827
 74
     0
  0
LTYPE
  5
7E
330
5
100
AcDbSymbolTableRecord
100
AcDbLinetypeTableRecord
  2
CHAIN
 70
     0
  3
Chain ____ _ ____ _ ____ _ ____ _ ____ _ ____
 72
    65
 73
     4
 40
0.3543
 49
0.2362
 74
     0
 49
-0.0295
 74
     0
 49
0.0591
 74
     0
 49
-0.0295
 74
     0
  0
LTYPE
  5
7F
330
5
100
AcDbSymbolTableRecord
100
AcDbLinetypeTableRecord
  2
DASH_DOT
 70
     0
  3
Dash dot _._._._._._._._._._._._._._._.
 72
    65
 73
     4
 40
0.37
 49
0.24
 74
     0
 49
-0.06
 74
     0
 49
0.01
 74
     0
 49
-0.06
 74
     0
  0
LTYPE
  5
80
330
5
100
AcDbSymbolTableRecord
100
AcDbLinetypeTableRecord
  2
DASH_DOUBLE_DOT
 70
     0
  3
Dash Double Dot __ __ . __ __ . __ __ . __ _
 72
    65
 73
     6
 40
0.4398
 49
0.24
 74
     0
 49
-0.06
 74
     0
 49
0.0098
 74
     0
 49
-0.06
 74
     0
 49
0.01
 74
     0
 49
-0.06
 74
     0
  0
LTYPE
  5
81
330
5
100
AcDbSymbolTableRecord
100
AcDbLinetypeTableRecord
  2
DASH_TRIPLE_DOT
 70
     0
  3
Dash Triple-Dot _ . . . _ . . . _ . . . _
 72
    65
 73
     8
 40
0.51
 49
0.24
 74
     0
 49
-0.06
 74
     0
 49
0.01
 74
     0
 49
-0.06
 74
     0
 49
0.01
 74
     0
 49
-0.06
 74
     0
 49
0.01
 74
     0
 49
-0.06
 74
     0
  0
LTYPE
  5
82
330
5
100
AcDbSymbolTableRecord
100
AcDbLinetypeTableRecord
  2
DASHED
 70
     0
  3
Dashed __ __ __ __ __ __ __ __ __ __ __ __ __ _
 72
    65
 73
     2
 40
0.2067
 49
0.1654
 74
     0
 49
-0.0413
 74
     0
  0
LTYPE
  5
83
330
5
100
AcDbSymbolTableRecord
100
AcDbLinetypeTableRecord
  2
DASHED_SPACE
 70
     0
  3
Dashed Space _._._._._._._._._._._._._._._.
 72
    65
 73
     2
 40
0.2067
 49
0.1654
 74
     0
 49
-0.0413
 74
     0
  0
LTYPE
  5
84
330
5
100
AcDbSymbolTableRecord
100
AcDbLinetypeTableRecord
  2
DOTTED
 70
     0
  3
Dotted . . . . . . . . . . . . . . . . . . . . 
 72
    65
 73
     2
 40
0.0482
 49
0.0069
 74
     0
 49
-0.0413
 74
     0
  0
LTYPE
  5
85
330
5
100
AcDbSymbolTableRecord
100
AcDbLinetypeTableRecord
  2
DOUBLE_DASH_CHAIN
 70
     0
  3
Double Dash Chain ___ _ _ ___ _ _ ___ _ _ ___ _
 72
    65
 73
     6
 40
1.240299999999999
 49
0.6614
 74
     0
 49
-0.0827
 74
     0
 49
0.1654
 74
     0
 49
-0.0827
 74
     0
 49
0.1654
 74
     0
 49
-0.0827
 74
     0
  0
LTYPE
  5
86
330
5
100
AcDbSymbolTableRecord
100
AcDbLinetypeTableRecord
  2
DOUBLE_DASH_DOT
 70
     0
  3
Double Dash Dot __ __ . __ __ . __ __ . __ _
 72
    65
 73
     6
 40
0.67
 49
0.24
 74
     0
 49
-0.06
 74
     0
 49
0.24
 74
     0
 49
-0.06
 74
     0
 49
0.01
 74
     0
 49
-0.06
 74
     0
  0
LTYPE
  5
87
330
5
100
AcDbSymbolTableRecord
100
AcDbLinetypeTableRecord
  2
DOUBLE_DASH_DOUBLE_DOT
 70
     0
  3
Double-dash double-dot _ _ . . _ _ . . _
 72
    65
 73
     8
 40
0.7400000000000001
 49
0.24
 74
     0
 49
-0.06
 74
     0
 49
0.24
 74
     0
 49
-0.06
 74
     0
 49
0.01
 74
     0
 49
-0.06
 74
     0
 49
0.01
 74
     0
 49
-0.06
 74
     0
  0
LTYPE
  5
88
330
5
100
AcDbSymbolTableRecord
100
AcDbLinetypeTableRecord
  2
DOUBLE_DASH_TRIPLE_DOT
 70
     0
  3
Double Dash Triple Dot __ __ . . . __ __ . . .
 72
    65
 73
    10
 40
0.8100000000000001
 49
0.24
 74
     0
 49
-0.06
 74
     0
 49
0.24
 74
     0
 49
-0.06
 74
     0
 49
0.01
 74
     0
 49
-0.06
 74
     0
 49
0.01
 74
     0
 49
-0.06
 74
     0
 49
0.01
 74
     0
 49
-0.06
 74
     0
  0
LTYPE
  5
89
330
5
100
AcDbSymbolTableRecord
100
AcDbLinetypeTableRecord
  2
LONG_DASH_DOTTED
 70
     0
  3
Long-Dash Dot ____ . ____ . ____ . ____ . _
 72
    65
 73
     4
 40
0.3001
 49
0.2362
 74
     0
 49
-0.0295
 74
     0
 49
0.0049
 74
     0
 49
-0.0295
 74
     0
  0
LTYPE
  5
8A
330
5
100
AcDbSymbolTableRecord
100
AcDbLinetypeTableRecord
  2
LONG_DASH_DOUBLE_DOT
 70
     0
  3
Long Dash Double Dot ____ . . ____ . . ____ . .
 72
    65
 73
     6
 40
0.3345
 49
0.2362
 74
     0
 49
-0.0295
 74
     0
 49
0.0049
 74
     0
 49
-0.0295
 74
     0
 49
0.0049
 74
     0
 49
-0.0295
 74
     0
  0
LTYPE
  5
8B
330
5
100
AcDbSymbolTableRecord
100
AcDbLinetypeTableRecord
  2
LONG_DASH_TRIPLE_DOT
 70
     0
  3
Long Dash Triple Dot ____ ... ____ ... ____
 72
    65
 73
     8
 40
0.75
 49
0.48
 74
     0
 49
-0.06
 74
     0
 49
0.01
 74
     0
 49
-0.06
 74
     0
 49
0.01
 74
     0
 49
-0.06
 74
     0
 49
0.01
 74
     0
 49
-0.06
 74
     0
  0
LTYPE
  5
8C
330
5
100
AcDbSymbolTableRecord
100
AcDbLinetypeTableRecord
  2
BORDER
 70
     0
  3
Border __ __ . __ __ . __ __ . __ __ . __ __ .
 72
    65
 73
     6
 40
44.45
 49
12.7
 74
     0
 49
-6.349999999999999
 74
     0
 49
12.7
 74
     0
 49
-6.349999999999999
 74
     0
 49
0.0
 74
     0
 49
-6.349999999999999
 74
     0
  0
LTYPE
  5
8D
330
5
100
AcDbSymbolTableRecord
100
AcDbLinetypeTableRecord
  2
BORDER2
 70
     0
  3
Border (.5x) __.__.__.__.__.__.__.__.__.__.__.
 72
    65
 73
     6
 40
22.225
 49
6.349999999999999
 74
     0
 49
-3.174999999999999
 74
     0
 49
6.349999999999999
 74
     0
 49
-3.174999999999999
 74
     0
 49
0.0
 74
     0
 49
-3.174999999999999
 74
     0
  0
LTYPE
  5
8E
330
5
100
AcDbSymbolTableRecord
100
AcDbLinetypeTableRecord
  2
BORDERX2
 70
     0
  3
Border (2x) ____  ____  .  ____  ____  .  ___
 72
    65
 73
     6
 40
88.9
 49
25.4
 74
     0
 49
-12.7
 74
     0
 49
25.4
 74
     0
 49
-12.7
 74
     0
 49
0.0
 74
     0
 49
-12.7
 74
     0
  0
LTYPE
  5
8F
330
5
100
AcDbSymbolTableRecord
100
AcDbLinetypeTableRecord
  2
CENTER
 70
     0
  3
Center ____ _ ____ _ ____ _ ____ _ ____ _ ____
 72
    65
 73
     4
 40
50.8
 49
31.75
 74
     0
 49
-6.349999999999999
 74
     0
 49
6.349999999999999
 74
     0
 49
-6.349999999999999
 74
     0
  0
LTYPE
  5
90
330
5
100
AcDbSymbolTableRecord
100
AcDbLinetypeTableRecord
  2
CENTER2
 70
     0
  3
Center (.5x) ___ _ ___ _ ___ _ ___ _ ___ _ ___
 72
    65
 73
     4
 40
28.575
 49
19.05
 74
     0
 49
-3.174999999999999
 74
     0
 49
3.174999999999999
 74
     0
 49
-3.174999999999999
 74
     0
  0
LTYPE
  5
91
330
5
100
AcDbSymbolTableRecord
100
AcDbLinetypeTableRecord
  2
CENTERX2
 70
     0
  3
Center (2x) ________  __  ________  __  _____
 72
    65
 73
     4
 40
101.6
 49
63.5
 74
     0
 49
-12.7
 74
     0
 49
12.7
 74
     0
 49
-12.7
 74
     0
  0
LTYPE
  5
92
330
5
100
AcDbSymbolTableRecord
100
AcDbLinetypeTableRecord
  2
DASHDOT2
 70
     0
  3
Dash dot (.5x) _._._._._._._._._._._._._._._.
 72
    65
 73
     4
 40
12.7
 49
6.349999999999999
 74
     0
 49
-3.174999999999999
 74
     0
 49
0.0
 74
     0
 49
-3.174999999999999
 74
     0
  0
LTYPE
  5
93
330
5
100
AcDbSymbolTableRecord
100
AcDbLinetypeTableRecord
  2
DASHDOTX2
 70
     0
  3
Dash dot (2x) ____  .  ____  .  ____  .  ___
 72
    65
 73
     4
 40
50.8
 49
25.4
 74
     0
 49
-12.7
 74
     0
 49
0.0
 74
     0
 49
-12.7
 74
     0
  0
LTYPE
  5
94
330
5
100
AcDbSymbolTableRecord
100
AcDbLinetypeTableRecord
  2
DASHED2
 70
     0
  3
Dashed (.5x) _ _ _ _ _ _ _ _ _ _ _ _ _ _ _ _ _
 72
    65
 73
     2
 40
9.524999999999998
 49
6.349999999999999
 74
     0
 49
-3.174999999999999
 74
     0
  0
LTYPE
  5
95
330
5
100
AcDbSymbolTableRecord
100
AcDbLinetypeTableRecord
  2
DASHEDX2
 70
     0
  3
Dashed (2x) ____  ____  ____  ____  ____  ___
 72
    65
 73
     2
 40
38.1
 49
25.4
 74
     0
 49
-12.7
 74
     0
  0
LTYPE
  5
96
330
5
100
AcDbSymbolTableRecord
100
AcDbLinetypeTableRecord
  2
DIVIDE
 70
     0
  3
Divide ____ . . ____ . . ____ . . ____ . . ____
 72
    65
 73
     6
 40
31.75
 49
12.7
 74
     0
 49
-6.349999999999999
 74
     0
 49
0.0
 74
     0
 49
-6.349999999999999
 74
     0
 49
0.0
 74
     0
 49
-6.349999999999999
 74
     0
  0
LTYPE
  5
97
330
5
100
AcDbSymbolTableRecord
100
AcDbLinetypeTableRecord
  2
DIVIDE2
 70
     0
  3
Divide (.5x) __..__..__..__..__..__..__..__.._
 72
    65
 73
     6
 40
15.875
 49
6.349999999999999
 74
     0
 49
-3.174999999999999
 74
     0
 49
0.0
 74
     0
 49
-3.174999999999999
 74
     0
 49
0.0
 74
     0
 49
-3.174999999999999
 74
     0
  0
LTYPE
  5
98
330
5
100
AcDbSymbolTableRecord
100
AcDbLinetypeTableRecord
  2
DIVIDEX2
 70
     0
  3
Divide (2x) ________  .  .  ________  .  .  _
 72
    65
 73
     6
 40
63.49999999999999
 49
25.4
 74
     0
 49
-12.7
 74
     0
 49
0.0
 74
     0
 49
-12.7
 74
     0
 49
0.0
 74
     0
 49
-12.7
 74
     0
  0
LTYPE
  5
99
330
5
100
AcDbSymbolTableRecord
100
AcDbLinetypeTableRecord
  2
DOT
 70
     0
  3
Dot . . . . . . . . . . . . . . . . . . . . . .
 72
    65
 73
     2
 40
6.349999999999999
 49
0.0
 74
     0
 49
-6.349999999999999
 74
     0
  0
LTYPE
  5
9A
330
5
100
AcDbSymbolTableRecord
100
AcDbLinetypeTableRecord
  2
DOT2
 70
     0
  3
Dot (.5x) .....................................
 72
    65
 73
     2
 40
3.174999999999999
 49
0.0
 74
     0
 49
-3.174999999999999
 74
     0
  0
LTYPE
  5
9B
330
5
100
AcDbSymbolTableRecord
100
AcDbLinetypeTableRecord
  2
DOTX2
 70
     0
  3
Dot (2x) .  .  .  .  .  .  .  .  .  .  .  .  . 
 72
    65
 73
     2
 40
12.7
 49
0.0
 74
     0
 49
-12.7
 74
     0
  0
LTYPE
  5
9C
330
5
100
AcDbSymbolTableRecord
100
AcDbLinetypeTableRecord
  2
HIDDEN
 70
     0
  3
Hidden __ __ __ __ __ __ __ __ __ __ __ __ __ _
 72
    65
 73
     2
 40
9.524999999999998
 49
6.349999999999999
 74
     0
 49
-3.174999999999999
 74
     0
  0
LTYPE
  5
9D
330
5
100
AcDbSymbolTableRecord
100
AcDbLinetypeTableRecord
  2
HIDDEN2
 70
     0
  3
Hidden (.5x) _ _ _ _ _ _ _ _ _ _ _ _ _ _ _ _ _
 72
    65
 73
     2
 40
4.762499999999999
 49
3.174999999999999
 74
     0
 49
-1.587499999999999
 74
     0
  0
LTYPE
  5
9E
330
5
100
AcDbSymbolTableRecord
100
AcDbLinetypeTableRecord
  2
HIDDENX2
 70
     0
  3
Hidden (2x) ____ ____ ____ ____ ____ ____ ____
 72
    65
 73
     2
 40
19.05
 49
12.7
 74
     0
 49
-6.349999999999999
 74
     0
  0
LTYPE
  5
9F
330
5
100
AcDbSymbolTableRecord
100
AcDbLinetypeTableRecord
  2
PHANTOM
 70
     0
  3
Phantom ______  __  __  ______  __  __  ______
 72
    65
 73
     6
 40
63.5
 49
31.75
 74
     0
 49
-6.349999999999999
 74
     0
 49
6.349999999999999
 74
     0
 49
-6.349999999999999
 74
     0
 49
6.349999999999999
 74
     0
 49
-6.349999999999999
 74
     0
  0
LTYPE
  5
A0
330
5
100
AcDbSymbolTableRecord
100
AcDbLinetypeTableRecord
  2
PHANTOM2
 70
     0
  3
Phantom (.5x) ___ _ _ ___ _ _ ___ _ _ ___ _ _
 72
    65
 73
     6
 40
31.75
 49
15.875
 74
     0
 49
-3.174999999999999
 74
     0
 49
3.174999999999999
 74
     0
 49
-3.174999999999999
 74
     0
 49
3.174999999999999
 74
     0
 49
-3.174999999999999
 74
     0
  0
LTYPE
  5
A1
330
5
100
AcDbSymbolTableRecord
100
AcDbLinetypeTableRecord
  2
PHANTOMX2
 70
     0
  3
Phantom (2x) ____________    ____    ____   _
 72
    65
 73
     6
 40
127.0
 49
63.5
 74
     0
 49
-12.7
 74
     0
 49
12.7
 74
     0
 49
-12.7
 74
     0
 49
12.7
 74
     0
 49
-12.7
 74
     0
  0
LTYPE
  5
A2
330
5
100
AcDbSymbolTableRecord
100
AcDbLinetypeTableRecord
  2
ACAD_ISO02W100
 70
     0
  3
ISO dash __ __ __ __ __ __ __ __ __ __ __ __ __
 72
    65
 73
     2
 40
15.0
 49
12.0
 74
     0
 49
-3.0
 74
     0
  0
LTYPE
  5
A3
330
5
100
AcDbSymbolTableRecord
100
AcDbLinetypeTableRecord
  2
ACAD_ISO03W100
 70
     0
  3
ISO dash space __    __    __    __    __    __
 72
    65
 73
     2
 40
30.0
 49
12.0
 74
     0
 49
-18.0
 74
     0
  0
LTYPE
  5
A4
330
5
100
AcDbSymbolTableRecord
100
AcDbLinetypeTableRecord
  2
ACAD_ISO04W100
 70
     0
  3
ISO long-dash dot ____ . ____ . ____ . ____ . _
 72
    65
 73
     4
 40
30.0
 49
24.0
 74
     0
 49
-3.0
 74
     0
 49
0.0
 74
     0
 49
-3.0
 74
     0
  0
LTYPE
  5
A5
330
5
100
AcDbSymbolTableRecord
100
AcDbLinetypeTableRecord
  2
ACAD_ISO05W100
 70
     0
  3
ISO long-dash double-dot ____ .. ____ .. ____ .
 72
    65
 73
     6
 40
33.0
 49
24.0
 74
     0
 49
-3.0
 74
     0
 49
0.0
 74
     0
 49
-3.0
 74
     0
 49
0.0
 74
     0
 49
-3.0
 74
     0
  0
LTYPE
  5
A6
330
5
100
AcDbSymbolTableRecord
100
AcDbLinetypeTableRecord
  2
ACAD_ISO06W100
 70
     0
  3
ISO long-dash triple-dot ____ ... ____ ... ____
 72
    65
 73
     8
 40
36.0
 49
24.0
 74
     0
 49
-3.0
 74
     0
 49
0.0
 74
     0
 49
-3.0
 74
     0
 49
0.0
 74
     0
 49
-3.0
 74
     0
 49
0.0
 74
     0
 49
-3.0
 74
     0
  0
LTYPE
  5
A7
330
5
100
AcDbSymbolTableRecord
100
AcDbLinetypeTableRecord
  2
ACAD_ISO07W100
 70
     0
  3
ISO dot . . . . . . . . . . . . . . . . . . . .
 72
    65
 73
     2
 40
3.0
 49
0.0
 74
     0
 49
-3.0
 74
     0
  0
LTYPE
  5
A8
330
5
100
AcDbSymbolTableRecord
100
AcDbLinetypeTableRecord
  2
ACAD_ISO08W100
 70
     0
  3
ISO long-dash short-dash ____ __ ____ __ ____ _
 72
    65
 73
     4
 40
36.0
 49
24.0
 74
     0
 49
-3.0
 74
     0
 49
6.0
 74
     0
 49
-3.0
 74
     0
  0
LTYPE
  5
A9
330
5
100
AcDbSymbolTableRecord
100
AcDbLinetypeTableRecord
  2
ACAD_ISO09W100
 70
     0
  3
ISO long-dash double-short-dash ____ __ __ ____
 72
    65
 73
     6
 40
45.0
 49
24.0
 74
     0
 49
-3.0
 74
     0
 49
6.0
 74
     0
 49
-3.0
 74
     0
 49
6.0
 74
     0
 49
-3.0
 74
     0
  0
LTYPE
  5
AA
330
5
100
AcDbSymbolTableRecord
100
AcDbLinetypeTableRecord
  2
ACAD_ISO10W100
 70
     0
  3
ISO dash dot __ . __ . __ . __ . __ . __ . __ .
 72
    65
 73
     4
 40
18.0
 49
12.0
 74
     0
 49
-3.0
 74
     0
 49
0.0
 74
     0
 49
-3.0
 74
     0
  0
LTYPE
  5
AB
330
5
100
AcDbSymbolTableRecord
100
AcDbLinetypeTableRecord
  2
ACAD_ISO11W100
 70
     0
  3
ISO double-dash dot __ __ . __ __ . __ __ . __ 
 72
    65
 73
     6
 40
33.0
 49
12.0
 74
     0
 49
-3.0
 74
     0
 49
12.0
 74
     0
 49
-3.0
 74
     0
 49
0.0
 74
     0
 49
-3.0
 74
     0
  0
LTYPE
  5
AC
330
5
100
AcDbSymbolTableRecord
100
AcDbLinetypeTableRecord
  2
ACAD_ISO12W100
 70
     0
  3
ISO dash double-dot __ . . __ . . __ . . __ . .
 72
    65
 73
     6
 40
21.0
 49
12.0
 74
     0
 49
-3.0
 74
     0
 49
0.0
 74
     0
 49
-3.0
 74
     0
 49
0.0
 74
     0
 49
-3.0
 74
     0
  0
LTYPE
  5
AD
330
5
100
AcDbSymbolTableRecord
100
AcDbLinetypeTableRecord
  2
ACAD_ISO13W100
 70
     0
  3
ISO double-dash double-dot __ __ . . __ __ . . 
 72
    65
 73
     8
 40
36.0
 49
12.0
 74
     0
 49
-3.0
 74
     0
 49
12.0
 74
     0
 49
-3.0
 74
     0
 49
0.0
 74
     0
 49
-3.0
 74
     0
 49
0.0
 74
     0
 49
-3.0
 74
     0
  0
LTYPE
  5
AE
330
5
100
AcDbSymbolTableRecord
100
AcDbLinetypeTableRecord
  2
ACAD_ISO14W100
 70
     0
  3
ISO dash triple-dot __ . . . __ . . . __ . . . 
 72
    65
 73
     8
 40
24.0
 49
12.0
 74
     0
 49
-3.0
 74
     0
 49
0.0
 74
     0
 49
-3.0
 74
     0
 49
0.0
 74
     0
 49
-3.0
 74
     0
 49
0.0
 74
     0
 49
-3.0
 74
     0
  0
LTYPE
  5
AF
330
5
100
AcDbSymbolTableRecord
100
AcDbLinetypeTableRecord
  2
ACAD_ISO15W100
 70
     0
  3
ISO double-dash triple-dot __ __ . . . __ __ . 
 72
    65
 73
    10
 40
39.0
 49
12.0
 74
     0
 49
-3.0
 74
     0
 49
12.0
 74
     0
 49
-3.0
 74
     0
 49
0.0
 74
     0
 49
-3.0
 74
     0
 49
0.0
 74
     0
 49
-3.0
 74
     0
 49
0.0
 74
     0
 49
-3.0
 74
     0
  0
LTYPE
  5
B2
330
5
100
AcDbSymbolTableRecord
100
AcDbLinetypeTableRecord
  2
FENCELINE1
 70
     0
  3
Fenceline circle ----0-----0----0-----0----0---
 72
    65
 73
     4
 40
36.83
 49
6.349999999999999
 74
     0
 49
-2.54
 74
     4
 75
   133
340
B1
 46
2.54
 50
0.0
 44
-2.54
 45
0.0
 49
-2.54
 74
     0
 49
25.4
 74
     0
  0
LTYPE
  5
B3
330
5
100
AcDbSymbolTableRecord
100
AcDbLinetypeTableRecord
  2
FENCELINE2
 70
     0
  3
Fenceline square ----[]-----[]----[]-----[]----
 72
    65
 73
     4
 40
36.83
 49
6.349999999999999
 74
     0
 49
-2.54
 74
     4
 75
   132
340
B1
 46
2.54
 50
0.0
 44
-2.54
 45
0.0
 49
-2.54
 74
     0
 49
25.4
 74
     0
  0
LTYPE
  5
B4
330
5
100
AcDbSymbolTableRecord
100
AcDbLinetypeTableRecord
  2
TRACKS
 70
     0
  3
Tracks -|-|-|-|-|-|-|-|-|-|-|-|-|-|-|-|-|-|-|-|
 72
    65
 73
     2
 40
7.62
 49
3.81
 74
     4
 75
   130
340
B1
 46
6.349999999999999
 50
0.0
 44
0.0
 45
0.0
 49
3.81
 74
     0
  0
LTYPE
  5
B5
330
5
100
AcDbSymbolTableRecord
100
AcDbLinetypeTableRecord
  2
BATTING
 70
     0
  3
Batting SSSSSSSSSSSSSSSSSSSSSSSSSSSSSSSSSSSSSSS
 72
    65
 73
     4
 40
10.16254
 49
0.00254
 74
     0
 49
-2.54
 74
     4
 75
   134
340
B1
 46
2.54
 50
0.0
 44
-2.54
 45
0.0
 49
-5.08
 74
     4
 75
   134
340
B1
 46
2.54
 50
180.0
 44
2.54
 45
0.0
 49
-2.54
 74
     0
  0
LTYPE
  5
B6
330
5
100
AcDbSymbolTableRecord
100
AcDbLinetypeTableRecord
  2
HOT_WATER_SUPPLY
 70
     0
  3
Hot water supply ---- HW ---- HW ---- HW ----
 72
    65
 73
     3
 40
22.86
 49
12.7
 74
     0
 49
-5.08
 74
     2
 75
     0
340
5D
 46
2.54
 50
0.0
 44
-2.54
 45
-1.27
  9
HW
 49
-5.08
 74
     0
  0
LTYPE
  5
B7
330
5
100
AcDbSymbolTableRecord
100
AcDbLinetypeTableRecord
  2
GAS_LINE
 70
     0
  3
Gas line ----GAS----GAS----GAS----GAS----GAS---
 72
    65
 73
     3
 40
24.13
 49
12.7
 74
     0
 49
-5.08
 74
     2
 75
     0
340
5D
 46
2.54
 50
0.0
 44
-2.54
 45
-1.27
  9
GAS
 49
-6.349999999999999
 74
     0
  0
LTYPE
  5
B8
330
5
100
AcDbSymbolTableRecord
100
AcDbLinetypeTableRecord
  2
ZIGZAG
 70
     0
  3
Zig zag /\/\/\/\/\/\/\/\/\/\/\/\/\/\/\/\/\/\/\/
 72
    65
 73
     4
 40
20.32254
 49
0.00254
 74
     0
 49
-5.08
 74
     4
 75
   131
340
B1
 46
5.08
 50
0.0
 44
-5.08
 45
0.0
 49
-10.16
 74
     4
 75
   131
340
B1
 46
5.08
 50
180.0
 44
5.08
 45
0.0
 49
-5.08
 74
     0
  0
ENDTAB
  0
TABLE
  2
LAYER
  5
2
330
0
100
AcDbSymbolTable
 70
    26
  0
LAYER
  5
5C
330
2
100
AcDbSymbolTableRecord
100
AcDbLayerTableRecord
  2
0
 70
     0
 62
     7
  6
Continuous
370
    -3
390
F
  0
LAYER
  5
C3
330
2
100
AcDbSymbolTableRecord
100
AcDbLayerTableRecord
  2
Mittellinie MD
 70
     0
 62
     7
  6
Continuous
370
    18
390
F
  0
LAYER
  5
C9
330
2
100
AcDbSymbolTableRecord
100
AcDbLayerTableRecord
  2
Schraffur MD
 70
     0
 62
     7
  6
Continuous
370
    18
390
F
  0
LAYER
  5
CA
330
2
100
AcDbSymbolTableRecord
100
AcDbLayerTableRecord
  2
Sichtbar MD
 70
     0
 62
     7
  6
Continuous
370
    35
390
F
  0
LAYER
  5
CC
330
2
100
AcDbSymbolTableRecord
100
AcDbLayerTableRecord
  2
Skizziergeometrie MD
 70
     0
 62
     7
  6
Continuous
370
    25
390
F
  0
LAYER
  5
CD
330
2
100
AcDbSymbolTableRecord
100
AcDbLayerTableRecord
  2
Symbol MD
 70
     0
 62
     7
  6
Continuous
370
    25
390
F
  0
ENDTAB
  0
TABLE
  2
STYLE
  5
3
330
0
100
AcDbSymbolTable
 70
    11
  0
STYLE
  5
5D
330
3
100
AcDbSymbolTableRecord
100
AcDbTextStyleTableRecord
  2
Standard
 70
     0
 40
0.0
 41
1.0
 50
0.0
 71
     0
 42
0.2
  3
isocpeur.ttf
  4

1001
ACAD
1000
ISOCPEUR
1071
      256
  0
STYLE
  5
62
330
3
100
AcDbSymbolTableRecord
100
AcDbTextStyleTableRecord
  2
Annotative
 70
     0
 40
0.0
 41
1.0
 50
0.0
 71
     0
 42
0.2
  3

  4

1001
AcadAnnotative
1000
AnnotativeData
1002
{
1070
     1
1070
     1
1002
}
  0
STYLE
  5
B1
330
3
100
AcDbSymbolTableRecord
100
AcDbTextStyleTableRecord
  2

 70
     1
 40
0.0
 41
1.0
 50
0.0
 71
     0
 42
0.2
  3
ltypeshp.shx
  4

  0
STYLE
  5
D2
330
3
100
AcDbSymbolTableRecord
100
AcDbTextStyleTableRecord
  2
Artikelnummer MD
 70
     0
 40
0.0
 41
1.0
 50
0.0
 71
     0
 42
0.2
  3
isocpeur.ttf
  4

1001
ACAD
1000
ISOCPEUR
1071
      256
  0
STYLE
  5
D3
330
3
100
AcDbSymbolTableRecord
100
AcDbTextStyleTableRecord
  2
Bemaßung Gen 5
 70
     0
 40
0.0
 41
1.0
 50
0.0
 71
     0
 42
0.2
  3
isocpeur.ttf
  4

1001
ACAD
1000
ISOCPEUR
1071
      256
  0
STYLE
  5
D4
330
3
100
AcDbSymbolTableRecord
100
AcDbTextStyleTableRecord
  2
Bemaßung rom 5
 70
     0
 40
0.0
 41
1.0
 50
0.0
 71
     0
 42
0.2
  3
RomanS.shx
  4

  0
STYLE
  5
D5
330
3
100
AcDbSymbolTableRecord
100
AcDbTextStyleTableRecord
  2
Bezeichnungstext MD
 70
     0
 40
0.0
 41
1.0
 50
0.0
 71
     0
 42
0.2
  3
isocpeur.ttf
  4

1001
ACAD
1000
ISOCPEUR
1071
      256
  0
STYLE
  5
D6
330
3
100
AcDbSymbolTableRecord
100
AcDbTextStyleTableRecord
  2
Ersatzteilliste MD
 70
     0
 40
0.0
 41
1.0
 50
0.0
 71
     0
 42
0.2
  3
isocpeur.ttf
  4

1001
ACAD
1000
ISOCPEUR
1071
      256
  0
STYLE
  5
D7
330
3
100
AcDbSymbolTableRecord
100
AcDbTextStyleTableRecord
  2
Notiztext MD
 70
     0
 40
0.0
 41
1.0
 50
0.0
 71
     0
 42
0.2
  3
isocpeur.ttf
  4

1001
ACAD
1000
ISOCPEUR
1071
      256
  0
STYLE
  5
D8
330
3
100
AcDbSymbolTableRecord
100
AcDbTextStyleTableRecord
  2
Positionsnummer Exp.
 70
     0
 40
0.0
 41
1.0
 50
0.0
 71
     0
 42
0.2
  3
isocpeur.ttf
  4

1001
ACAD
1000
ISOCPEUR
1071
      256
  0
STYLE
  5
D9
330
3
100
AcDbSymbolTableRecord
100
AcDbTextStyleTableRecord
  2
Positionsnummer MD
 70
     0
 40
0.0
 41
1.0
 50
0.0
 71
     0
 42
0.2
  3
isocpeur.ttf
  4

1001
ACAD
1000
ISOCPEUR
1071
      256
  0
ENDTAB
  0
TABLE
  2
VIEW
  5
6
330
0
100
AcDbSymbolTable
 70
     0
  0
ENDTAB
  0
TABLE
  2
UCS
  5
7
330
0
100
AcDbSymbolTable
 70
     0
  0
ENDTAB
  0
TABLE
  2
APPID
  5
9
330
0
100
AcDbSymbolTable
 70
     3
  0
APPID
  5
5E
330
9
100
AcDbSymbolTableRecord
100
AcDbRegAppTableRecord
  2
ACAD
 70
     0
  0
APPID
  5
66
330
9
100
AcDbSymbolTableRecord
100
AcDbRegAppTableRecord
  2
AcadAnnotative
 70
     0
  0
APPID
  5
70
330
9
100
AcDbSymbolTableRecord
100
AcDbRegAppTableRecord
  2
ACAD_MLEADERVER
 70
     0
  0
ENDTAB
  0
TABLE
  2
DIMSTYLE
  5
A
330
0
100
AcDbSymbolTable
 70
    19
100
AcDbDimStyleTable
 71
     0
  0
DIMSTYLE
105
60
330
A
100
AcDbSymbolTableRecord
100
AcDbDimStyleTableRecord
  2
Standard
 70
     0
340
5D
  0
DIMSTYLE
105
61
330
A
100
AcDbSymbolTableRecord
100
AcDbDimStyleTableRecord
  2
Annotative
 70
     0
340
5D
1001
AcadAnnotative
1000
AnnotativeData
1002
{
1070
     1
1070
     1
1002
}
  0
DIMSTYLE
105
DA
330
A
100
AcDbSymbolTableRecord
100
AcDbDimStyleTableRecord
  2
Bemaßung allgemein MD
 70
     0
 41
2.5
 42
0.8
 43
5.999999999999999
 44
3.174999999999999
 45
0.00000001
 46
10.0
 73
     0
 74
     0
 77
     1
 78
     8
 79
     2
140
3.5
143
0.03937
146
0.7142857142857144
147
0.8
171
     3
172
     1
176
   256
177
   256
178
   256
271
     3
272
     3
274
     3
275
     1
278
    44
284
     8
340
D7
341
DB
371
    -1
372
    -1
  0
DIMSTYLE
105
E0
330
A
100
AcDbSymbolTableRecord
100
AcDbDimStyleTableRecord
  2
Bemaßung allgemein MD$7
 70
     0
 41
1.25
 42
0.8
 43
5.999999999999999
 44
3.174999999999999
 45
0.00000001
 46
10.0
 73
     0
 74
     0
 77
     1
 78
     8
 79
     2
140
3.5
143
0.03937
146
0.7142857142857144
147
0.8
171
     3
172
     1
176
   256
177
   256
178
   256
271
     3
272
     3
274
     3
275
     1
278
    44
284
     8
340
D7
341
DB
371
    -1
372
    -1
  0
DIMSTYLE
105
E1
330
A
100
AcDbSymbolTableRecord
100
AcDbDimStyleTableRecord
  2
Durchmesser MD
 70
     0
 41
2.5
 42
0.8
 43
5.999999999999999
 44
3.174999999999999
 45
0.00000001
 46
10.0
 73
     0
 74
     0
 77
     1
 78
     8
 79
     2
140
3.5
143
0.03937
146
0.7142857142857144
147
0.8
171
     3
172
     1
176
   256
177
   256
178
   256
271
     3
272
     3
274
     3
275
     1
278
    44
284
     8
340
D7
341
DB
371
    -1
372
    -1
  0
DIMSTYLE
105
E2
330
A
100
AcDbSymbolTableRecord
100
AcDbDimStyleTableRecord
  2
Durchmesser MD$7
 70
     0
 41
1.25
 42
0.8
 43
5.999999999999999
 44
3.174999999999999
 45
0.00000001
 46
10.0
 73
     0
 74
     0
 77
     1
 78
     8
 79
     2
140
3.5
143
0.03937
146
0.7142857142857144
147
0.8
171
     3
172
     1
176
   256
177
   256
178
   256
271
     3
272
     3
274
     3
275
     1
278
    44
284
     8
340
D7
341
DB
371
    -1
372
    -1
  0
DIMSTYLE
105
E3
330
A
100
AcDbSymbolTableRecord
100
AcDbDimStyleTableRecord
  2
Fase 45° MD
 70
     0
 41
2.5
 42
0.8
 43
5.999999999999999
 44
3.174999999999999
 45
0.00000001
 46
10.0
 73
     0
 74
     0
 77
     1
 78
     8
 79
     2
140
3.5
143
0.03937
146
0.7142857142857144
147
0.8
171
     3
172
     1
176
   256
177
   256
178
   256
271
     3
272
     3
274
     3
275
     1
278
    44
284
     8
340
D7
341
DB
371
    -1
372
    -1
  0
DIMSTYLE
105
E4
330
A
100
AcDbSymbolTableRecord
100
AcDbDimStyleTableRecord
  2
Fase 45° MD$7
 70
     0
 41
1.25
 42
0.8
 43
5.999999999999999
 44
3.174999999999999
 45
0.00000001
 46
10.0
 73
     0
 74
     0
 77
     1
 78
     8
 79
     2
140
3.5
143
0.03937
146
0.7142857142857144
147
0.8
171
     3
172
     1
176
   256
177
   256
178
   256
271
     3
272
     3
274
     3
275
     1
278
    44
284
     8
340
D7
341
DB
371
    -1
372
    -1
  0
DIMSTYLE
105
E5
330
A
100
AcDbSymbolTableRecord
100
AcDbDimStyleTableRecord
  2
Gewinde MD
 70
     0
 41
2.5
 42
0.8
 43
5.999999999999999
 44
3.174999999999999
 45
0.00000001
 46
10.0
 73
     0
 74
     0
 77
     1
 78
     8
 79
     2
140
3.5
143
0.03937
146
0.7142857142857144
147
0.8
171
     3
172
     1
176
   256
177
   256
178
   256
271
     3
272
     3
274
     3
275
     1
278
    44
284
     8
340
D7
341
DB
371
    -1
372
    -1
  0
DIMSTYLE
105
E6
330
A
100
AcDbSymbolTableRecord
100
AcDbDimStyleTableRecord
  2
Gewinde MD$7
 70
     0
 41
1.25
 42
0.8
 43
5.999999999999999
 44
3.174999999999999
 45
0.00000001
 46
10.0
 73
     0
 74
     0
 77
     1
 78
     8
 79
     2
140
3.5
143
0.03937
146
0.7142857142857144
147
0.8
171
     3
172
     1
176
   256
177
   256
178
   256
271
     3
272
     3
274
     3
275
     1
278
    44
284
     8
340
D7
341
DB
371
    -1
372
    -1
  0
DIMSTYLE
105
E7
330
A
100
AcDbSymbolTableRecord
100
AcDbDimStyleTableRecord
  2
Schlüsselweite MD
 70
     0
 41
2.5
 42
0.8
 43
5.999999999999999
 44
3.174999999999999
 45
0.00000001
 46
10.0
 48
0.000000001
 71
     1
 73
     0
 74
     0
 77
     1
 78
     8
 79
     2
140
3.5
143
0.03937
146
0.7142857142857144
147
0.8
171
     3
172
     1
176
   256
177
   256
178
   256
271
     3
272
     3
274
     3
275
     1
278
    44
284
     8
340
D7
341
DB
371
    -1
372
    -1
  0
DIMSTYLE
105
E8
330
A
100
AcDbSymbolTableRecord
100
AcDbDimStyleTableRecord
  2
Schlüsselweite MD$7
 70
     0
 41
1.25
 42
0.8
 43
5.999999999999999
 44
3.174999999999999
 45
0.00000001
 46
10.0
 48
0.000000001
 71
     1
 73
     0
 74
     0
 77
     1
 78
     8
 79
     2
140
3.5
143
0.03937
146
0.7142857142857144
147
0.8
171
     3
172
     1
176
   256
177
   256
178
   256
271
     3
272
     3
274
     3
275
     1
278
    44
284
     8
340
D7
341
DB
371
    -1
372
    -1
  0
DIMSTYLE
105
F7
330
A
100
AcDbSymbolTableRecord
100
AcDbDimStyleTableRecord
  2
Sonstiges Objekt MD
 70
     0
 41
5.0
 42
0.0
 43
5.999999999999999
 44
3.174999999999999
 45
0.00000001
 46
10.0
 77
     1
 78
     8
 79
     2
140
5.0
143
0.03937
146
0.7
147
0.8
171
     3
172
     1
176
   256
177
   256
178
   256
271
     2
272
     2
274
     3
278
    44
284
     8
286
     8
340
D5
341
E9
371
    -1
372
    -1
  0
DIMSTYLE
105
F8
330
A
100
AcDbSymbolTableRecord
100
AcDbDimStyleTableRecord
  2
Sonstiges Objekt MD$7
 70
     0
 41
5.0
 42
0.0
 43
5.999999999999999
 44
3.174999999999999
 45
0.00000001
 46
10.0
 77
     1
 78
     8
 79
     2
140
5.0
143
0.03937
146
0.7
147
0.8
171
     3
172
     1
176
   256
177
   256
178
   256
271
     2
272
     2
274
     3
278
    44
284
     8
286
     8
340
D5
341
E9
371
    25
372
    -1
  0
DIMSTYLE
105
F9
330
A
100
AcDbSymbolTableRecord
100
AcDbDimStyleTableRecord
  2
Alternativ MD
 70
     0
 41
2.5
340
5D
342
FA
  0
DIMSTYLE
105
10B
330
A
100
AcDbSymbolTableRecord
100
AcDbDimStyleTableRecord
  2
Bezug MD
 70
     0
 41
2.5
340
5D
342
FA
  0
DIMSTYLE
105
10C
330
A
100
AcDbSymbolTableRecord
100
AcDbDimStyleTableRecord
  2
keine Pfeilspitze MD
 70
     0
 41
2.5
340
5D
342
FA
  0
DIMSTYLE
105
10D
330
A
100
AcDbSymbolTableRecord
100
AcDbDimStyleTableRecord
  2
kleiner Punkt MD
 70
     0
 41
1.25
340
5D
342
FA
  0
DIMSTYLE
105
10E
330
A
100
AcDbSymbolTableRecord
100
AcDbDimStyleTableRecord
  2
Pfeil MD
 70
     0
 41
2.5
340
5D
342
FA
  0
ENDTAB
  0
TABLE
  2
BLOCK_RECORD
  5
1
330
0
100
AcDbSymbolTable
 70
    13
  0
BLOCK_RECORD
  5
75
330
1
100
AcDbSymbolTableRecord
100
AcDbBlockTableRecord
  2
*Model_Space
340
78
  0
BLOCK_RECORD
  5
71
330
1
100
AcDbSymbolTableRecord
100
AcDbBlockTableRecord
  2
*Paper_Space
340
74
  0
BLOCK_RECORD
  5
79
330
1
100
AcDbSymbolTableRecord
100
AcDbBlockTableRecord
  2
*Paper_Space0
340
7C
  0
BLOCK_RECORD
  5
DB
330
1
100
AcDbSymbolTableRecord
100
AcDbBlockTableRecord
  2
_Dot
340
0
  0
BLOCK_RECORD
  5
E9
330
1
100
AcDbSymbolTableRecord
100
AcDbBlockTableRecord
  2
Filled-1
340
0
  0
BLOCK_RECORD
  5
FA
330
1
100
AcDbSymbolTableRecord
100
AcDbBlockTableRecord
  2
_Closed
340
0
  0
BLOCK_RECORD
  5
101
330
1
100
AcDbSymbolTableRecord
100
AcDbBlockTableRecord
  2
DatumFilled45
340
0
  0
BLOCK_RECORD
  5
10F
330
1
100
AcDbSymbolTableRecord
100
AcDbBlockTableRecord
  2
Grat innen
340
0
  0
BLOCK_RECORD
  5
120
330
1
100
AcDbSymbolTableRecord
100
AcDbBlockTableRecord
  2
Grat aussen
340
0
  0
BLOCK_RECORD
  5
130
330
1
100
AcDbSymbolTableRecord
100
AcDbBlockTableRecord
  2
Änderungszustand
340
0
  0
BLOCK_RECORD
  5
135
330
1
100
AcDbSymbolTableRecord
100
AcDbBlockTableRecord
  2
Oberflächenzeichen 2
340
0
  0
BLOCK_RECORD
  5
142
330
1
100
AcDbSymbolTableRecord
100
AcDbBlockTableRecord
  2
Anzugsmoment ETL
340
0
  0
BLOCK_RECORD
  5
163
330
1
100
AcDbSymbolTableRecord
100
AcDbBlockTableRecord
  2
Anzugsmoment + Loctite ETL
340
0
  0
BLOCK_RECORD
  5
185
330
1
100
AcDbSymbolTableRecord
100
AcDbBlockTableRecord
  2
Loctite ETL
340
0
  0
BLOCK_RECORD
  5
192
330
1
100
AcDbSymbolTableRecord
100
AcDbBlockTableRecord
  2
Text
340
0
  0
ENDTAB
  0
ENDSEC
  0
SECTION
  2
BLOCKS
  0
BLOCK
  5
76
330
75
100
AcDbEntity
  8
0
100
AcDbBlockBegin
  2
*Model_Space
 70
     0
 10
0.0
 20
0.0
 30
0.0
  3
*Model_Space
  1

  0
ENDBLK
  5
77
330
75
100
AcDbEntity
  8
0
100
AcDbBlockEnd
  0
BLOCK
  5
72
330
71
100
AcDbEntity
 67
     1
  8
0
100
AcDbBlockBegin
  2
*Paper_Space
 70
     0
 10
0.0
 20
0.0
 30
0.0
  3
*Paper_Space
  1

  0
ENDBLK
  5
73
330
71
100
AcDbEntity
 67
     1
  8
0
100
AcDbBlockEnd
  0
BLOCK
  5
7A
330
79
100
AcDbEntity
 67
     1
  8
0
100
AcDbBlockBegin
  2
*Paper_Space0
 70
     0
 10
0.0
 20
0.0
 30
0.0
  3
*Paper_Space0
  1

  0
ENDBLK
  5
7B
330
79
100
AcDbEntity
 67
     1
  8
0
100
AcDbBlockEnd
  0
BLOCK
  5
DE
330
DB
100
AcDbEntity
  8
0
100
AcDbBlockBegin
  2
_Dot
 70
     0
 10
0.0
 20
0.0
 30
0.0
  3
_Dot
  1

  0
LWPOLYLINE
  5
DC
330
DB
100
AcDbEntity
  8
0
  6
ByBlock
 62
     0
100
AcDbPolyline
 90
        2
 70
     1
 43
0.5
 10
-0.25
 20
0.0
 42
1.0
 10
0.25
 20
0.0
 42
1.0
  0
LINE
  5
DD
330
DB
100
AcDbEntity
  8
0
  6
ByBlock
 62
     0
370
    -2
100
AcDbLine
 10
-0.5
 20
0.0
 30
0.0
 11
-1.0
 21
0.0
 31
0.0
  0
ENDBLK
  5
DF
330
DB
100
AcDbEntity
  8
0
100
AcDbBlockEnd
  0
BLOCK
  5
EA
330
E9
100
AcDbEntity
  8
0
100
AcDbBlockBegin
  2
Filled-1
 70
     0
 10
0.0
 20
0.0
 30
0.0
  3
Filled-1
  1

  0
LINE
  5
EC
330
E9
100
AcDbEntity
  8
0
 62
     0
100
AcDbLine
 10
-1.0
 20
0.0
 30
0.0
 11
0.0
 21
0.0
 31
0.0
  0
POLYLINE
  5
ED
330
E9
100
AcDbEntity
  8
0
 62
     0
100
AcDb2dPolyline
 66
     1
 10
0.0
 20
0.0
 30
0.0
 70
   128
  0
VERTEX
  5
EE
330
ED
100
AcDbEntity
  8
0
 62
     0
100
AcDbVertex
100
AcDb2dVertex
 10
-1.0
 20
-0.1
 30
0.0
  0
VERTEX
  5
EF
330
ED
100
AcDbEntity
  8
0
 62
     0
100
AcDbVertex
100
AcDb2dVertex
 10
0.0
 20
0.0
 30
0.0
  0
VERTEX
  5
F1
330
ED
100
AcDbEntity
  8
0
 62
     0
100
AcDbVertex
100
AcDb2dVertex
 10
-1.0
 20
0.1
 30
0.0
  0
VERTEX
  5
F2
330
ED
100
AcDbEntity
  8
0
 62
     0
100
AcDbVertex
100
AcDb2dVertex
 10
-1.0
 20
-0.1
 30
0.0
  0
SEQEND
  5
F0
330
ED
100
AcDbEntity
  8
0
 62
     0
  0
SOLID
  5
F3
330
E9
100
AcDbEntity
  8
0
 62
     0
100
AcDbTrace
 10
-1.0
 20
-0.1
 30
0.0
 11
0.0
 21
0.0
 31
0.0
 12
-1.0
 22
0.1
 32
0.0
 13
-1.0
 23
-0.1
 33
0.0
  0
LINE
  5
F4
330
E9
100
AcDbEntity
  8
0
 62
     0
100
AcDbLine
 10
-1.0
 20
-0.1
 30
0.0
 11
0.0
 21
0.0
 31
0.0
  0
LINE
  5
F5
330
E9
100
AcDbEntity
  8
0
 62
     0
100
AcDbLine
 10
0.0
 20
0.0
 30
0.0
 11
-1.0
 21
0.1
 31
0.0
  0
LINE
  5
F6
330
E9
100
AcDbEntity
  8
0
 62
     0
100
AcDbLine
 10
-1.0
 20
0.1
 30
0.0
 11
-1.0
 21
-0.1
 31
0.0
  0
ENDBLK
  5
EB
330
E9
100
AcDbEntity
  8
0
100
AcDbBlockEnd
  0
BLOCK
  5
FF
330
FA
100
AcDbEntity
  8
0
100
AcDbBlockBegin
  2
_Closed
 70
     0
 10
0.0
 20
0.0
 30
0.0
  3
_Closed
  1

  0
LINE
  5
FB
330
FA
100
AcDbEntity
  8
0
  6
ByBlock
 62
     0
370
    -2
100
AcDbLine
 10
-1.0
 20
0.1666666666666666
 30
0.0
 11
0.0
 21
0.0
 31
0.0
  0
LINE
  5
FC
330
FA
100
AcDbEntity
  8
0
  6
ByBlock
 62
     0
370
    -2
100
AcDbLine
 10
0.0
 20
0.0
 30
0.0
 11
-1.0
 21
-0.1666666666666666
 31
0.0
  0
LINE
  5
FD
330
FA
100
AcDbEntity
  8
0
  6
ByBlock
 62
     0
370
    -2
100
AcDbLine
 10
-1.0
 20
0.1666666666666666
 30
0.0
 11
-1.0
 21
-0.1666666666666666
 31
0.0
  0
LINE
  5
FE
330
FA
100
AcDbEntity
  8
0
  6
ByBlock
 62
     0
370
    -2
100
AcDbLine
 10
0.0
 20
0.0
 30
0.0
 11
-1.0
 21
0.0
 31
0.0
  0
ENDBLK
  5
100
330
FA
100
AcDbEntity
  8
0
100
AcDbBlockEnd
  0
BLOCK
  5
102
330
101
100
AcDbEntity
  8
0
100
AcDbBlockBegin
  2
DatumFilled45
 70
     0
 10
0.0
 20
0.0
 30
0.0
  3
DatumFilled45
  1

  0
POLYLINE
  5
104
330
101
100
AcDbEntity
  8
0
 62
     0
100
AcDb2dPolyline
 66
     1
 10
0.0
 20
0.0
 30
0.0
 70
   128
  0
VERTEX
  5
105
330
104
100
AcDbEntity
  8
0
 62
     0
100
AcDbVertex
100
AcDb2dVertex
 10
0.0
 20
1.0
 30
0.0
  0
VERTEX
  5
106
330
104
100
AcDbEntity
  8
0
 62
     0
100
AcDbVertex
100
AcDb2dVertex
 10
0.0
 20
-1.0
 30
0.0
  0
VERTEX
  5
108
330
104
100
AcDbEntity
  8
0
 62
     0
100
AcDbVertex
100
AcDb2dVertex
 10
-1.0
 20
0.0
 30
0.0
  0
VERTEX
  5
109
330
104
100
AcDbEntity
  8
0
 62
     0
100
AcDbVertex
100
AcDb2dVertex
 10
0.0
 20
1.0
 30
0.0
  0
SEQEND
  5
107
330
104
100
AcDbEntity
  8
0
 62
     0
  0
SOLID
  5
10A
330
101
100
AcDbEntity
  8
0
 62
     0
100
AcDbTrace
 10
0.0
 20
1.0
 30
0.0
 11
0.0
 21
-1.0
 31
0.0
 12
-1.0
 22
0.0
 32
0.0
 13
0.0
 23
1.0
 33
0.0
  0
ENDBLK
  5
103
330
101
100
AcDbEntity
  8
0
100
AcDbBlockEnd
  0
BLOCK
  5
110
330
10F
100
AcDbEntity
  8
0
100
AcDbBlockBegin
  2
Grat innen
 70
     2
 10
0.0
 20
0.0
 30
0.0
  3
Grat innen
  1

  0
LINE
  5
112
102
{ACAD_REACTORS
330
115
102
}
330
10F
100
AcDbEntity
  8
0
100
AcDbLine
 10
0.0
 20
0.0
 30
0.0
 11
2.241438680420131
 21
1.294095225512617
 31
0.0
  0
LINE
  5
113
102
{ACAD_REACTORS
330
115
102
}
330
10F
100
AcDbEntity
  8
0
100
AcDbLine
 10
1.294095225512563
 20
2.241438680420149
 30
0.0
 11
0.0
 21
0.0
 31
0.0
  0
LINE
  5
114
102
{ACAD_REACTORS
330
115
102
}
330
10F
100
AcDbEntity
  8
0
100
AcDbLine
 10
2.241438680420131
 20
1.294095225512617
 30
0.0
 11
1.294095225512563
 21
2.241438680420149
 31
0.0
  0
HATCH
  5
115
330
10F
100
AcDbEntity
  8
Schraffur MD
100
AcDbHatch
 10
0.0
 20
0.0
 30
0.0
210
0.0
220
0.0
230
1.0
  2
SOLID
 70
     1
 71
     1
 91
        1
 92
        1
 93
        3
 72
     1
 10
0.0
 20
0.0
 11
2.241438680420131
 21
1.294095225512617
 72
     1
 10
2.241438680420131
 20
1.294095225512617
 11
1.294095225512563
 21
2.241438680420149
 72
     1
 10
1.294095225512563
 20
2.241438680420149
 11
0.0
 21
0.0
 97
        3
330
112
330
114
330
113
 75
     0
 76
     1
 98
        1
 10
0.0
 20
0.0
450
        0
451
        0
460
0.0
461
0.0
452
        0
462
0.0
453
        0
470

  0
LINE
  5
116
330
10F
100
AcDbEntity
  8
Skizziergeometrie MD
100
AcDbLine
 10
5.0
 20
10.00000000000001
 30
0.0
 11
4.999999999999964
 21
5.000000000000017
 31
0.0
  0
LINE
  5
117
330
10F
100
AcDbEntity
  8
Skizziergeometrie MD
100
AcDbLine
 10
4.999999999999964
 20
5.000000000000017
 30
0.0
 11
9.999999999999964
 21
5.0
 31
0.0
  0
LINE
  5
118
330
10F
100
AcDbEntity
  8
Skizziergeometrie MD
100
AcDbLine
 10
4.999999999999964
 20
5.000000000000017
 30
0.0
 11
0.0
 21
0.0
 31
0.0
  0
LINE
  5
119
330
10F
100
AcDbEntity
  8
Skizziergeometrie MD
100
AcDbLine
 10
0.0
 20
0.0
 30
0.0
 11
4.999999999999964
 21
0.0
 31
0.0
  0
LINE
  5
11A
330
10F
100
AcDbEntity
  8
Skizziergeometrie MD
100
AcDbLine
 10
0.0
 20
0.0
 30
0.0
 11
0.0
 21
5.0
 31
0.0
  0
LINE
  5
11B
330
10F
100
AcDbEntity
  8
Skizziergeometrie MD
100
AcDbLine
 10
0.0
 20
0.0
 30
0.0
 11
1.294095225512563
 21
2.241438680420149
 31
0.0
  0
LINE
  5
11C
330
10F
100
AcDbEntity
  8
Skizziergeometrie MD
100
AcDbLine
 10
1.294095225512563
 20
2.241438680420149
 30
0.0
 11
2.241438680420131
 21
1.294095225512617
 31
0.0
  0
LINE
  5
11D
330
10F
100
AcDbEntity
  8
Skizziergeometrie MD
100
AcDbLine
 10
2.241438680420131
 20
1.294095225512617
 30
0.0
 11
0.0
 21
0.0
 31
0.0
  0
ATTDEF
  5
11E
330
10F
100
AcDbEntity
  8
Symbol MD
100
AcDbText
 10
5.999999999999978
 20
5.750000029802322
 30
0.0
 40
3.499999940395355
  1
 
  7
Notiztext MD
 11
5.999999999999978
 21
7.5
 31
0.0
100
AcDbAttributeDefinition
  3
Kantenbruch
  2
Kantenbruch
 70
     0
 74
     2
  0
ENDBLK
  5
111
330
10F
100
AcDbEntity
  8
0
100
AcDbBlockEnd
  0
BLOCK
  5
121
330
120
100
AcDbEntity
  8
0
100
AcDbBlockBegin
  2
Grat aussen
 70
     2
 10
0.0
 20
0.0
 30
0.0
  3
Grat aussen
  1

  0
LINE
  5
123
102
{ACAD_REACTORS
330
126
102
}
330
120
100
AcDbEntity
  8
0
100
AcDbLine
 10
0.0
 20
0.0
 30
0.0
 11
2.241438680420131
 21
1.294095225512599
 31
0.0
  0
LINE
  5
124
102
{ACAD_REACTORS
330
126
102
}
330
120
100
AcDbEntity
  8
0
100
AcDbLine
 10
1.294095225512599
 20
2.241438680420149
 30
0.0
 11
0.0
 21
0.0
 31
0.0
  0
LINE
  5
125
102
{ACAD_REACTORS
330
126
102
}
330
120
100
AcDbEntity
  8
0
100
AcDbLine
 10
2.241438680420131
 20
1.294095225512599
 30
0.0
 11
1.294095225512599
 21
2.241438680420149
 31
0.0
  0
HATCH
  5
126
330
120
100
AcDbEntity
  8
Schraffur MD
100
AcDbHatch
 10
0.0
 20
0.0
 30
0.0
210
0.0
220
0.0
230
1.0
  2
SOLID
 70
     1
 71
     1
 91
        1
 92
        1
 93
        3
 72
     1
 10
0.0
 20
0.0
 11
2.241438680420131
 21
1.294095225512599
 72
     1
 10
2.241438680420131
 20
1.294095225512599
 11
1.294095225512599
 21
2.241438680420149
 72
     1
 10
1.294095225512599
 20
2.241438680420149
 11
0.0
 21
0.0
 97
        3
330
123
330
125
330
124
 75
     0
 76
     1
 98
        1
 10
0.0
 20
0.0
450
        0
451
        0
460
0.0
461
0.0
452
        0
462
0.0
453
        0
470

  0
LINE
  5
127
330
120
100
AcDbEntity
  8
Skizziergeometrie MD
100
AcDbLine
 10
5.0
 20
10.0
 30
0.0
 11
5.0
 21
5.0
 31
0.0
  0
LINE
  5
128
330
120
100
AcDbEntity
  8
Skizziergeometrie MD
100
AcDbLine
 10
5.0
 20
5.0
 30
0.0
 11
10.0
 21
5.0
 31
0.0
  0
LINE
  5
129
330
120
100
AcDbEntity
  8
Skizziergeometrie MD
100
AcDbLine
 10
5.0
 20
5.0
 30
0.0
 11
0.0
 21
0.0
 31
0.0
  0
LINE
  5
12A
330
120
100
AcDbEntity
  8
Skizziergeometrie MD
100
AcDbLine
 10
0.0
 20
0.0
 30
0.0
 11
1.294095225512599
 21
2.241438680420149
 31
0.0
  0
LINE
  5
12B
330
120
100
AcDbEntity
  8
Skizziergeometrie MD
100
AcDbLine
 10
1.294095225512599
 20
2.241438680420149
 30
0.0
 11
2.241438680420131
 21
1.294095225512599
 31
0.0
  0
LINE
  5
12C
330
120
100
AcDbEntity
  8
Skizziergeometrie MD
100
AcDbLine
 10
2.241438680420131
 20
1.294095225512599
 30
0.0
 11
0.0
 21
0.0
 31
0.0
  0
LINE
  5
12D
330
120
100
AcDbEntity
  8
Skizziergeometrie MD
100
AcDbLine
 10
0.0
 20
0.0
 30
0.0
 11
0.0
 21
-5.000000000000017
 31
0.0
  0
LINE
  5
12E
330
120
100
AcDbEntity
  8
Skizziergeometrie MD
100
AcDbLine
 10
0.0
 20
0.0
 30
0.0
 11
-4.999999999999964
 21
0.0
 31
0.0
  0
ATTDEF
  5
12F
330
120
100
AcDbEntity
  8
Symbol MD
100
AcDbText
 10
6.000000000000014
 20
5.750000029802322
 30
0.0
 40
3.499999940395355
  1
 
  7
Notiztext MD
 11
6.000000000000014
 21
7.5
 31
0.0
100
AcDbAttributeDefinition
  3
Kantenbruch
  2
Kantenbruch
 70
     0
 74
     2
  0
ENDBLK
  5
122
330
120
100
AcDbEntity
  8
0
100
AcDbBlockEnd
  0
BLOCK
  5
131
330
130
100
AcDbEntity
  8
0
100
AcDbBlockBegin
  2
Änderungszustand
 70
     2
 10
0.0
 20
0.0
 30
0.0
  3
Änderungszustand
  1

  0
CIRCLE
  5
133
330
130
100
AcDbEntity
  8
Skizziergeometrie MD
100
AcDbCircle
 10
0.0
 20
0.0
 30
0.0
 40
3.0
  0
ATTDEF
  5
134
330
130
100
AcDbEntity
  8
Symbol MD
100
AcDbText
 10
-0.900000035762787
 20
-1.500000059604644
 30
0.0
 40
3.000000119209289
  1
 
  7
Notiztext MD
 72
     1
 11
0.0
 21
0.0
 31
0.0
100
AcDbAttributeDefinition
  3
Zust.
  2
Zust.
 70
     0
 74
     2
  0
ENDBLK
  5
132
330
130
100
AcDbEntity
  8
0
100
AcDbBlockEnd
  0
BLOCK
  5
136
330
135
100
AcDbEntity
  8
0
100
AcDbBlockBegin
  2
Oberflächenzeichen 2
 70
     2
 10
0.0
 20
0.0
 30
0.0
  3
Oberflächenzeichen 2
  1

  0
LINE
  5
138
330
135
100
AcDbEntity
  8
Skizziergeometrie MD
100
AcDbLine
 10
-14.94337572297407
 20
-0.5000000000000249
 30
0.0
 11
-12.05662437702592
 21
-5.500000000000024
 31
0.0
  0
LINE
  5
139
330
135
100
AcDbEntity
  8
Skizziergeometrie MD
100
AcDbLine
 10
-12.05662437702592
 20
-5.500000000000024
 30
0.0
 11
-5.705771415940041
 21
5.499999999999989
 31
0.0
  0
LINE
  5
13A
330
135
100
AcDbEntity
  8
Skizziergeometrie MD
100
AcDbLine
 10
-14.94337572297407
 20
-0.5000000000000249
 30
0.0
 11
-9.169873031077777
 21
-0.5000000000000249
 31
0.0
  0
LINE
  5
13B
330
135
100
AcDbEntity
  8
Skizziergeometrie MD
100
AcDbLine
 10
2.056624277025953
 20
-0.5000000000000071
 30
0.0
 11
4.943375622974066
 21
-5.500000000000007
 31
0.0
  0
LINE
  5
13C
330
135
100
AcDbEntity
  8
Skizziergeometrie MD
100
AcDbLine
 10
4.943375622974066
 20
-5.500000000000007
 30
0.0
 11
11.29422858405991
 21
5.499999999999989
 31
0.0
  0
LINE
  5
13D
330
135
100
AcDbEntity
  8
Skizziergeometrie MD
100
AcDbLine
 10
2.056624277025953
 20
-0.5000000000000071
 30
0.0
 11
7.830126968922179
 21
-0.5000000000000071
 31
0.0
  0
ARC
  5
13E
330
135
100
AcDbEntity
  8
Skizziergeometrie MD
100
AcDbCircle
 10
12.94337562297407
 20
-0.5000000000000071
 30
0.0
 40
15.0
100
AcDbArc
 50
152.1818607153459
 51
203.5781784782017
  0
ARC
  5
13F
330
135
100
AcDbEntity
  8
Skizziergeometrie MD
100
AcDbCircle
 10
-0.0566243770259334
 20
-0.5000000000000071
 30
0.0
 40
15.0
100
AcDbArc
 50
336.4218215217982
 51
27.81813928465404
  0
ATTDEF
  5
140
330
135
100
AcDbEntity
  8
Symbol MD
100
AcDbText
 10
-13.60662435914457
 20
1.059469687441956
 30
0.0
 40
3.499999940395355
  1
 
  7
Notiztext MD
 72
     1
 11
-12.55662437702597
 21
0.4999999999999716
 31
0.0
100
AcDbAttributeDefinition
  3
Ra1
  2
Ra1
 70
     0
 74
     1
  0
ATTDEF
  5
141
330
135
100
AcDbEntity
  8
Symbol MD
100
AcDbText
 10
3.393375640855417
 20
1.059469687441974
 30
0.0
 40
3.499999940395355
  1
 
  7
Notiztext MD
 72
     1
 11
4.443375622974023
 21
0.4999999999999894
 31
0.0
100
AcDbAttributeDefinition
  3
Ra2
  2
Ra2
 70
     0
 74
     1
  0
ENDBLK
  5
137
330
135
100
AcDbEntity
  8
0
100
AcDbBlockEnd
  0
BLOCK
  5
143
330
142
100
AcDbEntity
  8
0
100
AcDbBlockBegin
  2
Anzugsmoment ETL
 70
     2
 10
0.0
 20
0.0
 30
0.0
  3
Anzugsmoment ETL
  1

  0
ARC
  5
145
330
142
100
AcDbEntity
  8
0
100
AcDbCircle
 10
-8.067241495370964
 20
7.761185629375244
 30
10.0
 40
8.0
100
AcDbArc
 50
206.7900431357171
 51
243.2099568642831
  0
LINE
  5
146
330
142
100
AcDbEntity
  8
0
100
AcDbLine
 10
-11.72289373816419
 20
7.641067292514742
 30
10.0
 11
-15.20855476338849
 21
4.155406267290437
 31
10.0
  0
ARC
  5
147
330
142
100
AcDbEntity
  8
0
100
AcDbCircle
 10
-13.01698896367678
 20
2.811438161069399
 30
10.0
 40
5.0
100
AcDbArc
 50
75.00000000000015
 51
201.4218215217981
  0
LINE
  5
148
330
142
100
AcDbEntity
  8
0
100
AcDbLine
 10
-23.32842712474619
 20
-4.671572875253815
 30
10.0
 11
-17.67157287525381
 21
0.9852813742385668
 31
10.0
  0
SPLINE
  5
149
330
142
100
AcDbEntity
  8
0
100
AcDbSpline
210
0.0
220
0.0
230
1.0
 70
     8
 71
     4
 72
    10
 73
     5
 74
     0
 42
0.0000000001
 43
0.0000000001
 40
0.0
 40
0.0
 40
0.0
 40
0.0
 40
0.0
 40
1.0
 40
1.0
 40
1.0
 40
1.0
 40
1.0
 10
-21.0
 20
-7.5
 30
0.0
 10
-23.19816008584298
 20
-7.581634167808539
 30
0.0
 10
-21.48906400988701
 20
-5.959245037442513
 30
0.0
 10
-23.42434771230436
 20
-5.53840989576579
 30
0.0
 10
-23.32842712474624
 20
-4.671572875253802
 30
0.0
  0
LINE
  5
14A
330
142
100
AcDbEntity
  8
0
100
AcDbLine
 10
-20.5
 20
-7.5
 30
10.0
 11
-21.0
 21
-7.5
 31
10.0
  0
LINE
  5
14B
330
142
100
AcDbEntity
  8
0
100
AcDbLine
 10
-14.84314575050762
 20
-1.843145750507622
 30
10.0
 11
-20.5
 21
-7.5
 31
10.0
  0
ARC
  5
14C
330
142
100
AcDbEntity
  8
0
100
AcDbCircle
 10
-13.01698896367679
 20
2.811438161069403
 30
10.0
 40
5.0
100
AcDbArc
 50
248.578178478202
 51
14.99999999999995
  0
LINE
  5
14D
330
142
100
AcDbEntity
  8
0
100
AcDbLine
 10
-11.67302085745575
 20
0.6198723613577029
 30
10.0
 11
-8.187359832231457
 21
4.105533386582003
 31
10.0
  0
HATCH
  5
14E
330
142
100
AcDbEntity
  8
Schraffur MD
100
AcDbHatch
 10
0.0
 20
0.0
 30
0.0
210
0.0
220
0.0
230
1.0
  2
SOLID
 70
     1
 71
     1
 91
        0
 75
     0
 76
     1
 98
        1
 10
0.0
 20
0.0
450
        0
451
        0
460
0.0
461
0.0
452
        0
462
0.0
453
        0
470

  0
LINE
  5
14F
330
142
100
AcDbEntity
  8
Skizziergeometrie MD
100
AcDbLine
 10
-11.72289373816419
 20
7.641067292514742
 30
0.0
 11
-15.20855476338849
 21
4.155406267290437
 31
0.0
  0
LINE
  5
150
330
142
100
AcDbEntity
  8
Skizziergeometrie MD
100
AcDbLine
 10
-11.67302085745575
 20
0.6198723613577029
 30
0.0
 11
-8.187359832231457
 21
4.105533386582003
 31
0.0
  0
ARC
  5
151
330
142
100
AcDbEntity
  8
Skizziergeometrie MD
100
AcDbCircle
 10
-13.01698896367678
 20
2.811438161069399
 30
0.0
 40
5.0
100
AcDbArc
 50
75.00000000000015
 51
201.4218215217981
  0
ARC
  5
152
330
142
100
AcDbEntity
  8
Skizziergeometrie MD
100
AcDbCircle
 10
-13.01698896367679
 20
2.811438161069403
 30
0.0
 40
5.0
100
AcDbArc
 50
248.578178478202
 51
14.99999999999995
  0
LINE
  5
153
330
142
100
AcDbEntity
  8
Skizziergeometrie MD
100
AcDbLine
 10
-17.67157287525381
 20
0.9852813742385668
 30
0.0
 11
-23.32842712474619
 21
-4.671572875253815
 31
0.0
  0
LINE
  5
154
330
142
100
AcDbEntity
  8
Skizziergeometrie MD
100
AcDbLine
 10
-14.84314575050762
 20
-1.843145750507622
 30
0.0
 11
-20.5
 21
-7.5
 31
0.0
  0
ARC
  5
155
330
142
100
AcDbEntity
  8
Skizziergeometrie MD
100
AcDbCircle
 10
-8.067241495370964
 20
7.761185629375244
 30
0.0
 40
8.0
100
AcDbArc
 50
206.7900431357171
 51
243.2099568642831
  0
LINE
  5
156
330
142
100
AcDbEntity
  8
Skizziergeometrie MD
100
AcDbLine
 10
-20.5
 20
-7.5
 30
0.0
 11
-21.0
 21
-7.5
 31
0.0
  0
SPLINE
  5
157
330
142
100
AcDbEntity
  8
Skizziergeometrie MD
100
AcDbSpline
210
0.0
220
0.0
230
1.0
 70
     8
 71
     4
 72
    10
 73
     5
 74
     0
 42
0.0000000001
 43
0.0000000001
 40
0.0
 40
0.0
 40
0.0
 40
0.0
 40
0.0
 40
1.0
 40
1.0
 40
1.0
 40
1.0
 40
1.0
 10
-23.32842712474624
 20
-4.671572875253802
 30
0.0
 10
-23.42434771230436
 20
-5.53840989576579
 30
0.0
 10
-21.48906400988701
 20
-5.959245037442513
 30
0.0
 10
-23.19816008584298
 20
-7.581634167808539
 30
0.0
 10
-21.0
 20
-7.5
 30
0.0
  0
LINE
  5
158
330
142
100
AcDbEntity
  8
Skizziergeometrie MD
100
AcDbLine
 10
-21.5
 20
10.0
 30
0.0
 11
21.5
 21
10.0
 31
0.0
  0
LINE
  5
159
330
142
100
AcDbEntity
  8
Skizziergeometrie MD
100
AcDbLine
 10
26.5
 20
5.000000000000004
 30
0.0
 11
26.5
 21
-4.999999999999995
 31
0.0
  0
LINE
  5
15A
330
142
100
AcDbEntity
  8
Skizziergeometrie MD
100
AcDbLine
 10
21.5
 20
-9.999999999999996
 30
0.0
 11
-21.5
 21
-10.0
 31
0.0
  0
LINE
  5
15B
330
142
100
AcDbEntity
  8
Skizziergeometrie MD
100
AcDbLine
 10
-26.5
 20
-5.0
 30
0.0
 11
-26.5
 21
5.000000000000004
 31
0.0
  0
ARC
  5
15C
330
142
100
AcDbEntity
  8
Skizziergeometrie MD
100
AcDbCircle
 10
-21.5
 20
-5.0
 30
0.0
 40
5.0
100
AcDbArc
 50
180.0
 51
270.0
  0
ARC
  5
15D
330
142
100
AcDbEntity
  8
Skizziergeometrie MD
100
AcDbCircle
 10
-21.5
 20
5.000000000000004
 30
0.0
 40
5.0
100
AcDbArc
 50
90.0
 51
180.0
  0
ARC
  5
15E
330
142
100
AcDbEntity
  8
Skizziergeometrie MD
100
AcDbCircle
 10
21.5
 20
5.000000000000004
 30
0.0
 40
5.0
100
AcDbArc
 50
0.0
 51
90.0
  0
ARC
  5
15F
330
142
100
AcDbEntity
  8
Skizziergeometrie MD
100
AcDbCircle
 10
21.5
 20
-4.999999999999995
 30
0.0
 40
5.0
100
AcDbArc
 50
270.0
 51
0.0
  0
ATTDEF
  5
160
330
142
100
AcDbEntity
  8
Symbol MD
100
AcDbText
 10
5.300000071525566
 20
-3.999999999999999
 30
0.0
 40
6.99999988079071
  1
 
  7
Notiztext MD
 72
     2
 11
9.499999999999992
 21
-3.999999999999999
 31
0.0
100
AcDbAttributeDefinition
  3
Anzugsmoment
  2
Anzugsmoment
 70
     0
  0
MTEXT
  5
161
330
142
100
AcDbEntity
  8
Symbol MD
100
AcDbMText
 10
11.49999999999999
 20
-3.999999999999999
 30
0.0
 40
6.99999988079071
 41
0.0
 71
     7
 72
     1
  1
\fISOCPEUR|b0|i0;\H7.0000;Nm
  7
Notiztext MD
 73
     1
 44
1.0
  0
ENDBLK
  5
144
330
142
100
AcDbEntity
  8
0
100
AcDbBlockEnd
  0
BLOCK
  5
164
330
163
100
AcDbEntity
  8
0
100
AcDbBlockBegin
  2
Anzugsmoment + Loctite ETL
 70
     2
 10
0.0
 20
0.0
 30
0.0
  3
Anzugsmoment + Loctite ETL
  1

  0
ARC
  5
166
330
163
100
AcDbEntity
  8
0
100
AcDbCircle
 10
-7.067241495370941
 20
13.26118562937524
 30
10.0
 40
7.999999999999999
100
AcDbArc
 50
206.7900431357169
 51
243.209956864283
  0
LINE
  5
167
330
163
100
AcDbEntity
  8
0
100
AcDbLine
 10
-10.72289373816417
 20
13.14106729251475
 30
10.0
 11
-14.20855476338848
 21
9.655406267290445
 31
10.0
  0
ARC
  5
168
330
163
100
AcDbEntity
  8
0
100
AcDbCircle
 10
-12.01698896367677
 20
8.311438161069411
 30
10.0
 40
5.0
100
AcDbArc
 50
75.00000000000006
 51
201.4218215217982
  0
LINE
  5
169
330
163
100
AcDbEntity
  8
0
100
AcDbLine
 10
-22.32842712474618
 20
0.828427124746196
 30
10.0
 11
-16.6715728752538
 21
6.485281374238573
 31
10.0
  0
SPLINE
  5
16A
330
163
100
AcDbEntity
  8
0
100
AcDbSpline
210
0.0
220
0.0
230
1.0
 70
     8
 71
     4
 72
    10
 73
     5
 74
     0
 42
0.0000000001
 43
0.0000000001
 40
0.0
 40
0.0
 40
0.0
 40
0.0
 40
0.0
 40
1.0
 40
1.0
 40
1.0
 40
1.0
 40
1.0
 10
-19.99999999999999
 20
-1.999999999999992
 30
0.0
 10
-21.87276106278832
 20
-2.024786037571097
 30
0.0
 10
-20.95752187547255
 20
0.0169237994764604
 30
0.0
 10
-22.20489372818392
 20
-0.0672967625293852
 30
0.0
 10
-22.32842712474616
 20
0.8284271247462138
 30
0.0
  0
LINE
  5
16B
330
163
100
AcDbEntity
  8
0
100
AcDbLine
 10
-19.49999999999999
 20
-1.999999999999997
 30
10.0
 11
-19.99999999999999
 21
-1.999999999999997
 31
10.0
  0
LINE
  5
16C
330
163
100
AcDbEntity
  8
0
100
AcDbLine
 10
-13.8431457505076
 20
3.656854249492385
 30
10.0
 11
-19.49999999999999
 21
-1.999999999999997
 31
10.0
  0
ARC
  5
16D
330
163
100
AcDbEntity
  8
0
100
AcDbCircle
 10
-12.01698896367677
 20
8.311438161069411
 30
10.0
 40
5.0
100
AcDbArc
 50
248.5781784782019
 51
15.00000000000003
  0
LINE
  5
16E
330
163
100
AcDbEntity
  8
0
100
AcDbLine
 10
-10.67302085745574
 20
6.119872361357705
 30
10.0
 11
-7.187359832231434
 21
9.605533386582013
 31
10.0
  0
HATCH
  5
16F
330
163
100
AcDbEntity
  8
Schraffur MD
100
AcDbHatch
 10
0.0
 20
0.0
 30
0.0
210
0.0
220
0.0
230
1.0
  2
SOLID
 70
     1
 71
     1
 91
        0
 75
     0
 76
     1
 98
        1
 10
0.0
 20
0.0
450
        0
451
        0
460
0.0
461
0.0
452
        0
462
0.0
453
        0
470

  0
LINE
  5
170
330
163
100
AcDbEntity
  8
Skizziergeometrie MD
100
AcDbLine
 10
-10.72289373816417
 20
13.14106729251475
 30
0.0
 11
-14.20855476338848
 21
9.655406267290445
 31
0.0
  0
LINE
  5
171
330
163
100
AcDbEntity
  8
Skizziergeometrie MD
100
AcDbLine
 10
-10.67302085745574
 20
6.119872361357705
 30
0.0
 11
-7.187359832231434
 21
9.605533386582013
 31
0.0
  0
ARC
  5
172
330
163
100
AcDbEntity
  8
Skizziergeometrie MD
100
AcDbCircle
 10
-12.01698896367677
 20
8.311438161069411
 30
0.0
 40
5.0
100
AcDbArc
 50
75.00000000000006
 51
201.4218215217981
  0
ARC
  5
173
330
163
100
AcDbEntity
  8
Skizziergeometrie MD
100
AcDbCircle
 10
-12.01698896367677
 20
8.311438161069411
 30
0.0
 40
5.0
100
AcDbArc
 50
248.5781784782019
 51
14.99999999999995
  0
LINE
  5
174
330
163
100
AcDbEntity
  8
Skizziergeometrie MD
100
AcDbLine
 10
-16.6715728752538
 20
6.485281374238573
 30
0.0
 11
-22.32842712474618
 21
0.828427124746196
 31
0.0
  0
LINE
  5
175
330
163
100
AcDbEntity
  8
Skizziergeometrie MD
100
AcDbLine
 10
-13.8431457505076
 20
3.656854249492385
 30
0.0
 11
-19.49999999999999
 21
-1.999999999999997
 31
0.0
  0
ARC
  5
176
330
163
100
AcDbEntity
  8
Skizziergeometrie MD
100
AcDbCircle
 10
-7.067241495370941
 20
13.26118562937524
 30
0.0
 40
8.0
100
AcDbArc
 50
206.7900431357169
 51
243.209956864283
  0
LINE
  5
177
330
163
100
AcDbEntity
  8
Skizziergeometrie MD
100
AcDbLine
 10
-19.49999999999999
 20
-1.999999999999997
 30
0.0
 11
-19.99999999999999
 21
-1.999999999999997
 31
0.0
  0
SPLINE
  5
178
330
163
100
AcDbEntity
  8
Skizziergeometrie MD
100
AcDbSpline
210
0.0
220
0.0
230
1.0
 70
     8
 71
     4
 72
    10
 73
     5
 74
     0
 42
0.0000000001
 43
0.0000000001
 40
0.0
 40
0.0
 40
0.0
 40
0.0
 40
0.0
 40
1.0
 40
1.0
 40
1.0
 40
1.0
 40
1.0
 10
-22.32842712474616
 20
0.8284271247462138
 30
0.0
 10
-22.20489372818392
 20
-0.0672967625293852
 30
0.0
 10
-20.95752187547255
 20
0.0169237994764604
 30
0.0
 10
-21.87276106278832
 20
-2.024786037571097
 30
0.0
 10
-19.99999999999999
 20
-1.999999999999992
 30
0.0
  0
LINE
  5
179
330
163
100
AcDbEntity
  8
Skizziergeometrie MD
100
AcDbLine
 10
-21.5
 20
16.0
 30
0.0
 11
21.5
 21
16.0
 31
0.0
  0
LINE
  5
17A
330
163
100
AcDbEntity
  8
Skizziergeometrie MD
100
AcDbLine
 10
26.5
 20
11.0
 30
0.0
 11
26.5
 21
-11.0
 31
0.0
  0
LINE
  5
17B
330
163
100
AcDbEntity
  8
Skizziergeometrie MD
100
AcDbLine
 10
21.5
 20
-16.00000000000001
 30
0.0
 11
-21.5
 21
-16.00000000000001
 31
0.0
  0
LINE
  5
17C
330
163
100
AcDbEntity
  8
Skizziergeometrie MD
100
AcDbLine
 10
-26.5
 20
-11.0
 30
0.0
 11
-26.5
 21
11.0
 31
0.0
  0
ARC
  5
17D
330
163
100
AcDbEntity
  8
Skizziergeometrie MD
100
AcDbCircle
 10
-21.5
 20
-11.0
 30
0.0
 40
5.0
100
AcDbArc
 50
180.0
 51
270.0
  0
ARC
  5
17E
330
163
100
AcDbEntity
  8
Skizziergeometrie MD
100
AcDbCircle
 10
-21.5
 20
11.0
 30
0.0
 40
5.0
100
AcDbArc
 50
90.0
 51
180.0
  0
ARC
  5
17F
330
163
100
AcDbEntity
  8
Skizziergeometrie MD
100
AcDbCircle
 10
21.5
 20
11.0
 30
0.0
 40
5.0
100
AcDbArc
 50
0.0
 51
90.0
  0
ARC
  5
180
330
163
100
AcDbEntity
  8
Skizziergeometrie MD
100
AcDbCircle
 10
21.5
 20
-11.0
 30
0.0
 40
5.0
100
AcDbArc
 50
270.0
 51
0.0
  0
ATTDEF
  5
181
330
163
100
AcDbEntity
  8
Symbol MD
100
AcDbText
 10
6.30000007152558
 20
1.000000000000005
 30
0.0
 40
6.99999988079071
  1
 
  7
Notiztext MD
 72
     2
 11
10.5
 21
1.000000000000005
 31
0.0
100
AcDbAttributeDefinition
  3
Anzugsmoment
  2
Anzugsmoment
 70
     0
  0
MTEXT
  5
182
330
163
100
AcDbEntity
  8
Symbol MD
100
AcDbMText
 10
11.50000000000001
 20
1.000000000000005
 30
0.0
 40
6.99999988079071
 41
0.0
 71
     7
 72
     1
  1
\fISOCPEUR|b0|i0;\H7.0000;Nm
  7
Notiztext MD
 73
     1
 44
1.0
  0
ATTDEF
  5
183
330
163
100
AcDbEntity
  8
Symbol MD
100
AcDbText
 10
6.499999999999994
 20
-11.00000023841857
 30
0.0
 40
6.000000238418579
  1
 
  7
Notiztext MD
 11
6.499999999999994
 21
-4.999999999999995
 31
0.0
100
AcDbAttributeDefinition
  3
Loctite
  2
Loctite
 70
     0
 74
     3
  0
MTEXT
  5
184
330
163
100
AcDbEntity
  8
Symbol MD
100
AcDbMText
 10
-23.5
 20
-4.999999999999995
 30
0.0
 40
6.000000238418579
 41
0.0
 71
     1
 72
     1
  1
\fISOCPEUR|b0|i0;\H6.0000;Loctite
  7
Notiztext MD
 73
     1
 44
1.0
  0
ENDBLK
  5
165
330
163
100
AcDbEntity
  8
0
100
AcDbBlockEnd
  0
BLOCK
  5
186
330
185
100
AcDbEntity
  8
0
100
AcDbBlockBegin
  2
Loctite ETL
 70
     2
 10
0.0
 20
0.0
 30
0.0
  3
Loctite ETL
  1

  0
LINE
  5
188
330
185
100
AcDbEntity
  8
Skizziergeometrie MD
100
AcDbLine
 10
-24.50000000000001
 20
5.999999999999996
 30
0.0
 11
24.50000000000001
 21
6.000000000000014
 31
0.0
  0
LINE
  5
189
330
185
100
AcDbEntity
  8
Skizziergeometrie MD
100
AcDbLine
 10
26.5
 20
4.000000000000021
 30
0.0
 11
26.5
 21
-4.000000000000003
 31
0.0
  0
LINE
  5
18A
330
185
100
AcDbEntity
  8
Skizziergeometrie MD
100
AcDbLine
 10
24.50000000000001
 20
-5.999999999999996
 30
0.0
 11
-24.50000000000001
 21
-5.999999999999996
 31
0.0
  0
LINE
  5
18B
330
185
100
AcDbEntity
  8
Skizziergeometrie MD
100
AcDbLine
 10
-26.50000000000002
 20
-4.000000000000003
 30
0.0
 11
-26.5
 21
4.000000000000021
 31
0.0
  0
ARC
  5
18C
330
185
100
AcDbEntity
  8
Skizziergeometrie MD
100
AcDbCircle
 10
-24.50000000000001
 20
4.000000000000021
 30
0.0
 40
1.999999999999984
100
AcDbArc
 50
90.0
 51
180.0
  0
ARC
  5
18D
330
185
100
AcDbEntity
  8
Skizziergeometrie MD
100
AcDbCircle
 10
-24.50000000000001
 20
-4.000000000000003
 30
0.0
 40
1.999999999999992
100
AcDbArc
 50
180.0
 51
270.0
  0
ARC
  5
18E
330
185
100
AcDbEntity
  8
Skizziergeometrie MD
100
AcDbCircle
 10
24.50000000000001
 20
-4.000000000000003
 30
0.0
 40
1.999999999999992
100
AcDbArc
 50
270.0
 51
0.0
  0
ARC
  5
18F
330
185
100
AcDbEntity
  8
Skizziergeometrie MD
100
AcDbCircle
 10
24.50000000000001
 20
4.000000000000021
 30
0.0
 40
1.999999999999992
100
AcDbArc
 50
0.0
 51
90.0
  0
MTEXT
  5
190
330
185
100
AcDbEntity
  8
Symbol MD
100
AcDbMText
 10
-23.50000000000001
 20
3.000000000000007
 30
0.0
 40
6.000000238418579
 41
0.0
 71
     1
 72
     1
  1
\fISOCPEUR|b0|i0;\H6.0000;Loctite
  7
Notiztext MD
 73
     1
 44
1.0
  0
ATTDEF
  5
191
330
185
100
AcDbEntity
  8
Symbol MD
100
AcDbText
 10
6.499999999999985
 20
-3.000000238418571
 30
0.0
 40
6.000000238418579
  1
 
  7
Notiztext MD
 11
6.499999999999985
 21
3.000000000000007
 31
0.0
100
AcDbAttributeDefinition
  3
Type
  2
Type
 70
     0
 74
     3
  0
ENDBLK
  5
187
330
185
100
AcDbEntity
  8
0
100
AcDbBlockEnd
  0
BLOCK
  5
193
330
192
100
AcDbEntity
  8
0
100
AcDbBlockBegin
  2
Text
 70
     2
 10
0.0
 20
0.0
 30
0.0
  3
Text
  1

  0
ATTDEF
  5
195
330
192
100
AcDbEntity
  8
Symbol MD
100
AcDbText
 10
-11.71753168106079
 20
-1.225649341940879
 30
0.0
 40
3.499999940395355
  1
 
  7
Notiztext MD
 11
-11.71753168106079
 21
2.274350598454475
 31
0.0
100
AcDbAttributeDefinition
  3
Text
  2
Text
 70
     0
 74
     3
  0
ENDBLK
  5
194
330
192
100
AcDbEntity
  8
0
100
AcDbBlockEnd
  0
ENDSEC
  0
SECTION
  2
ENTITIES
  0
LINE
  5
196
330
75
100
AcDbEntity
  8
Sichtbar MD
100
AcDbLine
 10
87.89023092810655
 20
117.021252711
 30
0.0
 11
87.89023092810655
 21
122.4064175181345
 31
0.0
  0
POLYLINE
  5
197
330
75
100
AcDbEntity
  8
Sichtbar MD
100
AcDb2dPolyline
 66
     1
 10
0.0
 20
0.0
 30
0.0
 70
   128
  0
VERTEX
  5
198
330
197
100
AcDbEntity
  8
Sichtbar MD
100
AcDbVertex
100
AcDb2dVertex
 10
87.39022997443223
 20
123.5868185702252
 30
0.0
  0
VERTEX
  5
199
330
197
100
AcDbEntity
  8
Sichtbar MD
100
AcDbVertex
100
AcDb2dVertex
 10
87.41471556250596
 20
123.5359847489285
 30
0.0
  0
VERTEX
  5
19B
330
197
100
AcDbEntity
  8
Sichtbar MD
100
AcDbVertex
100
AcDb2dVertex
 10
87.43887451712632
 20
123.4853172245907
 30
0.0
  0
VERTEX
  5
19C
330
197
100
AcDbEntity
  8
Sichtbar MD
100
AcDbVertex
100
AcDb2dVertex
 10
87.46270445410752
 20
123.4348124209332
 30
0.0
  0
VERTEX
  5
19D
330
197
100
AcDbEntity
  8
Sichtbar MD
100
AcDbVertex
100
AcDb2dVertex
 10
87.48621014182115
 20
123.3844673577237
 30
0.0
  0
VERTEX
  5
19E
330
197
100
AcDbEntity
  8
Sichtbar MD
100
AcDbVertex
100
AcDb2dVertex
 10
87.50939158026719
 20
123.3342787567067
 30
0.0
  0
VERTEX
  5
19F
330
197
100
AcDbEntity
  8
Sichtbar MD
100
AcDbVertex
100
AcDb2dVertex
 10
87.53225353781724
 20
123.28424363765
 30
0.0
  0
VERTEX
  5
1A0
330
197
100
AcDbEntity
  8
Sichtbar MD
100
AcDbVertex
100
AcDb2dVertex
 10
87.5547936302855
 20
123.2343590203213
 30
0.0
  0
VERTEX
  5
1A1
330
197
100
AcDbEntity
  8
Sichtbar MD
100
AcDbVertex
100
AcDb2dVertex
 10
87.57701424185777
 20
123.1846219244885
 30
0.0
  0
VERTEX
  5
1A2
330
197
100
AcDbEntity
  8
Sichtbar MD
100
AcDbVertex
100
AcDb2dVertex
 10
87.59891775671983
 20
123.1350287738728
 30
0.0
  0
VERTEX
  5
1A3
330
197
100
AcDbEntity
  8
Sichtbar MD
100
AcDbVertex
100
AcDb2dVertex
 10
87.62050417487168
 20
123.0855768862652
 30
0.0
  0
VERTEX
  5
1A4
330
197
100
AcDbEntity
  8
Sichtbar MD
100
AcDbVertex
100
AcDb2dVertex
 10
87.64177826468491
 20
123.0362632814335
 30
0.0
  0
VERTEX
  5
1A5
330
197
100
AcDbEntity
  8
Sichtbar MD
100
AcDbVertex
100
AcDb2dVertex
 10
87.66273764197373
 20
122.9870846811222
 30
0.0
  0
VERTEX
  5
1A6
330
197
100
AcDbEntity
  8
Sichtbar MD
100
AcDbVertex
100
AcDb2dVertex
 10
87.68338469092393
 20
122.9380384031224
 30
0.0
  0
VERTEX
  5
1A7
330
197
100
AcDbEntity
  8
Sichtbar MD
100
AcDbVertex
100
AcDb2dVertex
 10
87.7037194115355
 20
122.8891214672017
 30
0.0
  0
VERTEX
  5
1A8
330
197
100
AcDbEntity
  8
Sichtbar MD
100
AcDbVertex
100
AcDb2dVertex
 10
87.72374657218003
 20
122.8403308931279
 30
0.0
  0
VERTEX
  5
1A9
330
197
100
AcDbEntity
  8
Sichtbar MD
100
AcDbVertex
100
AcDb2dVertex
 10
87.74346617285752
 20
122.7916634026455
 30
0.0
  0
VERTEX
  5
1AA
330
197
100
AcDbEntity
  8
Sichtbar MD
100
AcDbVertex
100
AcDb2dVertex
 10
87.76287582938218
 20
122.7431166115689
 30
0.0
  0
VERTEX
  5
1AB
330
197
100
AcDbEntity
  8
Sichtbar MD
100
AcDbVertex
100
AcDb2dVertex
 10
87.78198031012559
 20
122.6946872416424
 30
0.0
  0
VERTEX
  5
1AC
330
197
100
AcDbEntity
  8
Sichtbar MD
100
AcDbVertex
100
AcDb2dVertex
 10
87.80077961508775
 20
122.6463723126339
 30
0.0
  0
VERTEX
  5
1AD
330
197
100
AcDbEntity
  8
Sichtbar MD
100
AcDbVertex
100
AcDb2dVertex
 10
87.81927374426865
 20
122.5981694403576
 30
0.0
  0
VERTEX
  5
1AE
330
197
100
AcDbEntity
  8
Sichtbar MD
100
AcDbVertex
100
AcDb2dVertex
 10
87.8374650818541
 20
122.550075346558
 30
0.0
  0
VERTEX
  5
1AF
330
197
100
AcDbEntity
  8
Sichtbar MD
100
AcDbVertex
100
AcDb2dVertex
 10
87.85535601202989
 20
122.5020870510029
 30
0.0
  0
VERTEX
  5
1B0
330
197
100
AcDbEntity
  8
Sichtbar MD
100
AcDbVertex
100
AcDb2dVertex
 10
87.87294415061021
 20
122.4542021695065
 30
0.0
  0
VERTEX
  5
1B1
330
197
100
AcDbEntity
  8
Sichtbar MD
100
AcDbVertex
100
AcDb2dVertex
 10
87.89023188178086
 20
122.4064174238133
 30
0.0
  0
SEQEND
  5
19A
330
197
100
AcDbEntity
  8
Sichtbar MD
  0
LINE
  5
1B2
330
75
100
AcDbEntity
  8
Sichtbar MD
100
AcDbLine
 10
78.39023092810656
 20
123.5868184607747
 30
0.0
 11
87.39023092810654
 21
123.5868184607746
 31
0.0
  0
POLYLINE
  5
1B3
330
75
100
AcDbEntity
  8
Sichtbar MD
100
AcDb2dPolyline
 66
     1
 10
0.0
 20
0.0
 30
0.0
 70
   128
  0
VERTEX
  5
1B4
330
1B3
100
AcDbEntity
  8
Sichtbar MD
100
AcDbVertex
100
AcDb2dVertex
 10
77.89023068968797
 20
122.4064174238133
 30
0.0
  0
VERTEX
  5
1B5
330
1B3
100
AcDbEntity
  8
Sichtbar MD
100
AcDbVertex
100
AcDb2dVertex
 10
77.90751842085862
 20
122.4542021695065
 30
0.0
  0
VERTEX
  5
1B7
330
1B3
100
AcDbEntity
  8
Sichtbar MD
100
AcDbVertex
100
AcDb2dVertex
 10
77.92510655943894
 20
122.502087051003
 30
0.0
  0
VERTEX
  5
1B8
330
1B3
100
AcDbEntity
  8
Sichtbar MD
100
AcDbVertex
100
AcDb2dVertex
 10
77.94299629752183
 20
122.5500753465581
 30
0.0
  0
VERTEX
  5
1B9
330
1B3
100
AcDbEntity
  8
Sichtbar MD
100
AcDbVertex
100
AcDb2dVertex
 10
77.96118763510728
 20
122.5981694403577
 30
0.0
  0
VERTEX
  5
1BA
330
1B3
100
AcDbEntity
  8
Sichtbar MD
100
AcDbVertex
100
AcDb2dVertex
 10
77.97968295638108
 20
122.6463723126339
 30
0.0
  0
VERTEX
  5
1BB
330
1B3
100
AcDbEntity
  8
Sichtbar MD
100
AcDbVertex
100
AcDb2dVertex
 10
77.99848106925034
 20
122.6946872416424
 30
0.0
  0
VERTEX
  5
1BC
330
1B3
100
AcDbEntity
  8
Sichtbar MD
100
AcDbVertex
100
AcDb2dVertex
 10
78.01758554999375
 20
122.7431166115689
 30
0.0
  0
VERTEX
  5
1BD
330
1B3
100
AcDbEntity
  8
Sichtbar MD
100
AcDbVertex
100
AcDb2dVertex
 10
78.03699639861131
 20
122.7916634026456
 30
0.0
  0
VERTEX
  5
1BE
330
1B3
100
AcDbEntity
  8
Sichtbar MD
100
AcDbVertex
100
AcDb2dVertex
 10
78.0567148071959
 20
122.8403308931279
 30
0.0
  0
VERTEX
  5
1BF
330
1B3
100
AcDbEntity
  8
Sichtbar MD
100
AcDbVertex
100
AcDb2dVertex
 10
78.07674196784043
 20
122.8891214672017
 30
0.0
  0
VERTEX
  5
1C0
330
1B3
100
AcDbEntity
  8
Sichtbar MD
100
AcDbVertex
100
AcDb2dVertex
 10
78.0970778805449
 20
122.9380384031224
 30
0.0
  0
VERTEX
  5
1C1
330
1B3
100
AcDbEntity
  8
Sichtbar MD
100
AcDbVertex
100
AcDb2dVertex
 10
78.1177249294951
 20
122.9870846811223
 30
0.0
  0
VERTEX
  5
1C2
330
1B3
100
AcDbEntity
  8
Sichtbar MD
100
AcDbVertex
100
AcDb2dVertex
 10
78.13868430678391
 20
123.0362632814335
 30
0.0
  0
VERTEX
  5
1C3
330
1B3
100
AcDbEntity
  8
Sichtbar MD
100
AcDbVertex
100
AcDb2dVertex
 10
78.15995720450425
 20
123.0855768862652
 30
0.0
  0
VERTEX
  5
1C4
330
1B3
100
AcDbEntity
  8
Sichtbar MD
100
AcDbVertex
100
AcDb2dVertex
 10
78.181544814749
 20
123.1350287738728
 30
0.0
  0
VERTEX
  5
1C5
330
1B3
100
AcDbEntity
  8
Sichtbar MD
100
AcDbVertex
100
AcDb2dVertex
 10
78.20344832961106
 20
123.1846219244885
 30
0.0
  0
VERTEX
  5
1C6
330
1B3
100
AcDbEntity
  8
Sichtbar MD
100
AcDbVertex
100
AcDb2dVertex
 10
78.22566894118333
 20
123.2343590203213
 30
0.0
  0
VERTEX
  5
1C7
330
1B3
100
AcDbEntity
  8
Sichtbar MD
100
AcDbVertex
100
AcDb2dVertex
 10
78.24820903365159
 20
123.28424363765
 30
0.0
  0
VERTEX
  5
1C8
330
1B3
100
AcDbEntity
  8
Sichtbar MD
100
AcDbVertex
100
AcDb2dVertex
 10
78.27106979910874
 20
123.3342787567067
 30
0.0
  0
VERTEX
  5
1C9
330
1B3
100
AcDbEntity
  8
Sichtbar MD
100
AcDbVertex
100
AcDb2dVertex
 10
78.29425123755479
 20
123.3844673577237
 30
0.0
  0
VERTEX
  5
1CA
330
1B3
100
AcDbEntity
  8
Sichtbar MD
100
AcDbVertex
100
AcDb2dVertex
 10
78.31775692526841
 20
123.4348124209332
 30
0.0
  0
VERTEX
  5
1CB
330
1B3
100
AcDbEntity
  8
Sichtbar MD
100
AcDbVertex
100
AcDb2dVertex
 10
78.34158805434251
 20
123.4853172245907
 30
0.0
  0
VERTEX
  5
1CC
330
1B3
100
AcDbEntity
  8
Sichtbar MD
100
AcDbVertex
100
AcDb2dVertex
 10
78.36574462477708
 20
123.5359847489285
 30
0.0
  0
VERTEX
  5
1CD
330
1B3
100
AcDbEntity
  8
Sichtbar MD
100
AcDbVertex
100
AcDb2dVertex
 10
78.3902314049437
 20
123.5868185702252
 30
0.0
  0
SEQEND
  5
1B6
330
1B3
100
AcDbEntity
  8
Sichtbar MD
  0
POLYLINE
  5
1CE
330
75
100
AcDbEntity
  8
Sichtbar MD
100
AcDb2dPolyline
 66
     1
 10
0.0
 20
0.0
 30
0.0
 70
   128
  0
VERTEX
  5
1CF
330
1CE
100
AcDbEntity
  8
Sichtbar MD
100
AcDbVertex
100
AcDb2dVertex
 10
78.3902314049437
 20
115.8408516589093
 30
0.0
  0
VERTEX
  5
1D0
330
1CE
100
AcDbEntity
  8
Sichtbar MD
100
AcDbVertex
100
AcDb2dVertex
 10
78.36574462477708
 20
115.891685480206
 30
0.0
  0
VERTEX
  5
1D2
330
1CE
100
AcDbEntity
  8
Sichtbar MD
100
AcDbVertex
100
AcDb2dVertex
 10
78.34158805434251
 20
115.9423530045437
 30
0.0
  0
VERTEX
  5
1D3
330
1CE
100
AcDbEntity
  8
Sichtbar MD
100
AcDbVertex
100
AcDb2dVertex
 10
78.31775692526841
 20
115.9928578082012
 30
0.0
  0
VERTEX
  5
1D4
330
1CE
100
AcDbEntity
  8
Sichtbar MD
100
AcDbVertex
100
AcDb2dVertex
 10
78.29425123755479
 20
116.0432028714108
 30
0.0
  0
VERTEX
  5
1D5
330
1CE
100
AcDbEntity
  8
Sichtbar MD
100
AcDbVertex
100
AcDb2dVertex
 10
78.27106979910874
 20
116.0933914724278
 30
0.0
  0
VERTEX
  5
1D6
330
1CE
100
AcDbEntity
  8
Sichtbar MD
100
AcDbVertex
100
AcDb2dVertex
 10
78.24820903365159
 20
116.1434265914845
 30
0.0
  0
VERTEX
  5
1D7
330
1CE
100
AcDbEntity
  8
Sichtbar MD
100
AcDbVertex
100
AcDb2dVertex
 10
78.22566894118333
 20
116.1933112088131
 30
0.0
  0
VERTEX
  5
1D8
330
1CE
100
AcDbEntity
  8
Sichtbar MD
100
AcDbVertex
100
AcDb2dVertex
 10
78.20344832961106
 20
116.243048304646
 30
0.0
  0
VERTEX
  5
1D9
330
1CE
100
AcDbEntity
  8
Sichtbar MD
100
AcDbVertex
100
AcDb2dVertex
 10
78.181544814749
 20
116.2926414552617
 30
0.0
  0
VERTEX
  5
1DA
330
1CE
100
AcDbEntity
  8
Sichtbar MD
100
AcDbVertex
100
AcDb2dVertex
 10
78.15995720450425
 20
116.3420933428692
 30
0.0
  0
VERTEX
  5
1DB
330
1CE
100
AcDbEntity
  8
Sichtbar MD
100
AcDbVertex
100
AcDb2dVertex
 10
78.13868430678391
 20
116.3914069477009
 30
0.0
  0
VERTEX
  5
1DC
330
1CE
100
AcDbEntity
  8
Sichtbar MD
100
AcDbVertex
100
AcDb2dVertex
 10
78.1177249294951
 20
116.4405855480122
 30
0.0
  0
VERTEX
  5
1DD
330
1CE
100
AcDbEntity
  8
Sichtbar MD
100
AcDbVertex
100
AcDb2dVertex
 10
78.0970778805449
 20
116.4896318260121
 30
0.0
  0
VERTEX
  5
1DE
330
1CE
100
AcDbEntity
  8
Sichtbar MD
100
AcDbVertex
100
AcDb2dVertex
 10
78.07674196784043
 20
116.5385487619328
 30
0.0
  0
VERTEX
  5
1DF
330
1CE
100
AcDbEntity
  8
Sichtbar MD
100
AcDbVertex
100
AcDb2dVertex
 10
78.0567148071959
 20
116.5873393360066
 30
0.0
  0
VERTEX
  5
1E0
330
1CE
100
AcDbEntity
  8
Sichtbar MD
100
AcDbVertex
100
AcDb2dVertex
 10
78.03699639861131
 20
116.6360068264889
 30
0.0
  0
VERTEX
  5
1E1
330
1CE
100
AcDbEntity
  8
Sichtbar MD
100
AcDbVertex
100
AcDb2dVertex
 10
78.01758554999375
 20
116.6845536175656
 30
0.0
  0
VERTEX
  5
1E2
330
1CE
100
AcDbEntity
  8
Sichtbar MD
100
AcDbVertex
100
AcDb2dVertex
 10
77.99848106925034
 20
116.7329829874921
 30
0.0
  0
VERTEX
  5
1E3
330
1CE
100
AcDbEntity
  8
Sichtbar MD
100
AcDbVertex
100
AcDb2dVertex
 10
77.97968295638108
 20
116.7812979165005
 30
0.0
  0
VERTEX
  5
1E4
330
1CE
100
AcDbEntity
  8
Sichtbar MD
100
AcDbVertex
100
AcDb2dVertex
 10
77.96118763510728
 20
116.8295007887768
 30
0.0
  0
VERTEX
  5
1E5
330
1CE
100
AcDbEntity
  8
Sichtbar MD
100
AcDbVertex
100
AcDb2dVertex
 10
77.94299629752183
 20
116.8775948825764
 30
0.0
  0
VERTEX
  5
1E6
330
1CE
100
AcDbEntity
  8
Sichtbar MD
100
AcDbVertex
100
AcDb2dVertex
 10
77.92510655943894
 20
116.9255831781315
 30
0.0
  0
VERTEX
  5
1E7
330
1CE
100
AcDbEntity
  8
Sichtbar MD
100
AcDbVertex
100
AcDb2dVertex
 10
77.90751842085862
 20
116.973468059628
 30
0.0
  0
VERTEX
  5
1E8
330
1CE
100
AcDbEntity
  8
Sichtbar MD
100
AcDbVertex
100
AcDb2dVertex
 10
77.89023068968797
 20
117.0212528053212
 30
0.0
  0
SEQEND
  5
1D1
330
1CE
100
AcDbEntity
  8
Sichtbar MD
  0
LINE
  5
1E9
330
75
100
AcDbEntity
  8
Sichtbar MD
100
AcDbLine
 10
87.39023092810654
 20
115.8408517683598
 30
0.0
 11
78.39023092810655
 21
115.8408517683598
 31
0.0
  0
POLYLINE
  5
1EA
330
75
100
AcDbEntity
  8
Sichtbar MD
100
AcDb2dPolyline
 66
     1
 10
0.0
 20
0.0
 30
0.0
 70
   128
  0
VERTEX
  5
1EB
330
1EA
100
AcDbEntity
  8
Sichtbar MD
100
AcDbVertex
100
AcDb2dVertex
 10
87.89023188178086
 20
117.0212528053212
 30
0.0
  0
VERTEX
  5
1EC
330
1EA
100
AcDbEntity
  8
Sichtbar MD
100
AcDbVertex
100
AcDb2dVertex
 10
87.87294415061021
 20
116.973468059628
 30
0.0
  0
VERTEX
  5
1EE
330
1EA
100
AcDbEntity
  8
Sichtbar MD
100
AcDbVertex
100
AcDb2dVertex
 10
87.85535601202989
 20
116.9255831781315
 30
0.0
  0
VERTEX
  5
1EF
330
1EA
100
AcDbEntity
  8
Sichtbar MD
100
AcDbVertex
100
AcDb2dVertex
 10
87.8374650818541
 20
116.8775948825764
 30
0.0
  0
VERTEX
  5
1F0
330
1EA
100
AcDbEntity
  8
Sichtbar MD
100
AcDbVertex
100
AcDb2dVertex
 10
87.81927374426865
 20
116.8295007887768
 30
0.0
  0
VERTEX
  5
1F1
330
1EA
100
AcDbEntity
  8
Sichtbar MD
100
AcDbVertex
100
AcDb2dVertex
 10
87.80077961508775
 20
116.7812979165005
 30
0.0
  0
VERTEX
  5
1F2
330
1EA
100
AcDbEntity
  8
Sichtbar MD
100
AcDbVertex
100
AcDb2dVertex
 10
87.78198031012559
 20
116.732982987492
 30
0.0
  0
VERTEX
  5
1F3
330
1EA
100
AcDbEntity
  8
Sichtbar MD
100
AcDbVertex
100
AcDb2dVertex
 10
87.76287582938218
 20
116.6845536175656
 30
0.0
  0
VERTEX
  5
1F4
330
1EA
100
AcDbEntity
  8
Sichtbar MD
100
AcDbVertex
100
AcDb2dVertex
 10
87.74346617285752
 20
116.6360068264889
 30
0.0
  0
VERTEX
  5
1F5
330
1EA
100
AcDbEntity
  8
Sichtbar MD
100
AcDbVertex
100
AcDb2dVertex
 10
87.72374657218003
 20
116.5873393360066
 30
0.0
  0
VERTEX
  5
1F6
330
1EA
100
AcDbEntity
  8
Sichtbar MD
100
AcDbVertex
100
AcDb2dVertex
 10
87.7037194115355
 20
116.5385487619328
 30
0.0
  0
VERTEX
  5
1F7
330
1EA
100
AcDbEntity
  8
Sichtbar MD
100
AcDbVertex
100
AcDb2dVertex
 10
87.68338469092393
 20
116.4896318260121
 30
0.0
  0
VERTEX
  5
1F8
330
1EA
100
AcDbEntity
  8
Sichtbar MD
100
AcDbVertex
100
AcDb2dVertex
 10
87.66273764197373
 20
116.4405855480122
 30
0.0
  0
VERTEX
  5
1F9
330
1EA
100
AcDbEntity
  8
Sichtbar MD
100
AcDbVertex
100
AcDb2dVertex
 10
87.64177826468491
 20
116.3914069477009
 30
0.0
  0
VERTEX
  5
1FA
330
1EA
100
AcDbEntity
  8
Sichtbar MD
100
AcDbVertex
100
AcDb2dVertex
 10
87.62050417487168
 20
116.3420933428692
 30
0.0
  0
VERTEX
  5
1FB
330
1EA
100
AcDbEntity
  8
Sichtbar MD
100
AcDbVertex
100
AcDb2dVertex
 10
87.59891775671983
 20
116.2926414552617
 30
0.0
  0
VERTEX
  5
1FC
330
1EA
100
AcDbEntity
  8
Sichtbar MD
100
AcDbVertex
100
AcDb2dVertex
 10
87.57701424185777
 20
116.243048304646
 30
0.0
  0
VERTEX
  5
1FD
330
1EA
100
AcDbEntity
  8
Sichtbar MD
100
AcDbVertex
100
AcDb2dVertex
 10
87.5547936302855
 20
116.1933112088131
 30
0.0
  0
VERTEX
  5
1FE
330
1EA
100
AcDbEntity
  8
Sichtbar MD
100
AcDbVertex
100
AcDb2dVertex
 10
87.53225353781724
 20
116.1434265914845
 30
0.0
  0
VERTEX
  5
1FF
330
1EA
100
AcDbEntity
  8
Sichtbar MD
100
AcDbVertex
100
AcDb2dVertex
 10
87.50939158026719
 20
116.0933914724278
 30
0.0
  0
VERTEX
  5
200
330
1EA
100
AcDbEntity
  8
Sichtbar MD
100
AcDbVertex
100
AcDb2dVertex
 10
87.48621014182115
 20
116.0432028714108
 30
0.0
  0
VERTEX
  5
201
330
1EA
100
AcDbEntity
  8
Sichtbar MD
100
AcDbVertex
100
AcDb2dVertex
 10
87.46270445410752
 20
115.9928578082012
 30
0.0
  0
VERTEX
  5
202
330
1EA
100
AcDbEntity
  8
Sichtbar MD
100
AcDbVertex
100
AcDb2dVertex
 10
87.43887451712632
 20
115.9423530045437
 30
0.0
  0
VERTEX
  5
203
330
1EA
100
AcDbEntity
  8
Sichtbar MD
100
AcDbVertex
100
AcDb2dVertex
 10
87.41471556250596
 20
115.891685480206
 30
0.0
  0
VERTEX
  5
204
330
1EA
100
AcDbEntity
  8
Sichtbar MD
100
AcDbVertex
100
AcDb2dVertex
 10
87.39022997443223
 20
115.8408516589093
 30
0.0
  0
SEQEND
  5
1ED
330
1EA
100
AcDbEntity
  8
Sichtbar MD
  0
LINE
  5
205
330
75
100
AcDbEntity
  8
Sichtbar MD
100
AcDbLine
 10
77.89023092810655
 20
117.021252711
 30
0.0
 11
77.89023092810655
 21
122.4064175181345
 31
0.0
  0
LINE
  5
206
330
75
100
AcDbEntity
  8
Sichtbar MD
100
AcDbLine
 10
87.39023092810654
 20
123.5868184607747
 30
0.0
 11
87.39023092810654
 21
127.7138351145672
 31
0.0
  0
LINE
  5
207
330
75
100
AcDbEntity
  8
Sichtbar MD
100
AcDbLine
 10
87.89023092810655
 20
122.4064175181345
 30
0.0
 11
87.89023092810655
 21
127.2138351145672
 31
0.0
  0
LINE
  5
208
330
75
100
AcDbEntity
  8
Sichtbar MD
100
AcDbLine
 10
87.89023092810655
 20
112.2138351145672
 30
0.0
 11
87.89023092810655
 21
117.021252711
 31
0.0
  0
LINE
  5
209
330
75
100
AcDbEntity
  8
Sichtbar MD
100
AcDbLine
 10
87.39023092810654
 20
111.7138351145672
 30
0.0
 11
87.39023092810654
 21
115.8408517683598
 31
0.0
  0
LINE
  5
20A
330
75
100
AcDbEntity
  8
Sichtbar MD
100
AcDbLine
 10
78.39023092810655
 20
123.5868184607747
 30
0.0
 11
78.39023092810655
 21
127.7138351145673
 31
0.0
  0
LINE
  5
20B
330
75
100
AcDbEntity
  8
Sichtbar MD
100
AcDbLine
 10
78.39023092810655
 20
111.7138351145672
 30
0.0
 11
78.39023092810655
 21
115.8408517683598
 31
0.0
  0
LINE
  5
20C
330
75
100
AcDbEntity
  8
Sichtbar MD
100
AcDbLine
 10
77.89023092810655
 20
122.4064175181345
 30
0.0
 11
77.89023092810655
 21
127.2138351145672
 31
0.0
  0
LINE
  5
20D
330
75
100
AcDbEntity
  8
Sichtbar MD
100
AcDbLine
 10
73.89023092810655
 20
111.7138351145672
 30
0.0
 11
73.89023092810655
 21
127.7138351145673
 31
0.0
  0
LINE
  5
20E
330
75
100
AcDbEntity
  8
Sichtbar MD
100
AcDbLine
 10
77.39023092810654
 20
111.7138351145672
 30
0.0
 11
77.39023092810654
 21
127.7138351145673
 31
0.0
  0
LINE
  5
20F
330
75
100
AcDbEntity
  8
Sichtbar MD
100
AcDbLine
 10
77.89023092810655
 20
112.2138351145673
 30
0.0
 11
77.89023092810655
 21
117.021252711
 31
0.0
  0
LINE
  5
210
330
75
100
AcDbEntity
  8
Sichtbar MD
100
AcDbLine
 10
88.39023092810656
 20
111.7138351145672
 30
0.0
 11
88.39023092810656
 21
127.7138351145672
 31
0.0
  0
LINE
  5
211
330
75
100
AcDbEntity
  8
Sichtbar MD
100
AcDbLine
 10
87.89023092810655
 20
127.2138351145672
 30
0.0
 11
87.39023092810654
 21
127.7138351145672
 31
0.0
  0
LINE
  5
212
330
75
100
AcDbEntity
  8
Sichtbar MD
100
AcDbLine
 10
87.89023092810655
 20
112.2138351145672
 30
0.0
 11
87.39023092810654
 21
111.7138351145672
 31
0.0
  0
LINE
  5
213
330
75
100
AcDbEntity
  8
Sichtbar MD
100
AcDbLine
 10
78.39023092810656
 20
127.7138351145672
 30
0.0
 11
87.39023092810654
 21
127.7138351145672
 31
0.0
  0
LINE
  5
214
330
75
100
AcDbEntity
  8
Sichtbar MD
100
AcDbLine
 10
78.39023092810655
 20
111.7138351145672
 30
0.0
 11
87.39023092810654
 21
111.7138351145672
 31
0.0
  0
LINE
  5
215
330
75
100
AcDbEntity
  8
Sichtbar MD
100
AcDbLine
 10
77.89023092810655
 20
127.2138351145672
 30
0.0
 11
78.39023092810656
 21
127.7138351145672
 31
0.0
  0
LINE
  5
216
330
75
100
AcDbEntity
  8
Sichtbar MD
100
AcDbLine
 10
69.24632498804953
 20
126.2138351145672
 30
0.0
 11
73.89023092810655
 21
126.2138351145672
 31
0.0
  0
LINE
  5
217
330
75
100
AcDbEntity
  8
Sichtbar MD
100
AcDbLine
 10
69.24632498804952
 20
113.2138351145673
 30
0.0
 11
73.89023092810655
 21
113.2138351145673
 31
0.0
  0
LINE
  5
218
330
75
100
AcDbEntity
  8
Sichtbar MD
100
AcDbLine
 10
73.89023092810655
 20
127.7138351145672
 30
0.0
 11
77.39023092810656
 21
127.7138351145672
 31
0.0
  0
LINE
  5
219
330
75
100
AcDbEntity
  8
Sichtbar MD
100
AcDbLine
 10
73.89023092810655
 20
111.7138351145672
 30
0.0
 11
77.39023092810653
 21
111.7138351145672
 31
0.0
  0
LINE
  5
21A
330
75
100
AcDbEntity
  8
Sichtbar MD
100
AcDbLine
 10
77.89023092810655
 20
112.2138351145673
 30
0.0
 11
77.39023092810653
 21
111.7138351145672
 31
0.0
  0
LINE
  5
21B
330
75
100
AcDbEntity
  8
Sichtbar MD
100
AcDbLine
 10
77.89023092810655
 20
127.2138351145672
 30
0.0
 11
77.39023092810656
 21
127.7138351145672
 31
0.0
  0
LINE
  5
21C
330
75
100
AcDbEntity
  8
Sichtbar MD
100
AcDbLine
 10
77.89023092810655
 20
112.2138351145673
 30
0.0
 11
78.39023092810655
 21
111.7138351145672
 31
0.0
  0
LINE
  5
21D
330
75
100
AcDbEntity
  8
Sichtbar MD
100
AcDbLine
 10
87.89023092810655
 20
127.2138351145672
 30
0.0
 11
88.39023092810656
 21
127.7138351145672
 31
0.0
  0
LINE
  5
21E
330
75
100
AcDbEntity
  8
Sichtbar MD
100
AcDbLine
 10
87.89023092810655
 20
112.2138351145672
 30
0.0
 11
88.39023092810654
 21
111.7138351145672
 31
0.0
  0
LINE
  5
21F
330
75
100
AcDbEntity
  8
Sichtbar MD
100
AcDbLine
 10
88.39023092810656
 20
127.7138351145672
 30
0.0
 11
89.29023092810652
 21
127.7138351145672
 31
0.0
  0
LINE
  5
220
330
75
100
AcDbEntity
  8
Sichtbar MD
100
AcDbLine
 10
88.39023092810654
 20
111.7138351145672
 30
0.0
 11
89.29023092810652
 21
111.7138351145672
 31
0.0
  0
LINE
  5
221
330
75
100
AcDbEntity
  8
Sichtbar MD
100
AcDbLine
 10
91.75294764967475
 20
105.4482846281616
 30
0.0
 11
91.75294764967473
 21
133.9793856009727
 31
0.0
  0
LINE
  5
222
330
75
100
AcDbEntity
  8
Sichtbar MD
100
AcDbLine
 10
89.29023092810655
 20
109.7138351145671
 30
0.0
 11
89.29023092810652
 21
129.7138351145671
 31
0.0
  0
LINE
  5
223
330
75
100
AcDbEntity
  8
Sichtbar MD
100
AcDbLine
 10
97.29023092810656
 20
104.9638351145671
 30
0.0
 11
97.29023092810653
 21
134.4638351145671
 31
0.0
  0
LINE
  5
224
330
75
100
AcDbEntity
  8
Sichtbar MD
100
AcDbLine
 10
89.29023092810652
 20
129.7138351145671
 30
0.0
 11
91.75294764967473
 21
133.9793856009727
 31
0.0
  0
LINE
  5
225
330
75
100
AcDbEntity
  8
Sichtbar MD
100
AcDbLine
 10
89.29023092810655
 20
109.7138351145671
 30
0.0
 11
91.75294764967475
 21
105.4482846281616
 31
0.0
  0
LINE
  5
226
330
75
100
AcDbEntity
  8
Sichtbar MD
100
AcDbLine
 10
91.75294764967473
 20
133.9793856009727
 30
0.0
 11
97.29023092810653
 21
134.4638351145671
 31
0.0
  0
LINE
  5
227
330
75
100
AcDbEntity
  8
Sichtbar MD
100
AcDbLine
 10
91.75294764967475
 20
105.4482846281616
 30
0.0
 11
97.29023092810656
 21
104.9638351145671
 31
0.0
  0
LINE
  5
228
330
75
100
AcDbEntity
  8
Sichtbar MD
100
AcDbLine
 10
97.39023092810654
 20
106.3191071145673
 30
0.0
 11
97.39023092810654
 21
133.1085631145673
 31
0.0
  0
LINE
  5
229
330
75
100
AcDbEntity
  8
Sichtbar MD
100
AcDbLine
 10
97.39023092810654
 20
133.1085631145673
 30
0.0
 11
97.49023092810652
 21
133.2085631145673
 31
0.0
  0
LINE
  5
22A
330
75
100
AcDbEntity
  8
Sichtbar MD
100
AcDbLine
 10
97.39023092810654
 20
106.3191071145673
 30
0.0
 11
97.49023092810652
 21
106.2191071145673
 31
0.0
  0
LINE
  5
22B
330
75
100
AcDbEntity
  8
Sichtbar MD
100
AcDbLine
 10
97.39023092810654
 20
107.2138351145673
 30
0.0
 11
97.29023092810656
 21
107.2138351145673
 31
0.0
  0
LINE
  5
22C
330
75
100
AcDbEntity
  8
Sichtbar MD
100
AcDbLine
 10
97.39023092810656
 20
132.2138351145673
 30
0.0
 11
97.29023092810651
 21
132.2138351145673
 31
0.0
  0
LINE
  5
22D
330
75
100
AcDbEntity
  8
Sichtbar MD
100
AcDbLine
 10
213.4902309281065
 20
104.7138351145672
 30
0.0
 11
213.4902309281065
 21
134.7138351145673
 31
0.0
  0
LINE
  5
22E
330
75
100
AcDbEntity
  8
Sichtbar MD
100
AcDbLine
 10
97.49023092810652
 20
104.7138351145672
 30
0.0
 11
97.49023092810652
 21
134.7138351145672
 31
0.0
  0
LINE
  5
22F
330
75
100
AcDbEntity
  8
Sichtbar MD
100
AcDbLine
 10
97.49023092810652
 20
134.7138351145672
 30
0.0
 11
213.4902309281065
 21
134.7138351145672
 31
0.0
  0
LINE
  5
230
330
75
100
AcDbEntity
  8
Sichtbar MD
100
AcDbLine
 10
97.49023092810652
 20
104.7138351145672
 30
0.0
 11
213.4902309281065
 21
104.7138351145672
 31
0.0
  0
LINE
  5
231
330
75
100
AcDbEntity
  8
Sichtbar MD
100
AcDbLine
 10
219.3402309281065
 20
121.5509524216546
 30
0.0
 11
219.3402309281065
 21
117.8767178074798
 31
0.0
  0
LINE
  5
232
330
75
100
AcDbEntity
  8
Sichtbar MD
100
AcDbLine
 10
219.3402309281065
 20
126.2573937681109
 30
0.0
 11
219.3402309281065
 21
124.4202764610235
 31
0.0
  0
LINE
  5
233
330
75
100
AcDbEntity
  8
Sichtbar MD
100
AcDbLine
 10
219.3402309281065
 20
115.0073937681109
 30
0.0
 11
219.3402309281065
 21
113.1702764610235
 31
0.0
  0
POLYLINE
  5
234
330
75
100
AcDbEntity
  8
Sichtbar MD
100
AcDb2dPolyline
 66
     1
 10
0.0
 20
0.0
 30
0.0
 70
   128
  0
VERTEX
  5
235
330
234
100
AcDbEntity
  8
Sichtbar MD
100
AcDbVertex
100
AcDb2dVertex
 10
213.7789061409667
 20
120.7975472453522
 30
0.0
  0
VERTEX
  5
236
330
234
100
AcDbEntity
  8
Sichtbar MD
100
AcDbVertex
100
AcDb2dVertex
 10
213.7551411730483
 20
120.897116208403
 30
0.0
  0
VERTEX
  5
238
330
234
100
AcDbEntity
  8
Sichtbar MD
100
AcDbVertex
100
AcDb2dVertex
 10
213.7324449164107
 20
120.9960588756489
 30
0.0
  0
VERTEX
  5
239
330
234
100
AcDbEntity
  8
Sichtbar MD
100
AcDbVertex
100
AcDb2dVertex
 10
213.7108069402411
 20
121.0944138410973
 30
0.0
  0
VERTEX
  5
23A
330
234
100
AcDbEntity
  8
Sichtbar MD
100
AcDbVertex
100
AcDb2dVertex
 10
213.6902174097731
 20
121.1922194007325
 30
0.0
  0
VERTEX
  5
23B
330
234
100
AcDbEntity
  8
Sichtbar MD
100
AcDbVertex
100
AcDb2dVertex
 10
213.6706667882636
 20
121.2895128074574
 30
0.0
  0
VERTEX
  5
23C
330
234
100
AcDbEntity
  8
Sichtbar MD
100
AcDbVertex
100
AcDb2dVertex
 10
213.6521473271086
 20
121.3863314631867
 30
0.0
  0
VERTEX
  5
23D
330
234
100
AcDbEntity
  8
Sichtbar MD
100
AcDbVertex
100
AcDb2dVertex
 10
213.6346512777045
 20
121.4827121737885
 30
0.0
  0
VERTEX
  5
23E
330
234
100
AcDbEntity
  8
Sichtbar MD
100
AcDbVertex
100
AcDb2dVertex
 10
213.6181720835402
 20
121.5786912980961
 30
0.0
  0
VERTEX
  5
23F
330
234
100
AcDbEntity
  8
Sichtbar MD
100
AcDbVertex
100
AcDb2dVertex
 10
213.6027034861281
 20
121.6743048969197
 30
0.0
  0
VERTEX
  5
240
330
234
100
AcDbEntity
  8
Sichtbar MD
100
AcDbVertex
100
AcDb2dVertex
 10
213.5882407170966
 20
121.7695890310692
 30
0.0
  0
VERTEX
  5
241
330
234
100
AcDbEntity
  8
Sichtbar MD
100
AcDbVertex
100
AcDb2dVertex
 10
213.5747790080741
 20
121.86457931432
 30
0.0
  0
VERTEX
  5
242
330
234
100
AcDbEntity
  8
Sichtbar MD
100
AcDbVertex
100
AcDb2dVertex
 10
213.5623147827819
 20
121.9593112114357
 30
0.0
  0
VERTEX
  5
243
330
234
100
AcDbEntity
  8
Sichtbar MD
100
AcDbVertex
100
AcDb2dVertex
 10
213.5508450609878
 20
122.0538200381684
 30
0.0
  0
VERTEX
  5
244
330
234
100
AcDbEntity
  8
Sichtbar MD
100
AcDbVertex
100
AcDb2dVertex
 10
213.5403677565291
 20
122.1481412592816
 30
0.0
  0
VERTEX
  5
245
330
234
100
AcDbEntity
  8
Sichtbar MD
100
AcDbVertex
100
AcDb2dVertex
 10
213.5308813792899
 20
122.2423100415158
 30
0.0
  0
VERTEX
  5
246
330
234
100
AcDbEntity
  8
Sichtbar MD
100
AcDbVertex
100
AcDb2dVertex
 10
213.5223853332236
 20
122.336361700623
 30
0.0
  0
VERTEX
  5
247
330
234
100
AcDbEntity
  8
Sichtbar MD
100
AcDbVertex
100
AcDb2dVertex
 10
213.514879320307
 20
122.4303317013668
 30
0.0
  0
VERTEX
  5
248
330
234
100
AcDbEntity
  8
Sichtbar MD
100
AcDbVertex
100
AcDb2dVertex
 10
213.5083645326331
 20
122.5242552104878
 30
0.0
  0
VERTEX
  5
249
330
234
100
AcDbEntity
  8
Sichtbar MD
100
AcDbVertex
100
AcDb2dVertex
 10
213.5028424603179
 20
122.6181682887959
 30
0.0
  0
VERTEX
  5
24A
330
234
100
AcDbEntity
  8
Sichtbar MD
100
AcDbVertex
100
AcDb2dVertex
 10
213.4983154875472
 20
122.7121064010548
 30
0.0
  0
VERTEX
  5
24B
330
234
100
AcDbEntity
  8
Sichtbar MD
100
AcDbVertex
100
AcDb2dVertex
 10
213.49478629653
 20
122.8061056080746
 30
0.0
  0
VERTEX
  5
24C
330
234
100
AcDbEntity
  8
Sichtbar MD
100
AcDbVertex
100
AcDb2dVertex
 10
213.4922593576148
 20
122.9002022686886
 30
0.0
  0
VERTEX
  5
24D
330
234
100
AcDbEntity
  8
Sichtbar MD
100
AcDbVertex
100
AcDb2dVertex
 10
213.4907391411498
 20
122.9944330397534
 30
0.0
  0
VERTEX
  5
24E
330
234
100
AcDbEntity
  8
Sichtbar MD
100
AcDbVertex
100
AcDb2dVertex
 10
213.4902310115531
 20
123.0888351741719
 30
0.0
  0
SEQEND
  5
237
330
234
100
AcDbEntity
  8
Sichtbar MD
  0
POLYLINE
  5
24F
330
75
100
AcDbEntity
  8
Sichtbar MD
100
AcDb2dPolyline
 66
     1
 10
0.0
 20
0.0
 30
0.0
 70
   128
  0
VERTEX
  5
250
330
24F
100
AcDbEntity
  8
Sichtbar MD
100
AcDbVertex
100
AcDb2dVertex
 10
213.4902310115531
 20
116.3388350549626
 30
0.0
  0
VERTEX
  5
251
330
24F
100
AcDbEntity
  8
Sichtbar MD
100
AcDbVertex
100
AcDb2dVertex
 10
213.4907391411498
 20
116.4332371893811
 30
0.0
  0
VERTEX
  5
253
330
24F
100
AcDbEntity
  8
Sichtbar MD
100
AcDbVertex
100
AcDb2dVertex
 10
213.4922593576148
 20
116.5274679604458
 30
0.0
  0
VERTEX
  5
254
330
24F
100
AcDbEntity
  8
Sichtbar MD
100
AcDbVertex
100
AcDb2dVertex
 10
213.49478629653
 20
116.6215646210598
 30
0.0
  0
VERTEX
  5
255
330
24F
100
AcDbEntity
  8
Sichtbar MD
100
AcDbVertex
100
AcDb2dVertex
 10
213.4983154875472
 20
116.7155638280796
 30
0.0
  0
VERTEX
  5
256
330
24F
100
AcDbEntity
  8
Sichtbar MD
100
AcDbVertex
100
AcDb2dVertex
 10
213.5028424603179
 20
116.8095019403385
 30
0.0
  0
VERTEX
  5
257
330
24F
100
AcDbEntity
  8
Sichtbar MD
100
AcDbVertex
100
AcDb2dVertex
 10
213.5083645326331
 20
116.9034150186466
 30
0.0
  0
VERTEX
  5
258
330
24F
100
AcDbEntity
  8
Sichtbar MD
100
AcDbVertex
100
AcDb2dVertex
 10
213.514879320307
 20
116.9973385277676
 30
0.0
  0
VERTEX
  5
259
330
24F
100
AcDbEntity
  8
Sichtbar MD
100
AcDbVertex
100
AcDb2dVertex
 10
213.5223853332236
 20
117.0913085285115
 30
0.0
  0
VERTEX
  5
25A
330
24F
100
AcDbEntity
  8
Sichtbar MD
100
AcDbVertex
100
AcDb2dVertex
 10
213.5308813792899
 20
117.1853601876187
 30
0.0
  0
VERTEX
  5
25B
330
24F
100
AcDbEntity
  8
Sichtbar MD
100
AcDbVertex
100
AcDb2dVertex
 10
213.5403677565291
 20
117.2795289698528
 30
0.0
  0
VERTEX
  5
25C
330
24F
100
AcDbEntity
  8
Sichtbar MD
100
AcDbVertex
100
AcDb2dVertex
 10
213.5508450609878
 20
117.3738501909661
 30
0.0
  0
VERTEX
  5
25D
330
24F
100
AcDbEntity
  8
Sichtbar MD
100
AcDbVertex
100
AcDb2dVertex
 10
213.5623147827819
 20
117.4683590176987
 30
0.0
  0
VERTEX
  5
25E
330
24F
100
AcDbEntity
  8
Sichtbar MD
100
AcDbVertex
100
AcDb2dVertex
 10
213.5747790080741
 20
117.5630909148144
 30
0.0
  0
VERTEX
  5
25F
330
24F
100
AcDbEntity
  8
Sichtbar MD
100
AcDbVertex
100
AcDb2dVertex
 10
213.5882407170966
 20
117.6580811980652
 30
0.0
  0
VERTEX
  5
260
330
24F
100
AcDbEntity
  8
Sichtbar MD
100
AcDbVertex
100
AcDb2dVertex
 10
213.6027034861281
 20
117.7533653322148
 30
0.0
  0
VERTEX
  5
261
330
24F
100
AcDbEntity
  8
Sichtbar MD
100
AcDbVertex
100
AcDb2dVertex
 10
213.6181720835402
 20
117.8489789310383
 30
0.0
  0
VERTEX
  5
262
330
24F
100
AcDbEntity
  8
Sichtbar MD
100
AcDbVertex
100
AcDb2dVertex
 10
213.6346512777045
 20
117.9449580553459
 30
0.0
  0
VERTEX
  5
263
330
24F
100
AcDbEntity
  8
Sichtbar MD
100
AcDbVertex
100
AcDb2dVertex
 10
213.6521473271086
 20
118.0413387659478
 30
0.0
  0
VERTEX
  5
264
330
24F
100
AcDbEntity
  8
Sichtbar MD
100
AcDbVertex
100
AcDb2dVertex
 10
213.6706667882636
 20
118.138157421677
 30
0.0
  0
VERTEX
  5
265
330
24F
100
AcDbEntity
  8
Sichtbar MD
100
AcDbVertex
100
AcDb2dVertex
 10
213.6902174097731
 20
118.235450828402
 30
0.0
  0
VERTEX
  5
266
330
24F
100
AcDbEntity
  8
Sichtbar MD
100
AcDbVertex
100
AcDb2dVertex
 10
213.7108069402411
 20
118.3332563880371
 30
0.0
  0
VERTEX
  5
267
330
24F
100
AcDbEntity
  8
Sichtbar MD
100
AcDbVertex
100
AcDb2dVertex
 10
213.7324449164107
 20
118.4316113534855
 30
0.0
  0
VERTEX
  5
268
330
24F
100
AcDbEntity
  8
Sichtbar MD
100
AcDbVertex
100
AcDb2dVertex
 10
213.7551411730483
 20
118.5305540207314
 30
0.0
  0
VERTEX
  5
269
330
24F
100
AcDbEntity
  8
Sichtbar MD
100
AcDbVertex
100
AcDb2dVertex
 10
213.7789061409667
 20
118.6301229837822
 30
0.0
  0
SEQEND
  5
252
330
24F
100
AcDbEntity
  8
Sichtbar MD
  0
LINE
  5
26A
330
75
100
AcDbEntity
  8
Sichtbar MD
100
AcDbLine
 10
213.7789060627014
 20
120.7975472670893
 30
0.0
 11
213.7789060627014
 21
118.6301229620451
 31
0.0
  0
LINE
  5
26B
330
75
100
AcDbEntity
  8
Sichtbar MD
100
AcDbLine
 10
213.7789061409667
 20
126.4638352337765
 30
0.0
 11
213.4902310115531
 21
126.4638352337765
 31
0.0
  0
POLYLINE
  5
26C
330
75
100
AcDbEntity
  8
Sichtbar MD
100
AcDb2dPolyline
 66
     1
 10
0.0
 20
0.0
 30
0.0
 70
   128
  0
VERTEX
  5
26D
330
26C
100
AcDbEntity
  8
Sichtbar MD
100
AcDbVertex
100
AcDb2dVertex
 10
213.4902310115531
 20
123.0888351741719
 30
0.0
  0
VERTEX
  5
26E
330
26C
100
AcDbEntity
  8
Sichtbar MD
100
AcDbVertex
100
AcDb2dVertex
 10
213.4907391411498
 20
123.1832373085903
 30
0.0
  0
VERTEX
  5
270
330
26C
100
AcDbEntity
  8
Sichtbar MD
100
AcDbVertex
100
AcDb2dVertex
 10
213.4922593576148
 20
123.2774680796551
 30
0.0
  0
VERTEX
  5
271
330
26C
100
AcDbEntity
  8
Sichtbar MD
100
AcDbVertex
100
AcDb2dVertex
 10
213.49478629653
 20
123.3715647402691
 30
0.0
  0
VERTEX
  5
272
330
26C
100
AcDbEntity
  8
Sichtbar MD
100
AcDbVertex
100
AcDb2dVertex
 10
213.4983154875472
 20
123.4655639472889
 30
0.0
  0
VERTEX
  5
273
330
26C
100
AcDbEntity
  8
Sichtbar MD
100
AcDbVertex
100
AcDb2dVertex
 10
213.5028424603179
 20
123.5595020595478
 30
0.0
  0
VERTEX
  5
274
330
26C
100
AcDbEntity
  8
Sichtbar MD
100
AcDbVertex
100
AcDb2dVertex
 10
213.5083645326331
 20
123.6534148398327
 30
0.0
  0
VERTEX
  5
275
330
26C
100
AcDbEntity
  8
Sichtbar MD
100
AcDbVertex
100
AcDb2dVertex
 10
213.514879320307
 20
123.7473386469769
 30
0.0
  0
VERTEX
  5
276
330
26C
100
AcDbEntity
  8
Sichtbar MD
100
AcDbVertex
100
AcDb2dVertex
 10
213.5223853332236
 20
123.8413086477207
 30
0.0
  0
VERTEX
  5
277
330
26C
100
AcDbEntity
  8
Sichtbar MD
100
AcDbVertex
100
AcDb2dVertex
 10
213.5308813792899
 20
123.9353603068279
 30
0.0
  0
VERTEX
  5
278
330
26C
100
AcDbEntity
  8
Sichtbar MD
100
AcDbVertex
100
AcDb2dVertex
 10
213.5403677565291
 20
124.0295290890621
 30
0.0
  0
VERTEX
  5
279
330
26C
100
AcDbEntity
  8
Sichtbar MD
100
AcDbVertex
100
AcDb2dVertex
 10
213.5508450609878
 20
124.1238501611637
 30
0.0
  0
VERTEX
  5
27A
330
26C
100
AcDbEntity
  8
Sichtbar MD
100
AcDbVertex
100
AcDb2dVertex
 10
213.5623147827819
 20
124.2183589878964
 30
0.0
  0
VERTEX
  5
27B
330
26C
100
AcDbEntity
  8
Sichtbar MD
100
AcDbVertex
100
AcDb2dVertex
 10
213.5747790080741
 20
124.3130910340237
 30
0.0
  0
VERTEX
  5
27C
330
26C
100
AcDbEntity
  8
Sichtbar MD
100
AcDbVertex
100
AcDb2dVertex
 10
213.5882407170966
 20
124.4080811682629
 30
0.0
  0
VERTEX
  5
27D
330
26C
100
AcDbEntity
  8
Sichtbar MD
100
AcDbVertex
100
AcDb2dVertex
 10
213.6027034861281
 20
124.5033651534008
 30
0.0
  0
VERTEX
  5
27E
330
26C
100
AcDbEntity
  8
Sichtbar MD
100
AcDbVertex
100
AcDb2dVertex
 10
213.6181720835402
 20
124.5989790502476
 30
0.0
  0
VERTEX
  5
27F
330
26C
100
AcDbEntity
  8
Sichtbar MD
100
AcDbVertex
100
AcDb2dVertex
 10
213.6346512777045
 20
124.6949580255436
 30
0.0
  0
VERTEX
  5
280
330
26C
100
AcDbEntity
  8
Sichtbar MD
100
AcDbVertex
100
AcDb2dVertex
 10
213.6521473271086
 20
124.7913384381222
 30
0.0
  0
VERTEX
  5
281
330
26C
100
AcDbEntity
  8
Sichtbar MD
100
AcDbVertex
100
AcDb2dVertex
 10
213.6706667882636
 20
124.8881572428631
 30
0.0
  0
VERTEX
  5
282
330
26C
100
AcDbEntity
  8
Sichtbar MD
100
AcDbVertex
100
AcDb2dVertex
 10
213.6902174097731
 20
124.9854510966229
 30
0.0
  0
VERTEX
  5
283
330
26C
100
AcDbEntity
  8
Sichtbar MD
100
AcDbVertex
100
AcDb2dVertex
 10
213.7108069402411
 20
125.0832563582348
 30
0.0
  0
VERTEX
  5
284
330
26C
100
AcDbEntity
  8
Sichtbar MD
100
AcDbVertex
100
AcDb2dVertex
 10
213.7324449164107
 20
125.1816111746716
 30
0.0
  0
VERTEX
  5
285
330
26C
100
AcDbEntity
  8
Sichtbar MD
100
AcDbVertex
100
AcDb2dVertex
 10
213.7551411730483
 20
125.2805542889523
 30
0.0
  0
VERTEX
  5
286
330
26C
100
AcDbEntity
  8
Sichtbar MD
100
AcDbVertex
100
AcDb2dVertex
 10
213.7789061409667
 20
125.3801232520031
 30
0.0
  0
SEQEND
  5
26F
330
26C
100
AcDbEntity
  8
Sichtbar MD
  0
LINE
  5
287
330
75
100
AcDbEntity
  8
Sichtbar MD
100
AcDbLine
 10
213.7789060627014
 20
126.4638351145672
 30
0.0
 11
213.7789060627014
 21
125.3801229620451
 31
0.0
  0
LINE
  5
288
330
75
100
AcDbEntity
  8
Sichtbar MD
100
AcDbLine
 10
213.4902310115531
 20
112.9638349953579
 30
0.0
 11
213.7789061409667
 21
112.9638349953579
 31
0.0
  0
LINE
  5
289
330
75
100
AcDbEntity
  8
Sichtbar MD
100
AcDbLine
 10
213.7789060627014
 20
114.0475472670893
 30
0.0
 11
213.7789060627014
 21
112.9638351145672
 31
0.0
  0
POLYLINE
  5
28A
330
75
100
AcDbEntity
  8
Sichtbar MD
100
AcDb2dPolyline
 66
     1
 10
0.0
 20
0.0
 30
0.0
 70
   128
  0
VERTEX
  5
28B
330
28A
100
AcDbEntity
  8
Sichtbar MD
100
AcDbVertex
100
AcDb2dVertex
 10
213.7789061409667
 20
114.0475469771313
 30
0.0
  0
VERTEX
  5
28C
330
28A
100
AcDbEntity
  8
Sichtbar MD
100
AcDbVertex
100
AcDb2dVertex
 10
213.7551411730483
 20
114.1471159401821
 30
0.0
  0
VERTEX
  5
28E
330
28A
100
AcDbEntity
  8
Sichtbar MD
100
AcDbVertex
100
AcDb2dVertex
 10
213.7324449164107
 20
114.2460590544628
 30
0.0
  0
VERTEX
  5
28F
330
28A
100
AcDbEntity
  8
Sichtbar MD
100
AcDbVertex
100
AcDb2dVertex
 10
213.7108069402411
 20
114.3444138708996
 30
0.0
  0
VERTEX
  5
290
330
28A
100
AcDbEntity
  8
Sichtbar MD
100
AcDbVertex
100
AcDb2dVertex
 10
213.6902174097731
 20
114.4422191325116
 30
0.0
  0
VERTEX
  5
291
330
28A
100
AcDbEntity
  8
Sichtbar MD
100
AcDbVertex
100
AcDb2dVertex
 10
213.6706667882636
 20
114.5395129862713
 30
0.0
  0
VERTEX
  5
292
330
28A
100
AcDbEntity
  8
Sichtbar MD
100
AcDbVertex
100
AcDb2dVertex
 10
213.6521473271086
 20
114.6363317910122
 30
0.0
  0
VERTEX
  5
293
330
28A
100
AcDbEntity
  8
Sichtbar MD
100
AcDbVertex
100
AcDb2dVertex
 10
213.6346512777045
 20
114.7327122035908
 30
0.0
  0
VERTEX
  5
294
330
28A
100
AcDbEntity
  8
Sichtbar MD
100
AcDbVertex
100
AcDb2dVertex
 10
213.6181720835402
 20
114.8286911788868
 30
0.0
  0
VERTEX
  5
295
330
28A
100
AcDbEntity
  8
Sichtbar MD
100
AcDbVertex
100
AcDb2dVertex
 10
213.6027034861281
 20
114.9243050757336
 30
0.0
  0
VERTEX
  5
296
330
28A
100
AcDbEntity
  8
Sichtbar MD
100
AcDbVertex
100
AcDb2dVertex
 10
213.5882407170966
 20
115.0195890608715
 30
0.0
  0
VERTEX
  5
297
330
28A
100
AcDbEntity
  8
Sichtbar MD
100
AcDbVertex
100
AcDb2dVertex
 10
213.5747790080741
 20
115.1145791951107
 30
0.0
  0
VERTEX
  5
298
330
28A
100
AcDbEntity
  8
Sichtbar MD
100
AcDbVertex
100
AcDb2dVertex
 10
213.5623147827819
 20
115.209311241238
 30
0.0
  0
VERTEX
  5
299
330
28A
100
AcDbEntity
  8
Sichtbar MD
100
AcDbVertex
100
AcDb2dVertex
 10
213.5508450609878
 20
115.3038200679707
 30
0.0
  0
VERTEX
  5
29A
330
28A
100
AcDbEntity
  8
Sichtbar MD
100
AcDbVertex
100
AcDb2dVertex
 10
213.5403677565291
 20
115.3981411400723
 30
0.0
  0
VERTEX
  5
29B
330
28A
100
AcDbEntity
  8
Sichtbar MD
100
AcDbVertex
100
AcDb2dVertex
 10
213.5308813792899
 20
115.4923099223065
 30
0.0
  0
VERTEX
  5
29C
330
28A
100
AcDbEntity
  8
Sichtbar MD
100
AcDbVertex
100
AcDb2dVertex
 10
213.5223853332236
 20
115.5863615814137
 30
0.0
  0
VERTEX
  5
29D
330
28A
100
AcDbEntity
  8
Sichtbar MD
100
AcDbVertex
100
AcDb2dVertex
 10
213.514879320307
 20
115.6803315821575
 30
0.0
  0
VERTEX
  5
29E
330
28A
100
AcDbEntity
  8
Sichtbar MD
100
AcDbVertex
100
AcDb2dVertex
 10
213.5083645326331
 20
115.7742553893017
 30
0.0
  0
VERTEX
  5
29F
330
28A
100
AcDbEntity
  8
Sichtbar MD
100
AcDbVertex
100
AcDb2dVertex
 10
213.5028424603179
 20
115.8681681695866
 30
0.0
  0
VERTEX
  5
2A0
330
28A
100
AcDbEntity
  8
Sichtbar MD
100
AcDbVertex
100
AcDb2dVertex
 10
213.4983154875472
 20
115.9621062818455
 30
0.0
  0
VERTEX
  5
2A1
330
28A
100
AcDbEntity
  8
Sichtbar MD
100
AcDbVertex
100
AcDb2dVertex
 10
213.49478629653
 20
116.0561054888653
 30
0.0
  0
VERTEX
  5
2A2
330
28A
100
AcDbEntity
  8
Sichtbar MD
100
AcDbVertex
100
AcDb2dVertex
 10
213.4922593576148
 20
116.1502021494793
 30
0.0
  0
VERTEX
  5
2A3
330
28A
100
AcDbEntity
  8
Sichtbar MD
100
AcDbVertex
100
AcDb2dVertex
 10
213.4907391411498
 20
116.2444329205441
 30
0.0
  0
VERTEX
  5
2A4
330
28A
100
AcDbEntity
  8
Sichtbar MD
100
AcDbVertex
100
AcDb2dVertex
 10
213.4902310115531
 20
116.3388350549626
 30
0.0
  0
SEQEND
  5
28D
330
28A
100
AcDbEntity
  8
Sichtbar MD
  0
POLYLINE
  5
2A5
330
75
100
AcDbEntity
  8
Sichtbar MD
100
AcDb2dPolyline
 66
     1
 10
0.0
 20
0.0
 30
0.0
 70
   128
  0
VERTEX
  5
2A6
330
2A5
100
AcDbEntity
  8
Sichtbar MD
100
AcDbVertex
100
AcDb2dVertex
 10
219.0515556675627
 20
118.6301229837822
 30
0.0
  0
VERTEX
  5
2A7
330
2A5
100
AcDbEntity
  8
Sichtbar MD
100
AcDbVertex
100
AcDb2dVertex
 10
219.0753212315276
 20
118.5305540207314
 30
0.0
  0
VERTEX
  5
2A9
330
2A5
100
AcDbEntity
  8
Sichtbar MD
100
AcDbVertex
100
AcDb2dVertex
 10
219.0980174881651
 20
118.4316113534855
 30
0.0
  0
VERTEX
  5
2AA
330
2A5
100
AcDbEntity
  8
Sichtbar MD
100
AcDbVertex
100
AcDb2dVertex
 10
219.1196551663115
 20
118.3332563880371
 30
0.0
  0
VERTEX
  5
2AB
330
2A5
100
AcDbEntity
  8
Sichtbar MD
100
AcDbVertex
100
AcDb2dVertex
 10
219.1402449948027
 20
118.235450828402
 30
0.0
  0
VERTEX
  5
2AC
330
2A5
100
AcDbEntity
  8
Sichtbar MD
100
AcDbVertex
100
AcDb2dVertex
 10
219.1597953182891
 20
118.138157421677
 30
0.0
  0
VERTEX
  5
2AD
330
2A5
100
AcDbEntity
  8
Sichtbar MD
100
AcDbVertex
100
AcDb2dVertex
 10
219.1783144814208
 20
118.0413387659478
 30
0.0
  0
VERTEX
  5
2AE
330
2A5
100
AcDbEntity
  8
Sichtbar MD
100
AcDbVertex
100
AcDb2dVertex
 10
219.1958108288481
 20
117.9449580553459
 30
0.0
  0
VERTEX
  5
2AF
330
2A5
100
AcDbEntity
  8
Sichtbar MD
100
AcDbVertex
100
AcDb2dVertex
 10
219.2122903210357
 20
117.8489789310383
 30
0.0
  0
VERTEX
  5
2B0
330
2A5
100
AcDbEntity
  8
Sichtbar MD
100
AcDbVertex
100
AcDb2dVertex
 10
219.2277589184477
 20
117.7533653322148
 30
0.0
  0
VERTEX
  5
2B1
330
2A5
100
AcDbEntity
  8
Sichtbar MD
100
AcDbVertex
100
AcDb2dVertex
 10
219.2422213894561
 20
117.6580811980652
 30
0.0
  0
VERTEX
  5
2B2
330
2A5
100
AcDbEntity
  8
Sichtbar MD
100
AcDbVertex
100
AcDb2dVertex
 10
219.2556825024321
 20
117.5630909148144
 30
0.0
  0
VERTEX
  5
2B3
330
2A5
100
AcDbEntity
  8
Sichtbar MD
100
AcDbVertex
100
AcDb2dVertex
 10
219.2681470257475
 20
117.4683590176987
 30
0.0
  0
VERTEX
  5
2B4
330
2A5
100
AcDbEntity
  8
Sichtbar MD
100
AcDbVertex
100
AcDb2dVertex
 10
219.2796173435882
 20
117.3738501909661
 30
0.0
  0
VERTEX
  5
2B5
330
2A5
100
AcDbEntity
  8
Sichtbar MD
100
AcDbVertex
100
AcDb2dVertex
 10
219.2900946480468
 20
117.2795289698528
 30
0.0
  0
VERTEX
  5
2B6
330
2A5
100
AcDbEntity
  8
Sichtbar MD
100
AcDbVertex
100
AcDb2dVertex
 10
219.2995801312163
 20
117.1853601876187
 30
0.0
  0
VERTEX
  5
2B7
330
2A5
100
AcDbEntity
  8
Sichtbar MD
100
AcDbVertex
100
AcDb2dVertex
 10
219.3080761772826
 20
117.0913085285115
 30
0.0
  0
VERTEX
  5
2B8
330
2A5
100
AcDbEntity
  8
Sichtbar MD
100
AcDbVertex
100
AcDb2dVertex
 10
219.3155827862456
 20
116.9973385277676
 30
0.0
  0
VERTEX
  5
2B9
330
2A5
100
AcDbEntity
  8
Sichtbar MD
100
AcDbVertex
100
AcDb2dVertex
 10
219.3220975739196
 20
116.9034150186466
 30
0.0
  0
VERTEX
  5
2BA
330
2A5
100
AcDbEntity
  8
Sichtbar MD
100
AcDbVertex
100
AcDb2dVertex
 10
219.3276193482116
 20
116.8095019403385
 30
0.0
  0
VERTEX
  5
2BB
330
2A5
100
AcDbEntity
  8
Sichtbar MD
100
AcDbVertex
100
AcDb2dVertex
 10
219.3321469170287
 20
116.7155638280796
 30
0.0
  0
VERTEX
  5
2BC
330
2A5
100
AcDbEntity
  8
Sichtbar MD
100
AcDbVertex
100
AcDb2dVertex
 10
219.3356755119994
 20
116.6215646210598
 30
0.0
  0
VERTEX
  5
2BD
330
2A5
100
AcDbEntity
  8
Sichtbar MD
100
AcDbVertex
100
AcDb2dVertex
 10
219.3382027489379
 20
116.5274679604458
 30
0.0
  0
VERTEX
  5
2BE
330
2A5
100
AcDbEntity
  8
Sichtbar MD
100
AcDbVertex
100
AcDb2dVertex
 10
219.3397226673797
 20
116.4332371893811
 30
0.0
  0
VERTEX
  5
2BF
330
2A5
100
AcDbEntity
  8
Sichtbar MD
100
AcDbVertex
100
AcDb2dVertex
 10
219.3402304989531
 20
116.3388350549626
 30
0.0
  0
SEQEND
  5
2A8
330
2A5
100
AcDbEntity
  8
Sichtbar MD
  0
LINE
  5
2C0
330
75
100
AcDbEntity
  8
Sichtbar MD
100
AcDbLine
 10
219.3402309281065
 20
116.3388351145672
 30
0.0
 11
219.3402309281065
 21
117.8767178074798
 31
0.0
  0
LINE
  5
2C1
330
75
100
AcDbEntity
  8
Sichtbar MD
100
AcDbLine
 10
219.3402309281065
 20
121.5509524216546
 30
0.0
 11
219.3402309281065
 21
123.0888351145672
 31
0.0
  0
POLYLINE
  5
2C2
330
75
100
AcDbEntity
  8
Sichtbar MD
100
AcDb2dPolyline
 66
     1
 10
0.0
 20
0.0
 30
0.0
 70
   128
  0
VERTEX
  5
2C3
330
2C2
100
AcDbEntity
  8
Sichtbar MD
100
AcDbVertex
100
AcDb2dVertex
 10
219.3402304989531
 20
123.0888351741719
 30
0.0
  0
VERTEX
  5
2C4
330
2C2
100
AcDbEntity
  8
Sichtbar MD
100
AcDbVertex
100
AcDb2dVertex
 10
219.3397226673797
 20
122.9944330397534
 30
0.0
  0
VERTEX
  5
2C6
330
2C2
100
AcDbEntity
  8
Sichtbar MD
100
AcDbVertex
100
AcDb2dVertex
 10
219.3382027489379
 20
122.9002022686886
 30
0.0
  0
VERTEX
  5
2C7
330
2C2
100
AcDbEntity
  8
Sichtbar MD
100
AcDbVertex
100
AcDb2dVertex
 10
219.3356755119994
 20
122.8061056080746
 30
0.0
  0
VERTEX
  5
2C8
330
2C2
100
AcDbEntity
  8
Sichtbar MD
100
AcDbVertex
100
AcDb2dVertex
 10
219.3321469170287
 20
122.7121064010548
 30
0.0
  0
VERTEX
  5
2C9
330
2C2
100
AcDbEntity
  8
Sichtbar MD
100
AcDbVertex
100
AcDb2dVertex
 10
219.3276193482116
 20
122.6181682887959
 30
0.0
  0
VERTEX
  5
2CA
330
2C2
100
AcDbEntity
  8
Sichtbar MD
100
AcDbVertex
100
AcDb2dVertex
 10
219.3220975739196
 20
122.5242552104878
 30
0.0
  0
VERTEX
  5
2CB
330
2C2
100
AcDbEntity
  8
Sichtbar MD
100
AcDbVertex
100
AcDb2dVertex
 10
219.3155827862456
 20
122.4303317013668
 30
0.0
  0
VERTEX
  5
2CC
330
2C2
100
AcDbEntity
  8
Sichtbar MD
100
AcDbVertex
100
AcDb2dVertex
 10
219.3080761772826
 20
122.336361700623
 30
0.0
  0
VERTEX
  5
2CD
330
2C2
100
AcDbEntity
  8
Sichtbar MD
100
AcDbVertex
100
AcDb2dVertex
 10
219.2995801312163
 20
122.2423100415158
 30
0.0
  0
VERTEX
  5
2CE
330
2C2
100
AcDbEntity
  8
Sichtbar MD
100
AcDbVertex
100
AcDb2dVertex
 10
219.2900946480468
 20
122.1481412592816
 30
0.0
  0
VERTEX
  5
2CF
330
2C2
100
AcDbEntity
  8
Sichtbar MD
100
AcDbVertex
100
AcDb2dVertex
 10
219.2796173435882
 20
122.0538200381684
 30
0.0
  0
VERTEX
  5
2D0
330
2C2
100
AcDbEntity
  8
Sichtbar MD
100
AcDbVertex
100
AcDb2dVertex
 10
219.2681470257475
 20
121.9593112114357
 30
0.0
  0
VERTEX
  5
2D1
330
2C2
100
AcDbEntity
  8
Sichtbar MD
100
AcDbVertex
100
AcDb2dVertex
 10
219.2556825024321
 20
121.86457931432
 30
0.0
  0
VERTEX
  5
2D2
330
2C2
100
AcDbEntity
  8
Sichtbar MD
100
AcDbVertex
100
AcDb2dVertex
 10
219.2422213894561
 20
121.7695890310692
 30
0.0
  0
VERTEX
  5
2D3
330
2C2
100
AcDbEntity
  8
Sichtbar MD
100
AcDbVertex
100
AcDb2dVertex
 10
219.2277589184477
 20
121.6743048969197
 30
0.0
  0
VERTEX
  5
2D4
330
2C2
100
AcDbEntity
  8
Sichtbar MD
100
AcDbVertex
100
AcDb2dVertex
 10
219.2122903210357
 20
121.5786912980961
 30
0.0
  0
VERTEX
  5
2D5
330
2C2
100
AcDbEntity
  8
Sichtbar MD
100
AcDbVertex
100
AcDb2dVertex
 10
219.1958108288481
 20
121.4827121737885
 30
0.0
  0
VERTEX
  5
2D6
330
2C2
100
AcDbEntity
  8
Sichtbar MD
100
AcDbVertex
100
AcDb2dVertex
 10
219.1783144814208
 20
121.3863314631867
 30
0.0
  0
VERTEX
  5
2D7
330
2C2
100
AcDbEntity
  8
Sichtbar MD
100
AcDbVertex
100
AcDb2dVertex
 10
219.1597953182891
 20
121.2895128074574
 30
0.0
  0
VERTEX
  5
2D8
330
2C2
100
AcDbEntity
  8
Sichtbar MD
100
AcDbVertex
100
AcDb2dVertex
 10
219.1402449948027
 20
121.1922194007325
 30
0.0
  0
VERTEX
  5
2D9
330
2C2
100
AcDbEntity
  8
Sichtbar MD
100
AcDbVertex
100
AcDb2dVertex
 10
219.1196551663115
 20
121.0944138410973
 30
0.0
  0
VERTEX
  5
2DA
330
2C2
100
AcDbEntity
  8
Sichtbar MD
100
AcDbVertex
100
AcDb2dVertex
 10
219.0980174881651
 20
120.9960588756489
 30
0.0
  0
VERTEX
  5
2DB
330
2C2
100
AcDbEntity
  8
Sichtbar MD
100
AcDbVertex
100
AcDb2dVertex
 10
219.0753212315276
 20
120.897116208403
 30
0.0
  0
VERTEX
  5
2DC
330
2C2
100
AcDbEntity
  8
Sichtbar MD
100
AcDbVertex
100
AcDb2dVertex
 10
219.0515556675627
 20
120.7975472453522
 30
0.0
  0
SEQEND
  5
2C5
330
2C2
100
AcDbEntity
  8
Sichtbar MD
  0
LINE
  5
2DD
330
75
100
AcDbEntity
  8
Sichtbar MD
100
AcDbLine
 10
219.0515557935118
 20
118.6301229620451
 30
0.0
 11
219.0515557935118
 21
120.7975472670893
 31
0.0
  0
LINE
  5
2DE
330
75
100
AcDbEntity
  8
Sichtbar MD
100
AcDbLine
 10
219.0515556675627
 20
112.9638349953579
 30
0.0
 11
219.3402304989531
 21
112.9638349953579
 31
0.0
  0
LINE
  5
2DF
330
75
100
AcDbEntity
  8
Sichtbar MD
100
AcDbLine
 10
219.3402309281065
 20
112.9638351145672
 30
0.0
 11
219.3402309281065
 21
113.1702764610235
 31
0.0
  0
LINE
  5
2E0
330
75
100
AcDbEntity
  8
Sichtbar MD
100
AcDbLine
 10
219.3402309281065
 20
115.0073937681109
 30
0.0
 11
219.3402309281065
 21
116.3388351145672
 31
0.0
  0
POLYLINE
  5
2E1
330
75
100
AcDbEntity
  8
Sichtbar MD
100
AcDb2dPolyline
 66
     1
 10
0.0
 20
0.0
 30
0.0
 70
   128
  0
VERTEX
  5
2E2
330
2E1
100
AcDbEntity
  8
Sichtbar MD
100
AcDbVertex
100
AcDb2dVertex
 10
219.3402304989531
 20
116.3388350549626
 30
0.0
  0
VERTEX
  5
2E3
330
2E1
100
AcDbEntity
  8
Sichtbar MD
100
AcDbVertex
100
AcDb2dVertex
 10
219.3397226673797
 20
116.2444329205441
 30
0.0
  0
VERTEX
  5
2E5
330
2E1
100
AcDbEntity
  8
Sichtbar MD
100
AcDbVertex
100
AcDb2dVertex
 10
219.3382027489379
 20
116.1502021494793
 30
0.0
  0
VERTEX
  5
2E6
330
2E1
100
AcDbEntity
  8
Sichtbar MD
100
AcDbVertex
100
AcDb2dVertex
 10
219.3356755119994
 20
116.0561054888653
 30
0.0
  0
VERTEX
  5
2E7
330
2E1
100
AcDbEntity
  8
Sichtbar MD
100
AcDbVertex
100
AcDb2dVertex
 10
219.3321469170287
 20
115.9621062818455
 30
0.0
  0
VERTEX
  5
2E8
330
2E1
100
AcDbEntity
  8
Sichtbar MD
100
AcDbVertex
100
AcDb2dVertex
 10
219.3276193482116
 20
115.8681681695866
 30
0.0
  0
VERTEX
  5
2E9
330
2E1
100
AcDbEntity
  8
Sichtbar MD
100
AcDbVertex
100
AcDb2dVertex
 10
219.3220975739196
 20
115.7742553893017
 30
0.0
  0
VERTEX
  5
2EA
330
2E1
100
AcDbEntity
  8
Sichtbar MD
100
AcDbVertex
100
AcDb2dVertex
 10
219.3155827862456
 20
115.6803315821575
 30
0.0
  0
VERTEX
  5
2EB
330
2E1
100
AcDbEntity
  8
Sichtbar MD
100
AcDbVertex
100
AcDb2dVertex
 10
219.3080761772826
 20
115.5863615814137
 30
0.0
  0
VERTEX
  5
2EC
330
2E1
100
AcDbEntity
  8
Sichtbar MD
100
AcDbVertex
100
AcDb2dVertex
 10
219.2995801312163
 20
115.4923099223065
 30
0.0
  0
VERTEX
  5
2ED
330
2E1
100
AcDbEntity
  8
Sichtbar MD
100
AcDbVertex
100
AcDb2dVertex
 10
219.2900946480468
 20
115.3981411400723
 30
0.0
  0
VERTEX
  5
2EE
330
2E1
100
AcDbEntity
  8
Sichtbar MD
100
AcDbVertex
100
AcDb2dVertex
 10
219.2796173435882
 20
115.3038200679707
 30
0.0
  0
VERTEX
  5
2EF
330
2E1
100
AcDbEntity
  8
Sichtbar MD
100
AcDbVertex
100
AcDb2dVertex
 10
219.2681470257475
 20
115.209311241238
 30
0.0
  0
VERTEX
  5
2F0
330
2E1
100
AcDbEntity
  8
Sichtbar MD
100
AcDbVertex
100
AcDb2dVertex
 10
219.2556825024321
 20
115.1145791951107
 30
0.0
  0
VERTEX
  5
2F1
330
2E1
100
AcDbEntity
  8
Sichtbar MD
100
AcDbVertex
100
AcDb2dVertex
 10
219.2422213894561
 20
115.0195890608715
 30
0.0
  0
VERTEX
  5
2F2
330
2E1
100
AcDbEntity
  8
Sichtbar MD
100
AcDbVertex
100
AcDb2dVertex
 10
219.2277589184477
 20
114.9243050757336
 30
0.0
  0
VERTEX
  5
2F3
330
2E1
100
AcDbEntity
  8
Sichtbar MD
100
AcDbVertex
100
AcDb2dVertex
 10
219.2122903210357
 20
114.8286911788868
 30
0.0
  0
VERTEX
  5
2F4
330
2E1
100
AcDbEntity
  8
Sichtbar MD
100
AcDbVertex
100
AcDb2dVertex
 10
219.1958108288481
 20
114.7327122035908
 30
0.0
  0
VERTEX
  5
2F5
330
2E1
100
AcDbEntity
  8
Sichtbar MD
100
AcDbVertex
100
AcDb2dVertex
 10
219.1783144814208
 20
114.6363317910122
 30
0.0
  0
VERTEX
  5
2F6
330
2E1
100
AcDbEntity
  8
Sichtbar MD
100
AcDbVertex
100
AcDb2dVertex
 10
219.1597953182891
 20
114.5395129862713
 30
0.0
  0
VERTEX
  5
2F7
330
2E1
100
AcDbEntity
  8
Sichtbar MD
100
AcDbVertex
100
AcDb2dVertex
 10
219.1402449948027
 20
114.4422191325116
 30
0.0
  0
VERTEX
  5
2F8
330
2E1
100
AcDbEntity
  8
Sichtbar MD
100
AcDbVertex
100
AcDb2dVertex
 10
219.1196551663115
 20
114.3444138708996
 30
0.0
  0
VERTEX
  5
2F9
330
2E1
100
AcDbEntity
  8
Sichtbar MD
100
AcDbVertex
100
AcDb2dVertex
 10
219.0980174881651
 20
114.2460590544628
 30
0.0
  0
VERTEX
  5
2FA
330
2E1
100
AcDbEntity
  8
Sichtbar MD
100
AcDbVertex
100
AcDb2dVertex
 10
219.0753212315276
 20
114.1471159401821
 30
0.0
  0
VERTEX
  5
2FB
330
2E1
100
AcDbEntity
  8
Sichtbar MD
100
AcDbVertex
100
AcDb2dVertex
 10
219.0515556675627
 20
114.0475469771313
 30
0.0
  0
SEQEND
  5
2E4
330
2E1
100
AcDbEntity
  8
Sichtbar MD
  0
LINE
  5
2FC
330
75
100
AcDbEntity
  8
Sichtbar MD
100
AcDbLine
 10
219.0515557935118
 20
112.9638351145672
 30
0.0
 11
219.0515557935118
 21
114.0475472670893
 31
0.0
  0
LINE
  5
2FD
330
75
100
AcDbEntity
  8
Sichtbar MD
100
AcDbLine
 10
219.3402304989531
 20
126.4638352337765
 30
0.0
 11
219.0515556675627
 21
126.4638352337765
 31
0.0
  0
LINE
  5
2FE
330
75
100
AcDbEntity
  8
Sichtbar MD
100
AcDbLine
 10
219.0515557935118
 20
125.3801229620451
 30
0.0
 11
219.0515557935118
 21
126.4638351145672
 31
0.0
  0
POLYLINE
  5
2FF
330
75
100
AcDbEntity
  8
Sichtbar MD
100
AcDb2dPolyline
 66
     1
 10
0.0
 20
0.0
 30
0.0
 70
   128
  0
VERTEX
  5
300
330
2FF
100
AcDbEntity
  8
Sichtbar MD
100
AcDbVertex
100
AcDb2dVertex
 10
219.0515556675627
 20
125.3801232520031
 30
0.0
  0
VERTEX
  5
301
330
2FF
100
AcDbEntity
  8
Sichtbar MD
100
AcDbVertex
100
AcDb2dVertex
 10
219.0753212315276
 20
125.2805542889523
 30
0.0
  0
VERTEX
  5
303
330
2FF
100
AcDbEntity
  8
Sichtbar MD
100
AcDbVertex
100
AcDb2dVertex
 10
219.0980174881651
 20
125.1816111746716
 30
0.0
  0
VERTEX
  5
304
330
2FF
100
AcDbEntity
  8
Sichtbar MD
100
AcDbVertex
100
AcDb2dVertex
 10
219.1196551663115
 20
125.0832563582348
 30
0.0
  0
VERTEX
  5
305
330
2FF
100
AcDbEntity
  8
Sichtbar MD
100
AcDbVertex
100
AcDb2dVertex
 10
219.1402449948027
 20
124.9854510966229
 30
0.0
  0
VERTEX
  5
306
330
2FF
100
AcDbEntity
  8
Sichtbar MD
100
AcDbVertex
100
AcDb2dVertex
 10
219.1597953182891
 20
124.8881572428631
 30
0.0
  0
VERTEX
  5
307
330
2FF
100
AcDbEntity
  8
Sichtbar MD
100
AcDbVertex
100
AcDb2dVertex
 10
219.1783144814208
 20
124.7913384381222
 30
0.0
  0
VERTEX
  5
308
330
2FF
100
AcDbEntity
  8
Sichtbar MD
100
AcDbVertex
100
AcDb2dVertex
 10
219.1958108288481
 20
124.6949580255436
 30
0.0
  0
VERTEX
  5
309
330
2FF
100
AcDbEntity
  8
Sichtbar MD
100
AcDbVertex
100
AcDb2dVertex
 10
219.2122903210357
 20
124.5989790502476
 30
0.0
  0
VERTEX
  5
30A
330
2FF
100
AcDbEntity
  8
Sichtbar MD
100
AcDbVertex
100
AcDb2dVertex
 10
219.2277589184477
 20
124.5033651534008
 30
0.0
  0
VERTEX
  5
30B
330
2FF
100
AcDbEntity
  8
Sichtbar MD
100
AcDbVertex
100
AcDb2dVertex
 10
219.2422213894561
 20
124.4080811682629
 30
0.0
  0
VERTEX
  5
30C
330
2FF
100
AcDbEntity
  8
Sichtbar MD
100
AcDbVertex
100
AcDb2dVertex
 10
219.2556825024321
 20
124.3130910340237
 30
0.0
  0
VERTEX
  5
30D
330
2FF
100
AcDbEntity
  8
Sichtbar MD
100
AcDbVertex
100
AcDb2dVertex
 10
219.2681470257475
 20
124.2183589878964
 30
0.0
  0
VERTEX
  5
30E
330
2FF
100
AcDbEntity
  8
Sichtbar MD
100
AcDbVertex
100
AcDb2dVertex
 10
219.2796173435882
 20
124.1238501611637
 30
0.0
  0
VERTEX
  5
30F
330
2FF
100
AcDbEntity
  8
Sichtbar MD
100
AcDbVertex
100
AcDb2dVertex
 10
219.2900946480468
 20
124.0295290890621
 30
0.0
  0
VERTEX
  5
310
330
2FF
100
AcDbEntity
  8
Sichtbar MD
100
AcDbVertex
100
AcDb2dVertex
 10
219.2995801312163
 20
123.9353603068279
 30
0.0
  0
VERTEX
  5
311
330
2FF
100
AcDbEntity
  8
Sichtbar MD
100
AcDbVertex
100
AcDb2dVertex
 10
219.3080761772826
 20
123.8413086477207
 30
0.0
  0
VERTEX
  5
312
330
2FF
100
AcDbEntity
  8
Sichtbar MD
100
AcDbVertex
100
AcDb2dVertex
 10
219.3155827862456
 20
123.7473386469769
 30
0.0
  0
VERTEX
  5
313
330
2FF
100
AcDbEntity
  8
Sichtbar MD
100
AcDbVertex
100
AcDb2dVertex
 10
219.3220975739196
 20
123.6534148398327
 30
0.0
  0
VERTEX
  5
314
330
2FF
100
AcDbEntity
  8
Sichtbar MD
100
AcDbVertex
100
AcDb2dVertex
 10
219.3276193482116
 20
123.5595020595478
 30
0.0
  0
VERTEX
  5
315
330
2FF
100
AcDbEntity
  8
Sichtbar MD
100
AcDbVertex
100
AcDb2dVertex
 10
219.3321469170287
 20
123.4655639472889
 30
0.0
  0
VERTEX
  5
316
330
2FF
100
AcDbEntity
  8
Sichtbar MD
100
AcDbVertex
100
AcDb2dVertex
 10
219.3356755119994
 20
123.3715647402691
 30
0.0
  0
VERTEX
  5
317
330
2FF
100
AcDbEntity
  8
Sichtbar MD
100
AcDbVertex
100
AcDb2dVertex
 10
219.3382027489379
 20
123.2774680796551
 30
0.0
  0
VERTEX
  5
318
330
2FF
100
AcDbEntity
  8
Sichtbar MD
100
AcDbVertex
100
AcDb2dVertex
 10
219.3397226673797
 20
123.1832373085903
 30
0.0
  0
VERTEX
  5
319
330
2FF
100
AcDbEntity
  8
Sichtbar MD
100
AcDbVertex
100
AcDb2dVertex
 10
219.3402304989531
 20
123.0888351741719
 30
0.0
  0
SEQEND
  5
302
330
2FF
100
AcDbEntity
  8
Sichtbar MD
  0
LINE
  5
31A
330
75
100
AcDbEntity
  8
Sichtbar MD
100
AcDbLine
 10
219.3402309281065
 20
123.0888351145672
 30
0.0
 11
219.3402309281065
 21
124.4202764610235
 31
0.0
  0
LINE
  5
31B
330
75
100
AcDbEntity
  8
Sichtbar MD
100
AcDbLine
 10
219.3402309281065
 20
126.2573937681109
 30
0.0
 11
219.3402309281065
 21
126.4638351145672
 31
0.0
  0
LINE
  5
31C
330
75
100
AcDbEntity
  8
Sichtbar MD
100
AcDbLine
 10
219.0515557935118
 20
126.4638351145672
 30
0.0
 11
213.7789060627014
 21
126.4638351145672
 31
0.0
  0
LINE
  5
31D
330
75
100
AcDbEntity
  8
Sichtbar MD
100
AcDbLine
 10
213.7789060627014
 20
125.3801229620451
 30
0.0
 11
219.0515557935118
 21
125.3801229620451
 31
0.0
  0
LINE
  5
31E
330
75
100
AcDbEntity
  8
Sichtbar MD
100
AcDbLine
 10
219.0515557935118
 20
120.7975472670893
 30
0.0
 11
213.7789060627014
 21
120.7975472670893
 31
0.0
  0
LINE
  5
31F
330
75
100
AcDbEntity
  8
Sichtbar MD
100
AcDbLine
 10
213.7789060627014
 20
118.6301229620451
 30
0.0
 11
219.0515557935118
 21
118.6301229620451
 31
0.0
  0
LINE
  5
320
330
75
100
AcDbEntity
  8
Sichtbar MD
100
AcDbLine
 10
213.7789060627014
 20
112.9638351145672
 30
0.0
 11
219.0515557935118
 21
112.9638351145672
 31
0.0
  0
LINE
  5
321
330
75
100
AcDbEntity
  8
Sichtbar MD
100
AcDbLine
 10
219.0515557935118
 20
114.0475472670893
 30
0.0
 11
213.7789060627014
 21
114.0475472670893
 31
0.0
  0
LINE
  5
322
330
75
100
AcDbEntity
  8
Sichtbar MD
100
AcDbLine
 10
232.5902309281066
 20
113.5388351145672
 30
0.0
 11
232.5902309281066
 21
125.8888351145672
 31
0.0
  0
LINE
  5
323
330
75
100
AcDbEntity
  8
Sichtbar MD
100
AcDbLine
 10
232.9152309281066
 20
113.2138351145672
 30
0.0
 11
232.9152309281066
 21
126.2138351145672
 31
0.0
  0
LINE
  5
324
330
75
100
AcDbEntity
  8
Sichtbar MD
100
AcDbLine
 10
234.1902309281066
 20
113.5388351145672
 30
0.0
 11
234.1902309281066
 21
125.8888351145672
 31
0.0
  0
LINE
  5
325
330
75
100
AcDbEntity
  8
Sichtbar MD
100
AcDbLine
 10
219.3402309281065
 20
126.2573937681109
 30
0.0
 11
231.4902309281066
 21
126.2573937681109
 31
0.0
  0
LINE
  5
326
330
75
100
AcDbEntity
  8
Sichtbar MD
100
AcDbLine
 10
231.4902309281066
 20
126.4638351145672
 30
0.0
 11
231.4902309281066
 21
126.2573937681109
 31
0.0
  0
LINE
  5
327
330
75
100
AcDbEntity
  8
Sichtbar MD
100
AcDbLine
 10
231.4902309281066
 20
113.1702764610235
 30
0.0
 11
219.3402309281065
 21
113.1702764610235
 31
0.0
  0
LINE
  5
328
330
75
100
AcDbEntity
  8
Sichtbar MD
100
AcDbLine
 10
231.4902309281066
 20
113.1702764610235
 30
0.0
 11
231.4902309281066
 21
112.9638351145672
 31
0.0
  0
LINE
  5
329
330
75
100
AcDbEntity
  8
Sichtbar MD
100
AcDbLine
 10
219.3402309281065
 20
121.5509524216546
 30
0.0
 11
231.4902309281066
 21
121.5509524216546
 31
0.0
  0
LINE
  5
32A
330
75
100
AcDbEntity
  8
Sichtbar MD
100
AcDbLine
 10
231.4902309281066
 20
124.4202764610235
 30
0.0
 11
231.4902309281066
 21
121.5509524216546
 31
0.0
  0
LINE
  5
32B
330
75
100
AcDbEntity
  8
Sichtbar MD
100
AcDbLine
 10
231.4902309281066
 20
124.4202764610235
 30
0.0
 11
219.3402309281065
 21
124.4202764610235
 31
0.0
  0
LINE
  5
32C
330
75
100
AcDbEntity
  8
Sichtbar MD
100
AcDbLine
 10
231.4902309281066
 20
117.8767178074798
 30
0.0
 11
219.3402309281065
 21
117.8767178074798
 31
0.0
  0
LINE
  5
32D
330
75
100
AcDbEntity
  8
Sichtbar MD
100
AcDbLine
 10
219.3402309281065
 20
115.0073937681109
 30
0.0
 11
231.4902309281066
 21
115.0073937681109
 31
0.0
  0
LINE
  5
32E
330
75
100
AcDbEntity
  8
Sichtbar MD
100
AcDbLine
 10
231.4902309281066
 20
117.8767178074798
 30
0.0
 11
231.4902309281066
 21
115.0073937681109
 31
0.0
  0
LINE
  5
32F
330
75
100
AcDbEntity
  8
Sichtbar MD
100
AcDbLine
 10
231.4902309281066
 20
117.8767178074798
 30
0.0
 11
231.4902309281066
 21
121.5509524216546
 31
0.0
  0
LINE
  5
330
330
75
100
AcDbEntity
  8
Sichtbar MD
100
AcDbLine
 10
231.4902309281066
 20
113.1702764610235
 30
0.0
 11
231.4902309281066
 21
115.0073937681109
 31
0.0
  0
LINE
  5
331
330
75
100
AcDbEntity
  8
Sichtbar MD
100
AcDbLine
 10
231.4902309281066
 20
124.4202764610235
 30
0.0
 11
231.4902309281066
 21
126.2573937681109
 31
0.0
  0
LINE
  5
332
330
75
100
AcDbEntity
  8
Sichtbar MD
100
AcDbLine
 10
231.4902309281066
 20
124.3138351145672
 30
0.0
 11
232.5902309281066
 21
124.3138351145672
 31
0.0
  0
LINE
  5
333
330
75
100
AcDbEntity
  8
Sichtbar MD
100
AcDbLine
 10
231.4902309281066
 20
115.1138351145672
 30
0.0
 11
232.5902309281066
 21
115.1138351145672
 31
0.0
  0
LINE
  5
334
330
75
100
AcDbEntity
  8
Sichtbar MD
100
AcDbLine
 10
232.5902309281066
 20
125.8888351145672
 30
0.0
 11
232.9152309281066
 21
126.2138351145672
 31
0.0
  0
LINE
  5
335
330
75
100
AcDbEntity
  8
Sichtbar MD
100
AcDbLine
 10
232.5902309281066
 20
113.5388351145672
 30
0.0
 11
232.9152309281066
 21
113.2138351145672
 31
0.0
  0
LINE
  5
336
330
75
100
AcDbEntity
  8
Sichtbar MD
100
AcDbLine
 10
232.9152309281066
 20
126.2138351145672
 30
0.0
 11
233.8652309281065
 21
126.2138351145672
 31
0.0
  0
LINE
  5
337
330
75
100
AcDbEntity
  8
Sichtbar MD
100
AcDbLine
 10
232.9152309281066
 20
113.2138351145672
 30
0.0
 11
233.8652309281065
 21
113.2138351145672
 31
0.0
  0
ARC
  5
338
330
75
100
AcDbEntity
  8
Sichtbar MD
100
AcDbCircle
 10
233.8652309281065
 20
113.5388351145672
 30
0.0
 40
0.325
100
AcDbArc
 50
270.0
 51
0.0
  0
ARC
  5
339
330
75
100
AcDbEntity
  8
Sichtbar MD
100
AcDbCircle
 10
233.8652309281065
 20
125.8888351145672
 30
0.0
 40
0.325
100
AcDbArc
 50
0.0
 51
90.0
  0
LINE
  5
33A
330
75
100
AcDbEntity
  8
Sichtbar MD
100
AcDbLine
 10
219.3402309281065
 20
126.4638351145672
 30
0.0
 11
231.4902309281066
 21
126.4638351145672
 31
0.0
  0
LINE
  5
33B
330
75
100
AcDbEntity
  8
Sichtbar MD
100
AcDbLine
 10
219.3402309281065
 20
112.9638351145672
 30
0.0
 11
231.4902309281066
 21
112.9638351145672
 31
0.0
  0
LINE
  5
33C
330
75
100
AcDbEntity
  8
Sichtbar MD
100
AcDbLine
 10
62.24632498804952
 20
115.8408517683598
 30
0.0
 11
62.24632498804952
 21
123.5868184607747
 31
0.0
  0
LINE
  5
33D
330
75
100
AcDbEntity
  8
Sichtbar MD
100
AcDbLine
 10
57.54632498804951
 20
123.5868184607747
 30
0.0
 11
62.24632498804952
 21
123.5868184607747
 31
0.0
  0
POLYLINE
  5
33E
330
75
100
AcDbEntity
  8
Sichtbar MD
100
AcDb2dPolyline
 66
     1
 10
0.0
 20
0.0
 30
0.0
 70
   128
  0
VERTEX
  5
33F
330
33E
100
AcDbEntity
  8
Sichtbar MD
100
AcDbVertex
100
AcDb2dVertex
 10
57.24632498804952
 20
122.9216381851125
 30
0.0
  0
VERTEX
  5
340
330
33E
100
AcDbEntity
  8
Sichtbar MD
100
AcDbVertex
100
AcDb2dVertex
 10
57.25770858346026
 20
122.9488679710316
 30
0.0
  0
VERTEX
  5
342
330
33E
100
AcDbEntity
  8
Sichtbar MD
100
AcDbVertex
100
AcDb2dVertex
 10
57.2691876813444
 20
122.9761362019467
 30
0.0
  0
VERTEX
  5
343
330
33E
100
AcDbEntity
  8
Sichtbar MD
100
AcDbVertex
100
AcDb2dVertex
 10
57.28076247960801
 20
123.0034434739041
 30
0.0
  0
VERTEX
  5
344
330
33E
100
AcDbEntity
  8
Sichtbar MD
100
AcDbVertex
100
AcDb2dVertex
 10
57.29243317150052
 20
123.0307903829503
 30
0.0
  0
VERTEX
  5
345
330
33E
100
AcDbEntity
  8
Sichtbar MD
100
AcDbVertex
100
AcDb2dVertex
 10
57.30419997122611
 20
123.0581772271085
 30
0.0
  0
VERTEX
  5
346
330
33E
100
AcDbEntity
  8
Sichtbar MD
100
AcDbVertex
100
AcDb2dVertex
 10
57.31606307436253
 20
123.0856046024251
 30
0.0
  0
VERTEX
  5
347
330
33E
100
AcDbEntity
  8
Sichtbar MD
100
AcDbVertex
100
AcDb2dVertex
 10
57.32802269977058
 20
123.1130731049466
 30
0.0
  0
VERTEX
  5
348
330
33E
100
AcDbEntity
  8
Sichtbar MD
100
AcDbVertex
100
AcDb2dVertex
 10
57.34007905234124
 20
123.1405833307194
 30
0.0
  0
VERTEX
  5
349
330
33E
100
AcDbEntity
  8
Sichtbar MD
100
AcDbVertex
100
AcDb2dVertex
 10
57.35223235559191
 20
123.1681352797436
 30
0.0
  0
VERTEX
  5
34A
330
33E
100
AcDbEntity
  8
Sichtbar MD
100
AcDbVertex
100
AcDb2dVertex
 10
57.36448283304001
 20
123.1957301441121
 30
0.0
  0
VERTEX
  5
34B
330
33E
100
AcDbEntity
  8
Sichtbar MD
100
AcDbVertex
100
AcDb2dVertex
 10
57.37683070820297
 20
123.2233679238248
 30
0.0
  0
VERTEX
  5
34C
330
33E
100
AcDbEntity
  8
Sichtbar MD
100
AcDbVertex
100
AcDb2dVertex
 10
57.3892762045982
 20
123.2510492149281
 30
0.0
  0
VERTEX
  5
34D
330
33E
100
AcDbEntity
  8
Sichtbar MD
100
AcDbVertex
100
AcDb2dVertex
 10
57.40181955505635
 20
123.2787749114918
 30
0.0
  0
VERTEX
  5
34E
330
33E
100
AcDbEntity
  8
Sichtbar MD
100
AcDbVertex
100
AcDb2dVertex
 10
57.41446099240805
 20
123.3065450135159
 30
0.0
  0
VERTEX
  5
34F
330
33E
100
AcDbEntity
  8
Sichtbar MD
100
AcDbVertex
100
AcDb2dVertex
 10
57.42720077742363
 20
123.33436041507
 30
0.0
  0
VERTEX
  5
350
330
33E
100
AcDbEntity
  8
Sichtbar MD
100
AcDbVertex
100
AcDb2dVertex
 10
57.44003913362051
 20
123.3622214141774
 30
0.0
  0
VERTEX
  5
351
330
33E
100
AcDbEntity
  8
Sichtbar MD
100
AcDbVertex
100
AcDb2dVertex
 10
57.45297630314256
 20
123.3901286068844
 30
0.0
  0
VERTEX
  5
352
330
33E
100
AcDbEntity
  8
Sichtbar MD
100
AcDbVertex
100
AcDb2dVertex
 10
57.4660125467601
 20
123.4180828872609
 30
0.0
  0
VERTEX
  5
353
330
33E
100
AcDbEntity
  8
Sichtbar MD
100
AcDbVertex
100
AcDb2dVertex
 10
57.47914810661699
 20
123.4460842553067
 30
0.0
  0
VERTEX
  5
354
330
33E
100
AcDbEntity
  8
Sichtbar MD
100
AcDbVertex
100
AcDb2dVertex
 10
57.49238326211001
 20
123.4741333070683
 30
0.0
  0
VERTEX
  5
355
330
33E
100
AcDbEntity
  8
Sichtbar MD
100
AcDbVertex
100
AcDb2dVertex
 10
57.50571825538303
 20
123.5022306385922
 30
0.0
  0
VERTEX
  5
356
330
33E
100
AcDbEntity
  8
Sichtbar MD
100
AcDbVertex
100
AcDb2dVertex
 10
57.51915336583282
 20
123.5303771439481
 30
0.0
  0
VERTEX
  5
357
330
33E
100
AcDbEntity
  8
Sichtbar MD
100
AcDbVertex
100
AcDb2dVertex
 10
57.5326888542297
 20
123.5585728231358
 30
0.0
  0
VERTEX
  5
358
330
33E
100
AcDbEntity
  8
Sichtbar MD
100
AcDbVertex
100
AcDb2dVertex
 10
57.546324981344
 20
123.5868185702252
 30
0.0
  0
SEQEND
  5
341
330
33E
100
AcDbEntity
  8
Sichtbar MD
  0
LINE
  5
359
330
75
100
AcDbEntity
  8
Sichtbar MD
100
AcDbLine
 10
57.24632498804951
 20
116.5060321280982
 30
0.0
 11
57.24632498804951
 21
122.9216381010363
 31
0.0
  0
POLYLINE
  5
35A
330
75
100
AcDbEntity
  8
Sichtbar MD
100
AcDb2dPolyline
 66
     1
 10
0.0
 20
0.0
 30
0.0
 70
   128
  0
VERTEX
  5
35B
330
35A
100
AcDbEntity
  8
Sichtbar MD
100
AcDbVertex
100
AcDb2dVertex
 10
57.54632498134399
 20
115.8408516589093
 30
0.0
  0
VERTEX
  5
35C
330
35A
100
AcDbEntity
  8
Sichtbar MD
100
AcDbVertex
100
AcDb2dVertex
 10
57.53268885422969
 20
115.8690974059987
 30
0.0
  0
VERTEX
  5
35E
330
35A
100
AcDbEntity
  8
Sichtbar MD
100
AcDbVertex
100
AcDb2dVertex
 10
57.51915336583281
 20
115.8972930851865
 30
0.0
  0
VERTEX
  5
35F
330
35A
100
AcDbEntity
  8
Sichtbar MD
100
AcDbVertex
100
AcDb2dVertex
 10
57.50571825538302
 20
115.9254395905423
 30
0.0
  0
VERTEX
  5
360
330
35A
100
AcDbEntity
  8
Sichtbar MD
100
AcDbVertex
100
AcDb2dVertex
 10
57.49238326211
 20
115.9535369220662
 30
0.0
  0
VERTEX
  5
361
330
35A
100
AcDbEntity
  8
Sichtbar MD
100
AcDbVertex
100
AcDb2dVertex
 10
57.47914810661698
 20
115.9815859738278
 30
0.0
  0
VERTEX
  5
362
330
35A
100
AcDbEntity
  8
Sichtbar MD
100
AcDbVertex
100
AcDb2dVertex
 10
57.46601254676009
 20
116.0095873418736
 30
0.0
  0
VERTEX
  5
363
330
35A
100
AcDbEntity
  8
Sichtbar MD
100
AcDbVertex
100
AcDb2dVertex
 10
57.45297630314255
 20
116.0375416222501
 30
0.0
  0
VERTEX
  5
364
330
35A
100
AcDbEntity
  8
Sichtbar MD
100
AcDbVertex
100
AcDb2dVertex
 10
57.44003913362051
 20
116.0654488149571
 30
0.0
  0
VERTEX
  5
365
330
35A
100
AcDbEntity
  8
Sichtbar MD
100
AcDbVertex
100
AcDb2dVertex
 10
57.42720077742363
 20
116.0933098140645
 30
0.0
  0
VERTEX
  5
366
330
35A
100
AcDbEntity
  8
Sichtbar MD
100
AcDbVertex
100
AcDb2dVertex
 10
57.41446099240804
 20
116.1211252156186
 30
0.0
  0
VERTEX
  5
367
330
35A
100
AcDbEntity
  8
Sichtbar MD
100
AcDbVertex
100
AcDb2dVertex
 10
57.40181955505634
 20
116.1488953176426
 30
0.0
  0
VERTEX
  5
368
330
35A
100
AcDbEntity
  8
Sichtbar MD
100
AcDbVertex
100
AcDb2dVertex
 10
57.38927620459819
 20
116.1766210142064
 30
0.0
  0
VERTEX
  5
369
330
35A
100
AcDbEntity
  8
Sichtbar MD
100
AcDbVertex
100
AcDb2dVertex
 10
57.37683070820296
 20
116.2043023053097
 30
0.0
  0
VERTEX
  5
36A
330
35A
100
AcDbEntity
  8
Sichtbar MD
100
AcDbVertex
100
AcDb2dVertex
 10
57.36448283304
 20
116.2319400850224
 30
0.0
  0
VERTEX
  5
36B
330
35A
100
AcDbEntity
  8
Sichtbar MD
100
AcDbVertex
100
AcDb2dVertex
 10
57.3522323555919
 20
116.2595349493908
 30
0.0
  0
VERTEX
  5
36C
330
35A
100
AcDbEntity
  8
Sichtbar MD
100
AcDbVertex
100
AcDb2dVertex
 10
57.34007905234123
 20
116.2870868984151
 30
0.0
  0
VERTEX
  5
36D
330
35A
100
AcDbEntity
  8
Sichtbar MD
100
AcDbVertex
100
AcDb2dVertex
 10
57.32802269977057
 20
116.3145971241879
 30
0.0
  0
VERTEX
  5
36E
330
35A
100
AcDbEntity
  8
Sichtbar MD
100
AcDbVertex
100
AcDb2dVertex
 10
57.31606307436252
 20
116.3420656267094
 30
0.0
  0
VERTEX
  5
36F
330
35A
100
AcDbEntity
  8
Sichtbar MD
100
AcDbVertex
100
AcDb2dVertex
 10
57.3041999712261
 20
116.3694930020261
 30
0.0
  0
VERTEX
  5
370
330
35A
100
AcDbEntity
  8
Sichtbar MD
100
AcDbVertex
100
AcDb2dVertex
 10
57.29243317150051
 20
116.3968798461842
 30
0.0
  0
VERTEX
  5
371
330
35A
100
AcDbEntity
  8
Sichtbar MD
100
AcDbVertex
100
AcDb2dVertex
 10
57.280762479608
 20
116.4242267552304
 30
0.0
  0
VERTEX
  5
372
330
35A
100
AcDbEntity
  8
Sichtbar MD
100
AcDbVertex
100
AcDb2dVertex
 10
57.2691876813444
 20
116.4515340271878
 30
0.0
  0
VERTEX
  5
373
330
35A
100
AcDbEntity
  8
Sichtbar MD
100
AcDbVertex
100
AcDb2dVertex
 10
57.25770858346025
 20
116.4788022581029
 30
0.0
  0
VERTEX
  5
374
330
35A
100
AcDbEntity
  8
Sichtbar MD
100
AcDbVertex
100
AcDb2dVertex
 10
57.24632498804952
 20
116.5060320440221
 30
0.0
  0
SEQEND
  5
35D
330
35A
100
AcDbEntity
  8
Sichtbar MD
  0
LINE
  5
375
330
75
100
AcDbEntity
  8
Sichtbar MD
100
AcDbLine
 10
62.24632498804951
 20
115.8408517683598
 30
0.0
 11
57.54632498804951
 21
115.8408517683598
 31
0.0
  0
LINE
  5
376
330
75
100
AcDbEntity
  8
Sichtbar MD
100
AcDbLine
 10
57.54632498804952
 20
111.7138351145672
 30
0.0
 11
57.54632498804951
 21
115.8408517683598
 31
0.0
  0
LINE
  5
377
330
75
100
AcDbEntity
  8
Sichtbar MD
100
AcDbLine
 10
57.54632498804952
 20
123.5868184607747
 30
0.0
 11
57.54632498804952
 21
127.7138351145673
 31
0.0
  0
LINE
  5
378
330
75
100
AcDbEntity
  8
Sichtbar MD
100
AcDbLine
 10
68.94632498804952
 20
111.7138351145672
 30
0.0
 11
68.94632498804952
 21
127.7138351145672
 31
0.0
  0
LINE
  5
379
330
75
100
AcDbEntity
  8
Sichtbar MD
100
AcDbLine
 10
57.24632498804952
 20
112.0138351145673
 30
0.0
 11
57.24632498804951
 21
116.5060321280982
 31
0.0
  0
LINE
  5
37A
330
75
100
AcDbEntity
  8
Sichtbar MD
100
AcDbLine
 10
69.24632498804952
 20
112.0138351145673
 30
0.0
 11
69.24632498804952
 21
127.4138351145672
 31
0.0
  0
LINE
  5
37B
330
75
100
AcDbEntity
  8
Sichtbar MD
100
AcDbLine
 10
57.24632498804952
 20
122.9216381010364
 30
0.0
 11
57.24632498804952
 21
127.4138351145673
 31
0.0
  0
LINE
  5
37C
330
75
100
AcDbEntity
  8
Sichtbar MD
100
AcDbLine
 10
57.54632498804951
 20
127.7138351145673
 30
0.0
 11
68.94632498804952
 21
127.7138351145672
 31
0.0
  0
LINE
  5
37D
330
75
100
AcDbEntity
  8
Sichtbar MD
100
AcDbLine
 10
57.54632498804951
 20
111.7138351145672
 30
0.0
 11
68.94632498804952
 21
111.7138351145672
 31
0.0
  0
LINE
  5
37E
330
75
100
AcDbEntity
  8
Sichtbar MD
100
AcDbLine
 10
57.24632498804952
 20
112.0138351145673
 30
0.0
 11
57.54632498804951
 21
111.7138351145672
 31
0.0
  0
LINE
  5
37F
330
75
100
AcDbEntity
  8
Sichtbar MD
100
AcDbLine
 10
57.24632498804952
 20
127.4138351145672
 30
0.0
 11
57.54632498804951
 21
127.7138351145672
 31
0.0
  0
LINE
  5
380
330
75
100
AcDbEntity
  8
Sichtbar MD
100
AcDbLine
 10
69.24632498804953
 20
112.0138351145673
 30
0.0
 11
68.94632498804952
 21
111.7138351145672
 31
0.0
  0
LINE
  5
381
330
75
100
AcDbEntity
  8
Sichtbar MD
100
AcDbLine
 10
69.24632498804953
 20
127.4138351145672
 30
0.0
 11
68.94632498804952
 21
127.7138351145672
 31
0.0
  0
LINE
  5
382
330
75
100
AcDbEntity
  8
Mittellinie MD
  6
CHAIN
 48
23.99096870422363
100
AcDbLine
 10
52.88940465917619
 20
119.7138351145672
 30
0.0
 11
238.681755885784
 21
119.7138351145672
 31
0.0
  0
ENDSEC
  0
SECTION
  2
OBJECTS
  0
DICTIONARY
  5
C
330
0
100
AcDbDictionary
281
     1
  3
ACAD_COLOR
350
6B
  3
ACAD_GROUP
350
D
  3
ACAD_LAYOUT
350
6A
  3
ACAD_MATERIAL
350
10
  3
ACAD_MLEADERSTYLE
350
6E
  3
ACAD_MLINESTYLE
350
67
  3
ACAD_PLOTSETTINGS
350
69
  3
ACAD_PLOTSTYLENAME
350
E
  3
ACAD_SCALELIST
350
3A
  3
ACAD_TABLESTYLE
350
6C
  3
ACAD_VISUALSTYLE
350
29
  3
ACDB_RECOMPOSE_DATA
350
38B
  3
AcDbVariableDictionary
350
383
  0
DICTIONARY
  5
6B
102
{ACAD_REACTORS
330
C
102
}
330
C
100
AcDbDictionary
281
     1
  0
DICTIONARY
  5
D
102
{ACAD_REACTORS
330
C
102
}
330
C
100
AcDbDictionary
281
     1
  0
DICTIONARY
  5
6A
102
{ACAD_REACTORS
330
C
102
}
330
C
100
AcDbDictionary
281
     1
  3
Layout1
350
74
  3
Layout2
350
7C
  3
Model
350
78
  0
DICTIONARY
  5
10
102
{ACAD_REACTORS
330
C
102
}
330
C
100
AcDbDictionary
281
     1
  3
ByBlock
350
19
  3
ByLayer
350
11
  3
Global
350
21
  0
DICTIONARY
  5
6E
102
{ACAD_REACTORS
330
C
102
}
330
C
100
AcDbDictionary
281
     1
  3
Standard
350
6F
  0
DICTIONARY
  5
67
102
{ACAD_REACTORS
330
C
102
}
330
C
100
AcDbDictionary
281
     1
  3
Standard
350
68
  0
DICTIONARY
  5
69
102
{ACAD_REACTORS
330
C
102
}
330
C
100
AcDbDictionary
281
     1
  0
ACDBDICTIONARYWDFLT
  5
E
102
{ACAD_REACTORS
330
C
102
}
330
C
100
AcDbDictionary
281
     1
  3
Normal
350
F
100
AcDbDictionaryWithDefault
340
F
  0
DICTIONARY
  5
3A
102
{ACAD_REACTORS
330
C
102
}
330
C
100
AcDbDictionary
281
     1
  3
A0
350
3B
  3
A1
350
3C
  3
A2
350
3D
  3
A3
350
3E
  3
A4
350
3F
  3
A5
350
40
  3
A6
350
41
  3
A7
350
42
  3
A8
350
43
  3
A9
350
44
  3
B0
350
45
  3
B1
350
46
  3
B2
350
47
  3
B3
350
48
  3
B4
350
49
  3
B5
350
4A
  3
B6
350
4B
  3
B7
350
4C
  3
B8
350
4D
  3
B9
350
4E
  3
C0
350
4F
  3
C1
350
50
  3
C2
350
51
  3
C3
350
52
  3
C4
350
53
  3
C5
350
54
  3
C6
350
55
  3
C7
350
56
  3
C8
350
57
  3
C9
350
58
  3
D0
350
59
  3
D1
350
5A
  3
D2
350
5B
  0
DICTIONARY
  5
6C
102
{ACAD_REACTORS
330
C
102
}
330
C
100
AcDbDictionary
281
     1
  3
Standard
350
6D
  0
DICTIONARY
  5
29
102
{ACAD_REACTORS
330
C
102
}
330
C
100
AcDbDictionary
281
     1
  3
2dWireframe
350
2F
  3
3D Hidden
350
31
  3
3dWireframe
350
30
  3
Basic
350
2E
  3
Brighten
350
35
  3
ColorChange
350
39
  3
Conceptual
350
32
  3
Dim
350
34
  3
Facepattern
350
38
  3
Flat
350
2A
  3
FlatWithEdges
350
2B
  3
Gouraud
350
2C
  3
GouraudWithEdges
350
2D
  3
Linepattern
350
37
  3
Realistic
350
33
  3
Thicken
350
36
  0
XRECORD
  5
38B
102
{ACAD_REACTORS
330
C
102
}
330
C
100
AcDbXrecord
280
     1
 90
        1
330
6D
  0
DICTIONARY
  5
383
102
{ACAD_REACTORS
330
C
102
}
330
C
100
AcDbDictionary
281
     1
  3
CANNOSCALE
350
387
  3
CMLEADERSTYLE
350
385
  3
CTABLESTYLE
350
384
  3
LIGHTINGUNITS
350
388
  3
MSLTSCALE
350
386
  0
LAYOUT
  5
74
102
{ACAD_REACTORS
330
6A
102
}
330
6A
100
AcDbPlotSettings
  1

  2

  4

  6

 40
0.0
 41
0.0
 42
0.0
 43
0.0
 44
0.0
 45
0.0
 46
0.0
 47
0.0
 48
0.0
 49
0.0
140
0.0
141
0.0
142
1.0
143
1.0
 70
   688
 72
     0
 73
     0
 74
     5
  7

 75
    16
147
1.0
 76
     0
 77
     2
 78
   300
148
0.0
149
0.0
100
AcDbLayout
  1
Layout1
 70
     1
 71
     1
 10
0.0
 20
0.0
 11
12.0
 21
9.0
 12
0.0
 22
0.0
 32
0.0
 14
0.0
 24
0.0
 34
0.0
 15
0.0
 25
0.0
 35
0.0
146
0.0
 13
0.0
 23
0.0
 33
0.0
 16
1.0
 26
0.0
 36
0.0
 17
0.0
 27
1.0
 37
0.0
 76
     0
330
71
  0
LAYOUT
  5
7C
102
{ACAD_REACTORS
330
6A
102
}
330
6A
100
AcDbPlotSettings
  1

  2

  4

  6

 40
0.0
 41
0.0
 42
0.0
 43
0.0
 44
0.0
 45
0.0
 46
0.0
 47
0.0
 48
0.0
 49
0.0
140
0.0
141
0.0
142
1.0
143
1.0
 70
   688
 72
     0
 73
     0
 74
     5
  7

 75
    16
147
1.0
 76
     0
 77
     2
 78
   300
148
0.0
149
0.0
100
AcDbLayout
  1
Layout2
 70
     1
 71
     2
 10
0.0
 20
0.0
 11
12.0
 21
9.0
 12
0.0
 22
0.0
 32
0.0
 14
0.0
 24
0.0
 34
0.0
 15
0.0
 25
0.0
 35
0.0
146
0.0
 13
0.0
 23
0.0
 33
0.0
 16
1.0
 26
0.0
 36
0.0
 17
0.0
 27
1.0
 37
0.0
 76
     0
330
79
  0
LAYOUT
  5
78
102
{ACAD_REACTORS
330
6A
102
}
330
6A
100
AcDbPlotSettings
  1

  2

  4

  6

 40
0.0
 41
0.0
 42
0.0
 43
0.0
 44
0.0
 45
0.0
 46
0.0
 47
0.0
 48
0.0
 49
0.0
140
0.0
141
0.0
142
1.0
143
1.0
 70
  1712
 72
     0
 73
     0
 74
     0
  7

 75
     0
147
1.0
 76
     0
 77
     2
 78
   300
148
0.0
149
0.0
100
AcDbLayout
  1
Model
 70
     1
 71
     0
 10
0.0
 20
0.0
 11
12.0
 21
9.0
 12
0.0
 22
0.0
 32
0.0
 14
0.0
 24
0.0
 34
0.0
 15
0.0
 25
0.0
 35
0.0
146
0.0
 13
0.0
 23
0.0
 33
0.0
 16
1.0
 26
0.0
 36
0.0
 17
0.0
 27
1.0
 37
0.0
 76
     0
330
75
  0
MATERIAL
  5
19
102
{ACAD_XDICTIONARY
360
1A
102
}
102
{ACAD_REACTORS
330
10
102
}
330
10
100
AcDbMaterial
  1
ByBlock
 72
     0
 43
0.0208333333333333
 43
0.0
 43
0.0
 43
0.0
 43
0.0
 43
0.0208333333333333
 43
0.0
 43
0.0
 43
0.0
 43
0.0
 43
1.0
 43
0.0
 43
0.0
 43
0.0
 43
0.0
 43
1.0
 77
     0
 47
0.0208333333333333
 47
0.0
 47
0.0
 47
0.0
 47
0.0
 47
0.0208333333333333
 47
0.0
 47
0.0
 47
0.0
 47
0.0
 47
1.0
 47
0.0
 47
0.0
 47
0.0
 47
0.0
 47
1.0
171
     0
 49
0.0208333333333333
 49
0.0
 49
0.0
 49
0.0
 49
0.0
 49
0.0208333333333333
 49
0.0
 49
0.0
 49
0.0
 49
0.0
 49
1.0
 49
0.0
 49
0.0
 49
0.0
 49
0.0
 49
1.0
175
     0
142
0.0208333333333333
142
0.0
142
0.0
142
0.0
142
0.0
142
0.0208333333333333
142
0.0
142
0.0
142
0.0
142
0.0
142
1.0
142
0.0
142
0.0
142
0.0
142
0.0
142
1.0
179
     0
144
0.0208333333333333
144
0.0
144
0.0
144
0.0
144
0.0
144
0.0208333333333333
144
0.0
144
0.0
144
0.0
144
0.0
144
1.0
144
0.0
144
0.0
144
0.0
144
0.0
144
1.0
147
0.0208333333333333
147
0.0
147
0.0
147
0.0
147
0.0
147
0.0208333333333333
147
0.0
147
0.0
147
0.0
147
0.0
147
1.0
147
0.0
147
0.0
147
0.0
147
0.0
147
1.0
  0
MATERIAL
  5
11
102
{ACAD_XDICTIONARY
360
12
102
}
102
{ACAD_REACTORS
330
10
102
}
330
10
100
AcDbMaterial
  1
ByLayer
 72
     0
 43
0.0208333333333333
 43
0.0
 43
0.0
 43
0.0
 43
0.0
 43
0.0208333333333333
 43
0.0
 43
0.0
 43
0.0
 43
0.0
 43
1.0
 43
0.0
 43
0.0
 43
0.0
 43
0.0
 43
1.0
 77
     0
 47
0.0208333333333333
 47
0.0
 47
0.0
 47
0.0
 47
0.0
 47
0.0208333333333333
 47
0.0
 47
0.0
 47
0.0
 47
0.0
 47
1.0
 47
0.0
 47
0.0
 47
0.0
 47
0.0
 47
1.0
171
     0
 49
0.0208333333333333
 49
0.0
 49
0.0
 49
0.0
 49
0.0
 49
0.0208333333333333
 49
0.0
 49
0.0
 49
0.0
 49
0.0
 49
1.0
 49
0.0
 49
0.0
 49
0.0
 49
0.0
 49
1.0
175
     0
142
0.0208333333333333
142
0.0
142
0.0
142
0.0
142
0.0
142
0.0208333333333333
142
0.0
142
0.0
142
0.0
142
0.0
142
1.0
142
0.0
142
0.0
142
0.0
142
0.0
142
1.0
179
     0
144
0.0208333333333333
144
0.0
144
0.0
144
0.0
144
0.0
144
0.0208333333333333
144
0.0
144
0.0
144
0.0
144
0.0
144
1.0
144
0.0
144
0.0
144
0.0
144
0.0
144
1.0
147
0.0208333333333333
147
0.0
147
0.0
147
0.0
147
0.0
147
0.0208333333333333
147
0.0
147
0.0
147
0.0
147
0.0
147
1.0
147
0.0
147
0.0
147
0.0
147
0.0
147
1.0
  0
MATERIAL
  5
21
102
{ACAD_XDICTIONARY
360
22
102
}
102
{ACAD_REACTORS
330
10
102
}
330
10
100
AcDbMaterial
  1
Global
 72
     0
 43
0.0208333333333333
 43
0.0
 43
0.0
 43
0.0
 43
0.0
 43
0.0208333333333333
 43
0.0
 43
0.0
 43
0.0
 43
0.0
 43
1.0
 43
0.0
 43
0.0
 43
0.0
 43
0.0
 43
1.0
 77
     0
 47
0.0208333333333333
 47
0.0
 47
0.0
 47
0.0
 47
0.0
 47
0.0208333333333333
 47
0.0
 47
0.0
 47
0.0
 47
0.0
 47
1.0
 47
0.0
 47
0.0
 47
0.0
 47
0.0
 47
1.0
171
     0
 49
0.0208333333333333
 49
0.0
 49
0.0
 49
0.0
 49
0.0
 49
0.0208333333333333
 49
0.0
 49
0.0
 49
0.0
 49
0.0
 49
1.0
 49
0.0
 49
0.0
 49
0.0
 49
0.0
 49
1.0
175
     0
142
0.0208333333333333
142
0.0
142
0.0
142
0.0
142
0.0
142
0.0208333333333333
142
0.0
142
0.0
142
0.0
142
0.0
142
1.0
142
0.0
142
0.0
142
0.0
142
0.0
142
1.0
179
     0
144
0.0208333333333333
144
0.0
144
0.0
144
0.0
144
0.0
144
0.0208333333333333
144
0.0
144
0.0
144
0.0
144
0.0
144
1.0
144
0.0
144
0.0
144
0.0
144
0.0
144
1.0
147
0.0208333333333333
147
0.0
147
0.0
147
0.0
147
0.0
147
0.0208333333333333
147
0.0
147
0.0
147
0.0
147
0.0
147
1.0
147
0.0
147
0.0
147
0.0
147
0.0
147
1.0
  0
MLEADERSTYLE
  5
6F
102
{ACAD_REACTORS
330
6E
102
}
330
6E
100
AcDbMLeaderStyle
170
     2
171
     1
172
     0
 90
        2
 40
0.0
 41
0.0
173
     1
 91
-1056964608
340
63
 92
       -2
290
     1
 42
0.09
291
     1
 43
0.36
  3
Standard
 44
0.18
300

342
5D
174
     1
178
     6
175
     1
176
     0
 93
-1056964608
 45
0.18
292
     0
297
     0
 46
0.18
 94
-1056964608
 47
1.0
 49
1.0
140
1.0
293
     1
141
0.0
294
     1
177
     0
142
1.0
295
     0
296
     0
143
0.125
1001
ACAD_MLEADERVER
1070
     2
  0
MLINESTYLE
  5
68
102
{ACAD_REACTORS
330
67
102
}
330
67
100
AcDbMlineStyle
  2
STANDARD
 70
     0
  3

 62
   256
 51
90.0
 52
90.0
 71
     2
 49
0.5
 62
   256
  6
BYLAYER
 49
-0.5
 62
   256
  6
BYLAYER
  0
ACDBPLACEHOLDER
  5
F
102
{ACAD_REACTORS
330
E
102
}
330
E
  0
SCALE
  5
3B
102
{ACAD_REACTORS
330
3A
102
}
330
3A
100
AcDbScale
 70
     0
300
1:1
140
1.0
141
1.0
290
     1
  0
SCALE
  5
3C
102
{ACAD_REACTORS
330
3A
102
}
330
3A
100
AcDbScale
 70
     0
300
1:2
140
1.0
141
2.0
290
     0
  0
SCALE
  5
3D
102
{ACAD_REACTORS
330
3A
102
}
330
3A
100
AcDbScale
 70
     0
300
1:4
140
1.0
141
4.0
290
     0
  0
SCALE
  5
3E
102
{ACAD_REACTORS
330
3A
102
}
330
3A
100
AcDbScale
 70
     0
300
1:5
140
1.0
141
5.0
290
     0
  0
SCALE
  5
3F
102
{ACAD_REACTORS
330
3A
102
}
330
3A
100
AcDbScale
 70
     0
300
1:8
140
1.0
141
8.0
290
     0
  0
SCALE
  5
40
102
{ACAD_REACTORS
330
3A
102
}
330
3A
100
AcDbScale
 70
     0
300
1:10
140
1.0
141
10.0
290
     0
  0
SCALE
  5
41
102
{ACAD_REACTORS
330
3A
102
}
330
3A
100
AcDbScale
 70
     0
300
1:16
140
1.0
141
16.0
290
     0
  0
SCALE
  5
42
102
{ACAD_REACTORS
330
3A
102
}
330
3A
100
AcDbScale
 70
     0
300
1:20
140
1.0
141
20.0
290
     0
  0
SCALE
  5
43
102
{ACAD_REACTORS
330
3A
102
}
330
3A
100
AcDbScale
 70
     0
300
1:30
140
1.0
141
30.0
290
     0
  0
SCALE
  5
44
102
{ACAD_REACTORS
330
3A
102
}
330
3A
100
AcDbScale
 70
     0
300
1:40
140
1.0
141
40.0
290
     0
  0
SCALE
  5
45
102
{ACAD_REACTORS
330
3A
102
}
330
3A
100
AcDbScale
 70
     0
300
1:50
140
1.0
141
50.0
290
     0
  0
SCALE
  5
46
102
{ACAD_REACTORS
330
3A
102
}
330
3A
100
AcDbScale
 70
     0
300
1:100
140
1.0
141
100.0
290
     0
  0
SCALE
  5
47
102
{ACAD_REACTORS
330
3A
102
}
330
3A
100
AcDbScale
 70
     0
300
2:1
140
2.0
141
1.0
290
     0
  0
SCALE
  5
48
102
{ACAD_REACTORS
330
3A
102
}
330
3A
100
AcDbScale
 70
     0
300
4:1
140
4.0
141
1.0
290
     0
  0
SCALE
  5
49
102
{ACAD_REACTORS
330
3A
102
}
330
3A
100
AcDbScale
 70
     0
300
8:1
140
8.0
141
1.0
290
     0
  0
SCALE
  5
4A
102
{ACAD_REACTORS
330
3A
102
}
330
3A
100
AcDbScale
 70
     0
300
10:1
140
10.0
141
1.0
290
     0
  0
SCALE
  5
4B
102
{ACAD_REACTORS
330
3A
102
}
330
3A
100
AcDbScale
 70
     0
300
100:1
140
100.0
141
1.0
290
     0
  0
SCALE
  5
4C
102
{ACAD_REACTORS
330
3A
102
}
330
3A
100
AcDbScale
 70
     0
300
1/128" = 1'-0"
140
0.0078125
141
12.0
290
     0
  0
SCALE
  5
4D
102
{ACAD_REACTORS
330
3A
102
}
330
3A
100
AcDbScale
 70
     0
300
1/64" = 1'-0"
140
0.015625
141
12.0
290
     0
  0
SCALE
  5
4E
102
{ACAD_REACTORS
330
3A
102
}
330
3A
100
AcDbScale
 70
     0
300
1/32" = 1'-0"
140
0.03125
141
12.0
290
     0
  0
SCALE
  5
4F
102
{ACAD_REACTORS
330
3A
102
}
330
3A
100
AcDbScale
 70
     0
300
1/16" = 1'-0"
140
0.0625
141
12.0
290
     0
  0
SCALE
  5
50
102
{ACAD_REACTORS
330
3A
102
}
330
3A
100
AcDbScale
 70
     0
300
3/32" = 1'-0"
140
0.09375
141
12.0
290
     0
  0
SCALE
  5
51
102
{ACAD_REACTORS
330
3A
102
}
330
3A
100
AcDbScale
 70
     0
300
1/8" = 1'-0"
140
0.125
141
12.0
290
     0
  0
SCALE
  5
52
102
{ACAD_REACTORS
330
3A
102
}
330
3A
100
AcDbScale
 70
     0
300
3/16" = 1'-0"
140
0.1875
141
12.0
290
     0
  0
SCALE
  5
53
102
{ACAD_REACTORS
330
3A
102
}
330
3A
100
AcDbScale
 70
     0
300
1/4" = 1'-0"
140
0.25
141
12.0
290
     0
  0
SCALE
  5
54
102
{ACAD_REACTORS
330
3A
102
}
330
3A
100
AcDbScale
 70
     0
300
3/8" = 1'-0"
140
0.375
141
12.0
290
     0
  0
SCALE
  5
55
102
{ACAD_REACTORS
330
3A
102
}
330
3A
100
AcDbScale
 70
     0
300
1/2" = 1'-0"
140
0.5
141
12.0
290
     0
  0
SCALE
  5
56
102
{ACAD_REACTORS
330
3A
102
}
330
3A
100
AcDbScale
 70
     0
300
3/4" = 1'-0"
140
0.75
141
12.0
290
     0
  0
SCALE
  5
57
102
{ACAD_REACTORS
330
3A
102
}
330
3A
100
AcDbScale
 70
     0
300
1" = 1'-0"
140
1.0
141
12.0
290
     0
  0
SCALE
  5
58
102
{ACAD_REACTORS
330
3A
102
}
330
3A
100
AcDbScale
 70
     0
300
1-1/2" = 1'-0"
140
1.5
141
12.0
290
     0
  0
SCALE
  5
59
102
{ACAD_REACTORS
330
3A
102
}
330
3A
100
AcDbScale
 70
     0
300
3" = 1'-0"
140
3.0
141
12.0
290
     0
  0
SCALE
  5
5A
102
{ACAD_REACTORS
330
3A
102
}
330
3A
100
AcDbScale
 70
     0
300
6" = 1'-0"
140
6.0
141
12.0
290
     0
  0
SCALE
  5
5B
102
{ACAD_REACTORS
330
3A
102
}
330
3A
100
AcDbScale
 70
     0
300
1'-0" = 1'-0"
140
12.0
141
12.0
290
     0
  0
TABLESTYLE
  5
6D
102
{ACAD_XDICTIONARY
360
389
102
}
102
{ACAD_REACTORS
330
6C
102
}
330
6C
100
AcDbTableStyle
  3
Standard
 70
     0
 71
     0
 40
0.06
 41
0.06
280
     0
281
     0
  7
Standard
140
0.18
170
     2
 62
     0
 63
     7
283
     0
274
    -2
284
     1
 64
     0
275
    -2
285
     1
 65
     0
276
    -2
286
     1
 66
     0
277
    -2
287
     1
 67
     0
278
    -2
288
     1
 68
     0
279
    -2
289
     1
 69
     0
  7
Standard
140
0.25
170
     5
 62
     0
 63
     7
283
     0
274
    -2
284
     1
 64
     0
275
    -2
285
     1
 65
     0
276
    -2
286
     1
 66
     0
277
    -2
287
     1
 67
     0
278
    -2
288
     1
 68
     0
279
    -2
289
     1
 69
     0
  7
Standard
140
0.18
170
     5
 62
     0
 63
     7
283
     0
274
    -2
284
     1
 64
     0
275
    -2
285
     1
 65
     0
276
    -2
286
     1
 66
     0
277
    -2
287
     1
 67
     0
278
    -2
288
     1
 68
     0
279
    -2
289
     1
 69
     0
  0
VISUALSTYLE
  5
2F
102
{ACAD_REACTORS
330
29
102
}
330
29
100
AcDbVisualStyle
  2
2dWireframe
 70
     4
 71
     0
 72
     2
 73
     0
 90
        0
 40
-0.6
 41
-30.0
 62
     5
 63
     7
421
 16777215
 74
     1
 91
        4
 64
     7
 65
   257
 75
     1
175
     1
 42
1.0
 92
        0
 66
   257
 43
1.0
 76
     1
 77
     6
 78
     2
 67
     7
 79
     5
170
     0
171
     0
290
     0
174
     0
 93
        1
 44
0.0
173
     0
291
     0
 45
0.0
1001
ACAD
1000
AcDbSavedByObjectVersion
1070
     0
  0
VISUALSTYLE
  5
31
102
{ACAD_REACTORS
330
29
102
}
330
29
100
AcDbVisualStyle
  2
3D Hidden
 70
     6
 71
     1
 72
     2
 73
     2
 90
        0
 40
-0.6
 41
-30.0
 62
     5
 63
     7
421
 16777215
 74
     2
 91
        2
 64
     7
 65
   257
 75
     2
175
     1
 42
40.0
 92
        0
 66
   257
 43
1.0
 76
     1
 77
     6
 78
     2
 67
     7
 79
     3
170
     0
171
     0
290
     0
174
     0
 93
        1
 44
0.0
173
     0
291
     0
 45
0.0
1001
ACAD
1000
AcDbSavedByObjectVersion
1070
     0
  0
VISUALSTYLE
  5
30
102
{ACAD_REACTORS
330
29
102
}
330
29
100
AcDbVisualStyle
  2
3dWireframe
 70
     5
 71
     0
 72
     2
 73
     0
 90
        0
 40
-0.6
 41
-30.0
 62
     5
 63
     7
421
 16777215
 74
     1
 91
        4
 64
     7
 65
   257
 75
     1
175
     1
 42
1.0
 92
        0
 66
   257
 43
1.0
 76
     1
 77
     6
 78
     2
 67
     7
 79
     5
170
     0
171
     0
290
     0
174
     0
 93
        1
 44
0.0
173
     0
291
     0
 45
0.0
1001
ACAD
1000
AcDbSavedByObjectVersion
1070
     0
  0
VISUALSTYLE
  5
2E
102
{ACAD_REACTORS
330
29
102
}
330
29
100
AcDbVisualStyle
  2
Basic
 70
     7
 71
     1
 72
     0
 73
     1
 90
        0
 40
-0.6
 41
-30.0
 62
     5
 63
     7
421
 16777215
 74
     0
 91
        4
 64
     7
 65
   257
 75
     1
175
     1
 42
1.0
 92
        8
 66
     7
 43
1.0
 76
     1
 77
     6
 78
     2
 67
     7
 79
     5
170
     0
171
     0
290
     0
174
     0
 93
        1
 44
0.0
173
     0
291
     1
 45
0.0
1001
ACAD
1000
AcDbSavedByObjectVersion
1070
     0
  0
VISUALSTYLE
  5
35
102
{ACAD_REACTORS
330
29
102
}
330
29
100
AcDbVisualStyle
  2
Brighten
 70
    12
 71
     2
 72
     2
 73
     0
 90
        0
 40
-0.6
 41
-30.0
 62
     5
 63
     7
421
 16777215
 74
     1
 91
        4
 64
     7
 65
   257
 75
     1
175
     1
 42
1.0
 92
        8
 66
     7
 43
1.0
 76
     1
 77
     6
 78
     2
 67
     7
 79
     5
170
     0
171
     0
290
     0
174
     0
 93
        1
 44
50.0
173
     0
291
     1
 45
0.0
1001
ACAD
1000
AcDbSavedByObjectVersion
1070
     0
  0
VISUALSTYLE
  5
39
102
{ACAD_REACTORS
330
29
102
}
330
29
100
AcDbVisualStyle
  2
ColorChange
 70
    16
 71
     2
 72
     2
 73
     3
 90
        0
 40
-0.6
 41
-30.0
 62
     5
 63
     8
421
  8421504
 74
     1
 91
        4
 64
     7
 65
   257
 75
     1
175
     1
 42
1.0
 92
        8
 66
     8
424
  8421504
 43
1.0
 76
     1
 77
     6
 78
     2
 67
     7
 79
     5
170
     0
171
     0
290
     0
174
     0
 93
        1
 44
0.0
173
     0
291
     1
 45
0.0
1001
ACAD
1000
AcDbSavedByObjectVersion
1070
     0
  0
VISUALSTYLE
  5
32
102
{ACAD_REACTORS
330
29
102
}
330
29
100
AcDbVisualStyle
  2
Conceptual
 70
     9
 71
     3
 72
     2
 73
     0
 90
        0
 40
-0.6
 41
-30.0
 62
     5
 63
     7
421
 16777215
 74
     2
 91
        2
 64
     7
 65
   257
 75
     1
175
     1
 42
40.0
 92
        8
 66
     7
 43
1.0
 76
     1
 77
     6
 78
     2
 67
     7
 79
     3
170
     0
171
     0
290
     0
174
     0
 93
        1
 44
0.0
173
     0
291
     0
 45
0.0
1001
ACAD
1000
AcDbSavedByObjectVersion
1070
     0
  0
VISUALSTYLE
  5
34
102
{ACAD_REACTORS
330
29
102
}
330
29
100
AcDbVisualStyle
  2
Dim
 70
    11
 71
     2
 72
     2
 73
     0
 90
        0
 40
-0.6
 41
-30.0
 62
     5
 63
     7
421
 16777215
 74
     1
 91
        4
 64
     7
 65
   257
 75
     1
175
     1
 42
1.0
 92
        8
 66
     7
 43
1.0
 76
     1
 77
     6
 78
     2
 67
     7
 79
     5
170
     0
171
     0
290
     0
174
     0
 93
        1
 44
-50.0
173
     0
291
     1
 45
0.0
1001
ACAD
1000
AcDbSavedByObjectVersion
1070
     0
  0
VISUALSTYLE
  5
38
102
{ACAD_REACTORS
330
29
102
}
330
29
100
AcDbVisualStyle
  2
Facepattern
 70
    15
 71
     2
 72
     2
 73
     0
 90
        0
 40
-0.6
 41
-30.0
 62
     5
 63
     7
421
 16777215
 74
     1
 91
        4
 64
     7
 65
   257
 75
     1
175
     1
 42
1.0
 92
        8
 66
     7
 43
1.0
 76
     1
 77
     6
 78
     2
 67
     7
 79
     5
170
     0
171
     0
290
     0
174
     0
 93
        1
 44
0.0
173
     0
291
     1
 45
0.0
1001
ACAD
1000
AcDbSavedByObjectVersion
1070
     0
  0
VISUALSTYLE
  5
2A
102
{ACAD_REACTORS
330
29
102
}
330
29
100
AcDbVisualStyle
  2
Flat
 70
     0
 71
     2
 72
     1
 73
     1
 90
        2
 40
-0.6
 41
30.0
 62
     5
 63
     7
421
 16777215
 74
     0
 91
        4
 64
     7
 65
   257
 75
     1
175
     1
 42
1.0
 92
        8
 66
     7
 43
1.0
 76
     1
 77
     6
 78
     2
 67
     7
 79
     5
170
     0
171
     0
290
     0
174
     0
 93
       13
 44
0.0
173
     0
291
     1
 45
0.0
1001
ACAD
1000
AcDbSavedByObjectVersion
1070
     0
  0
VISUALSTYLE
  5
2B
102
{ACAD_REACTORS
330
29
102
}
330
29
100
AcDbVisualStyle
  2
FlatWithEdges
 70
     1
 71
     2
 72
     1
 73
     1
 90
        2
 40
-0.6
 41
30.0
 62
     5
 63
     7
421
 16777215
 74
     1
 91
        4
 64
     7
 65
   257
 75
     1
175
     1
 42
1.0
 92
        0
 66
   257
 43
1.0
 76
     1
 77
     6
 78
     2
 67
     7
 79
     5
170
     0
171
     0
290
     0
174
     0
 93
       13
 44
0.0
173
     0
291
     1
 45
0.0
1001
ACAD
1000
AcDbSavedByObjectVersion
1070
     0
  0
VISUALSTYLE
  5
2C
102
{ACAD_REACTORS
330
29
102
}
330
29
100
AcDbVisualStyle
  2
Gouraud
 70
     2
 71
     2
 72
     2
 73
     1
 90
        2
 40
-0.6
 41
30.0
 62
     5
 63
     7
421
 16777215
 74
     0
 91
        4
 64
     7
 65
   257
 75
     1
175
     1
 42
1.0
 92
        0
 66
     7
 43
1.0
 76
     1
 77
     6
 78
     2
 67
     7
 79
     5
170
     0
171
     0
290
     0
174
     0
 93
       13
 44
0.0
173
     0
291
     1
 45
0.0
1001
ACAD
1000
AcDbSavedByObjectVersion
1070
     0
  0
VISUALSTYLE
  5
2D
102
{ACAD_REACTORS
330
29
102
}
330
29
100
AcDbVisualStyle
  2
GouraudWithEdges
 70
     3
 71
     2
 72
     2
 73
     1
 90
        2
 40
-0.6
 41
30.0
 62
     5
 63
     7
421
 16777215
 74
     1
 91
        4
 64
     7
 65
   257
 75
     1
175
     1
 42
1.0
 92
        0
 66
   257
 43
1.0
 76
     1
 77
     6
 78
     2
 67
     7
 79
     5
170
     0
171
     0
290
     0
174
     0
 93
       13
 44
0.0
173
     0
291
     1
 45
0.0
1001
ACAD
1000
AcDbSavedByObjectVersion
1070
     0
  0
VISUALSTYLE
  5
37
102
{ACAD_REACTORS
330
29
102
}
330
29
100
AcDbVisualStyle
  2
Linepattern
 70
    14
 71
     2
 72
     2
 73
     0
 90
        0
 40
-0.6
 41
-30.0
 62
     5
 63
     7
421
 16777215
 74
     1
 91
        4
 64
     7
 65
   257
 75
     7
175
     7
 42
1.0
 92
        8
 66
     7
 43
1.0
 76
     1
 77
     6
 78
     2
 67
     7
 79
     5
170
     0
171
     0
290
     0
174
     0
 93
        1
 44
0.0
173
     0
291
     1
 45
0.0
1001
ACAD
1000
AcDbSavedByObjectVersion
1070
     0
  0
VISUALSTYLE
  5
33
102
{ACAD_REACTORS
330
29
102
}
330
29
100
AcDbVisualStyle
  2
Realistic
 70
     8
 71
     2
 72
     2
 73
     0
 90
        0
 40
-0.6
 41
-30.0
 62
     5
 63
     7
421
 16777215
 74
     1
 91
        0
 64
     7
 65
   257
 75
     1
175
     1
 42
1.0
 92
        8
 66
     8
424
  7895160
 43
1.0
 76
     1
 77
     6
 78
     2
 67
     7
 79
     5
170
     0
171
     0
290
     0
174
     0
 93
       13
 44
0.0
173
     0
291
     0
 45
0.0
1001
ACAD
1000
AcDbSavedByObjectVersion
1070
     0
  0
VISUALSTYLE
  5
36
102
{ACAD_REACTORS
330
29
102
}
330
29
100
AcDbVisualStyle
  2
Thicken
 70
    13
 71
     2
 72
     2
 73
     0
 90
        0
 40
-0.6
 41
-30.0
 62
     5
 63
     7
421
 16777215
 74
     1
 91
        4
 64
     7
 65
   257
 75
     1
175
     1
 42
1.0
 92
       12
 66
     7
 43
1.0
 76
     1
 77
     6
 78
     2
 67
     7
 79
     5
170
     0
171
     0
290
     0
174
     0
 93
        1
 44
0.0
173
     0
291
     1
 45
0.0
1001
ACAD
1000
AcDbSavedByObjectVersion
1070
     0
  0
DICTIONARYVAR
  5
387
102
{ACAD_REACTORS
330
383
102
}
330
383
100
DictionaryVariables
280
     0
  1
1:1
  0
DICTIONARYVAR
  5
385
102
{ACAD_REACTORS
330
383
102
}
330
383
100
DictionaryVariables
280
     0
  1
STANDARD
  0
DICTIONARYVAR
  5
384
102
{ACAD_REACTORS
330
383
102
}
330
383
100
DictionaryVariables
280
     0
  1
STANDARD
  0
DICTIONARYVAR
  5
388
102
{ACAD_REACTORS
330
383
102
}
330
383
100
DictionaryVariables
280
     0
  1
2
  0
DICTIONARYVAR
  5
386
102
{ACAD_REACTORS
330
383
102
}
330
383
100
DictionaryVariables
280
     0
  1
1
  0
DICTIONARY
  5
1A
330
19
100
AcDbDictionary
280
     1
281
     1
  3
ACAD_XREC_ROUNDTRIP
360
38D
  3
BUMPTILE
360
1C
  3
DIFFUSETILE
360
1B
  3
OPACITYTILE
360
1F
  3
REFLECTIONTILE
360
1E
  3
REFRACTIONTILE
360
20
  3
SPECULARTILE
360
1D
  0
DICTIONARY
  5
12
330
11
100
AcDbDictionary
280
     1
281
     1
  3
ACAD_XREC_ROUNDTRIP
360
38C
  3
BUMPTILE
360
14
  3
DIFFUSETILE
360
13
  3
OPACITYTILE
360
17
  3
REFLECTIONTILE
360
16
  3
REFRACTIONTILE
360
18
  3
SPECULARTILE
360
15
  0
DICTIONARY
  5
22
330
21
100
AcDbDictionary
280
     1
281
     1
  3
ACAD_XREC_ROUNDTRIP
360
38E
  3
BUMPTILE
360
24
  3
DIFFUSETILE
360
23
  3
OPACITYTILE
360
27
  3
REFLECTIONTILE
360
26
  3
REFRACTIONTILE
360
28
  3
SPECULARTILE
360
25
  0
DICTIONARY
  5
389
330
6D
100
AcDbDictionary
280
     1
281
     1
  3
ACAD_ROUNDTRIP_2008_TABLESTYLE_CELLSTYLEMAP
360
38A
  3
ACAD_XREC_ROUNDTRIP
360
38F
  0
XRECORD
  5
38D
102
{ACAD_REACTORS
330
1A
102
}
330
1A
100
AcDbXrecord
280
     1
102
MATERIAL
148
0.0
149
0.0
149
0.0
 93
        0
 94
      127
282
     0
 72
     0
 77
     0
171
     0
175
     0
179
     0
273
     0
  0
XRECORD
  5
1C
102
{ACAD_REACTORS
330
1A
102
}
330
1A
100
AcDbXrecord
280
     1
270
     1
271
     1
  0
XRECORD
  5
1B
102
{ACAD_REACTORS
330
1A
102
}
330
1A
100
AcDbXrecord
280
     1
270
     1
271
     1
  0
XRECORD
  5
1F
102
{ACAD_REACTORS
330
1A
102
}
330
1A
100
AcDbXrecord
280
     1
270
     1
271
     1
  0
XRECORD
  5
1E
102
{ACAD_REACTORS
330
1A
102
}
330
1A
100
AcDbXrecord
280
     1
270
     1
271
     1
  0
XRECORD
  5
20
102
{ACAD_REACTORS
330
1A
102
}
330
1A
100
AcDbXrecord
280
     1
270
     1
271
     1
  0
XRECORD
  5
1D
102
{ACAD_REACTORS
330
1A
102
}
330
1A
100
AcDbXrecord
280
     1
270
     1
271
     1
  0
XRECORD
  5
38C
102
{ACAD_REACTORS
330
12
102
}
330
12
100
AcDbXrecord
280
     1
102
MATERIAL
148
0.0
149
0.0
149
0.0
 93
        0
 94
      127
282
     0
 72
     0
 77
     0
171
     0
175
     0
179
     0
273
     0
  0
XRECORD
  5
14
102
{ACAD_REACTORS
330
12
102
}
330
12
100
AcDbXrecord
280
     1
270
     1
271
     1
  0
XRECORD
  5
13
102
{ACAD_REACTORS
330
12
102
}
330
12
100
AcDbXrecord
280
     1
270
     1
271
     1
  0
XRECORD
  5
17
102
{ACAD_REACTORS
330
12
102
}
330
12
100
AcDbXrecord
280
     1
270
     1
271
     1
  0
XRECORD
  5
16
102
{ACAD_REACTORS
330
12
102
}
330
12
100
AcDbXrecord
280
     1
270
     1
271
     1
  0
XRECORD
  5
18
102
{ACAD_REACTORS
330
12
102
}
330
12
100
AcDbXrecord
280
     1
270
     1
271
     1
  0
XRECORD
  5
15
102
{ACAD_REACTORS
330
12
102
}
330
12
100
AcDbXrecord
280
     1
270
     1
271
     1
  0
XRECORD
  5
38E
102
{ACAD_REACTORS
330
22
102
}
330
22
100
AcDbXrecord
280
     1
102
MATERIAL
148
0.0
149
0.0
149
0.0
 93
        0
 94
      127
282
     0
 72
     0
 77
     0
171
     0
175
     0
179
     0
273
     0
  0
XRECORD
  5
24
102
{ACAD_REACTORS
330
22
102
}
330
22
100
AcDbXrecord
280
     1
270
     1
271
     1
  0
XRECORD
  5
23
102
{ACAD_REACTORS
330
22
102
}
330
22
100
AcDbXrecord
280
     1
270
     1
271
     1
  0
XRECORD
  5
27
102
{ACAD_REACTORS
330
22
102
}
330
22
100
AcDbXrecord
280
     1
270
     1
271
     1
  0
XRECORD
  5
26
102
{ACAD_REACTORS
330
22
102
}
330
22
100
AcDbXrecord
280
     1
270
     1
271
     1
  0
XRECORD
  5
28
102
{ACAD_REACTORS
330
22
102
}
330
22
100
AcDbXrecord
280
     1
270
     1
271
     1
  0
XRECORD
  5
25
102
{ACAD_REACTORS
330
22
102
}
330
22
100
AcDbXrecord
280
     1
270
     1
271
     1
  0
CELLSTYLEMAP
  5
38A
102
{ACAD_REACTORS
330
389
102
}
330
389
100
AcDbCellStyleMap
 90
        3
300
CELLSTYLE
  1
TABLEFORMAT_BEGIN
 90
        5
170
     1
 91
        0
 92
    32768
 62
   257
 93
        1
300
CONTENTFORMAT
  1
CONTENTFORMAT_BEGIN
 90
        0
 91
        0
 92
      512
 93
        0
300

 40
0.0
140
1.0
 94
        5
 62
     0
340
5D
144
0.25
309
CONTENTFORMAT_END
171
     0
 94
        0
309
TABLEFORMAT_END
  1
CELLSTYLE_BEGIN
 90
        1
 91
        1
300
_TITLE
309
CELLSTYLE_END
300
CELLSTYLE
  1
TABLEFORMAT_BEGIN
 90
        5
170
     1
 91
        0
 92
        0
 62
   257
 93
        1
300
CONTENTFORMAT
  1
CONTENTFORMAT_BEGIN
 90
        0
 91
        0
 92
      512
 93
        0
300

 40
0.0
140
1.0
 94
        5
 62
     0
340
5D
144
0.18
309
CONTENTFORMAT_END
171
     0
 94
        0
309
TABLEFORMAT_END
  1
CELLSTYLE_BEGIN
 90
        2
 91
        1
300
_HEADER
309
CELLSTYLE_END
300
CELLSTYLE
  1
TABLEFORMAT_BEGIN
 90
        5
170
     1
 91
        0
 92
        0
 62
   257
 93
        1
300
CONTENTFORMAT
  1
CONTENTFORMAT_BEGIN
 90
        0
 91
        0
 92
      512
 93
        0
300

 40
0.0
140
1.0
 94
        2
 62
     0
340
5D
144
0.18
309
CONTENTFORMAT_END
171
     0
 94
        0
309
TABLEFORMAT_END
  1
CELLSTYLE_BEGIN
 90
        3
 91
        2
300
_DATA
309
CELLSTYLE_END
  0
XRECORD
  5
38F
102
{ACAD_REACTORS
330
389
102
}
330
389
100
AcDbXrecord
280
     1
102
ACAD_ROUNDTRIP_PRE2007_TABLESTYLE
 90
      512
 91
        0
  1

 92
      512
 93
        0
  2

 94
      512
 95
        0
  3

  0
ENDSEC
  0
EOF
