  0
SECTION
  2
HEADER
  9
$ACADVER
  1
AC1018
  9
$ACADMAINTVER
 70
   104
  9
$DWGCODEPAGE
  3
ANSI_1252
  9
$AUTHOR
  1
rmorof
  9
$CUSTOMPROPERTYTAG
  1
Manager
  9
$CUSTOMPROPERTY
  1

  9
$CUSTOMPROPERTYTAG
  1
Firma
  9
$CUSTOMPROPERTY
  1

  9
$CUSTOMPROPERTYTAG
  1
Kategorie
  9
$CUSTOMPROPERTY
  1

  9
$CUSTOMPROPERTYTAG
  1
Bauteilnummer
  9
$CUSTOMPROPERTY
  1
ES 450 ZG_60012127
  9
$CUSTOMPROPERTYTAG
  1
Bezeichnung
  9
$CUSTOMPROPERTY
  1

  9
$CUSTOMPROPERTYTAG
  1
Projekt
  9
$CUSTOMPROPERTY
  1

  9
$CUSTOMPROPERTYTAG
  1
Konstrukteur
  9
$CUSTOMPROPERTY
  1
rmorof
  9
$CUSTOMPROPERTYTAG
  1
Ingenieur
  9
$CUSTOMPROPERTY
  1

  9
$CUSTOMPROPERTYTAG
  1
Bevollmächtigter
  9
$CUSTOMPROPERTY
  1

  9
$CUSTOMPROPERTYTAG
  1
Kostenstelle
  9
$CUSTOMPROPERTY
  1

  9
$CUSTOMPROPERTYTAG
  1
Zulieferer
  9
$CUSTOMPROPERTY
  1

  9
$CUSTOMPROPERTYTAG
  1
Benutzerstatus
  9
$CUSTOMPROPERTY
  1

  9
$CUSTOMPROPERTYTAG
  1
Konstruktionsstatus
  9
$CUSTOMPROPERTY
  1
InBearbeitung
  9
$CUSTOMPROPERTYTAG
  1
Kontrolliert von
  9
$CUSTOMPROPERTY
  1

  9
$CUSTOMPROPERTYTAG
  1
Konstruktion genehmigt von
  9
$CUSTOMPROPERTY
  1

  9
$CUSTOMPROPERTYTAG
  1
Fertigung genehmigt von
  9
$CUSTOMPROPERTY
  1

  9
$CUSTOMPROPERTYTAG
  1
bez. engl.
  9
$CUSTOMPROPERTY
  1

  9
$CUSTOMPROPERTYTAG
  1
bez. franz.
  9
$CUSTOMPROPERTY
  1

  9
$INSBASE
 10
0.0
 20
0.0
 30
0.0
  9
$EXTMIN
 10
0.0
 20
0.0
 30
0.0
  9
$EXTMAX
 10
297.0
 20
210.0
 30
0.0
  9
$LIMMIN
 10
0.0
 20
0.0
  9
$LIMMAX
 10
297.0
 20
210.0
  9
$ORTHOMODE
 70
     0
  9
$REGENMODE
 70
     1
  9
$FILLMODE
 70
     1
  9
$QTEXTMODE
 70
     0
  9
$MIRRTEXT
 70
     0
  9
$LTSCALE
 40
1.0
  9
$ATTMODE
 70
     1
  9
$TEXTSIZE
 40
0.2
  9
$TRACEWID
 40
0.05
  9
$TEXTSTYLE
  7
Standard
  9
$CLAYER
  8
0
  9
$CELTYPE
  6
ByLayer
  9
$CECOLOR
 62
   256
  9
$CELTSCALE
 40
1.0
  9
$DISPSILH
 70
     0
  9
$DIMSCALE
 40
1.0
  9
$DIMASZ
 40
1.799999999999999
  9
$DIMEXO
 40
0.0625
  9
$DIMDLI
 40
0.38
  9
$DIMRND
 40
0.0
  9
$DIMDLE
 40
0.0
  9
$DIMEXE
 40
0.18
  9
$DIMTP
 40
0.0
  9
$DIMTM
 40
0.0
  9
$DIMTXT
 40
0.3499999940395355
  9
$DIMCEN
 40
0.09
  9
$DIMTSZ
 40
0.0
  9
$DIMTOL
 70
     0
  9
$DIMLIM
 70
     0
  9
$DIMTIH
 70
     1
  9
$DIMTOH
 70
     1
  9
$DIMSE1
 70
     0
  9
$DIMSE2
 70
     0
  9
$DIMTAD
 70
     0
  9
$DIMZIN
 70
     0
  9
$DIMBLK
  1

  9
$DIMASO
 70
     1
  9
$DIMSHO
 70
     1
  9
$DIMPOST
  1

  9
$DIMAPOST
  1

  9
$DIMALT
 70
     0
  9
$DIMALTD
 70
     2
  9
$DIMALTF
 40
25.4
  9
$DIMLFAC
 40
1.0
  9
$DIMTOFL
 70
     0
  9
$DIMTVP
 40
0.0
  9
$DIMTIX
 70
     0
  9
$DIMSOXD
 70
     0
  9
$DIMSAH
 70
     0
  9
$DIMBLK1
  1

  9
$DIMBLK2
  1

  9
$DIMSTYLE
  2
Standard
  9
$DIMCLRD
 70
     0
  9
$DIMCLRE
 70
     0
  9
$DIMCLRT
 70
     0
  9
$DIMTFAC
 40
1.0
  9
$DIMGAP
 40
0.09
  9
$DIMJUST
 70
     0
  9
$DIMSD1
 70
     0
  9
$DIMSD2
 70
     0
  9
$DIMTOLJ
 70
     1
  9
$DIMTZIN
 70
     0
  9
$DIMALTZ
 70
     0
  9
$DIMALTTZ
 70
     0
  9
$DIMUPT
 70
     0
  9
$DIMDEC
 70
     4
  9
$DIMTDEC
 70
     4
  9
$DIMALTU
 70
     2
  9
$DIMALTTD
 70
     2
  9
$DIMTXSTY
  7
Standard
  9
$DIMAUNIT
 70
     0
  9
$DIMADEC
 70
     0
  9
$DIMALTRND
 40
0.0
  9
$DIMAZIN
 70
     0
  9
$DIMDSEP
 70
    46
  9
$DIMATFIT
 70
     3
  9
$DIMFRAC
 70
     0
  9
$DIMLDRBLK
  1

  9
$DIMLUNIT
 70
     2
  9
$DIMLWD
 70
    -2
  9
$DIMLWE
 70
    -2
  9
$DIMTMOVE
 70
     0
  9
$LUNITS
 70
     2
  9
$LUPREC
 70
     4
  9
$SKETCHINC
 40
0.1
  9
$FILLETRAD
 40
0.0
  9
$AUNITS
 70
     0
  9
$AUPREC
 70
     0
  9
$MENU
  1
.
  9
$ELEVATION
 40
0.0
  9
$PELEVATION
 40
0.0
  9
$THICKNESS
 40
0.0
  9
$LIMCHECK
 70
     0
  9
$CHAMFERA
 40
0.0
  9
$CHAMFERB
 40
0.0
  9
$CHAMFERC
 40
0.0
  9
$CHAMFERD
 40
0.0
  9
$SKPOLY
 70
     0
  9
$TDCREATE
 40
2454949.660339745
  9
$TDUCREATE
 40
2454949.577006412
  9
$TDUPDATE
 40
2454949.660339745
  9
$TDUUPDATE
 40
2454949.577006412
  9
$TDINDWG
 40
0.0000182639
  9
$TDUSRTIMER
 40
0.0000182639
  9
$USRTIMER
 70
     1
  9
$ANGBASE
 50
0.0
  9
$ANGDIR
 70
     0
  9
$PDMODE
 70
     0
  9
$PDSIZE
 40
0.0
  9
$PLINEWID
 40
0.0
  9
$SPLFRAME
 70
     0
  9
$SPLINETYPE
 70
     6
  9
$SPLINESEGS
 70
     8
  9
$HANDSEED
  5
30F
  9
$SURFTAB1
 70
     6
  9
$SURFTAB2
 70
     6
  9
$SURFTYPE
 70
     6
  9
$SURFU
 70
     6
  9
$SURFV
 70
     6
  9
$UCSBASE
  2

  9
$UCSNAME
  2

  9
$UCSORG
 10
0.0
 20
0.0
 30
0.0
  9
$UCSXDIR
 10
1.0
 20
0.0
 30
0.0
  9
$UCSYDIR
 10
0.0
 20
1.0
 30
0.0
  9
$UCSORTHOREF
  2

  9
$UCSORTHOVIEW
 70
     0
  9
$UCSORGTOP
 10
0.0
 20
0.0
 30
0.0
  9
$UCSORGBOTTOM
 10
0.0
 20
0.0
 30
0.0
  9
$UCSORGLEFT
 10
0.0
 20
0.0
 30
0.0
  9
$UCSORGRIGHT
 10
0.0
 20
0.0
 30
0.0
  9
$UCSORGFRONT
 10
0.0
 20
0.0
 30
0.0
  9
$UCSORGBACK
 10
0.0
 20
0.0
 30
0.0
  9
$PUCSBASE
  2

  9
$PUCSNAME
  2

  9
$PUCSORG
 10
0.0
 20
0.0
 30
0.0
  9
$PUCSXDIR
 10
1.0
 20
0.0
 30
0.0
  9
$PUCSYDIR
 10
0.0
 20
1.0
 30
0.0
  9
$PUCSORTHOREF
  2

  9
$PUCSORTHOVIEW
 70
     0
  9
$PUCSORGTOP
 10
0.0
 20
0.0
 30
0.0
  9
$PUCSORGBOTTOM
 10
0.0
 20
0.0
 30
0.0
  9
$PUCSORGLEFT
 10
0.0
 20
0.0
 30
0.0
  9
$PUCSORGRIGHT
 10
0.0
 20
0.0
 30
0.0
  9
$PUCSORGFRONT
 10
0.0
 20
0.0
 30
0.0
  9
$PUCSORGBACK
 10
0.0
 20
0.0
 30
0.0
  9
$USERI1
 70
     0
  9
$USERI2
 70
     0
  9
$USERI3
 70
     0
  9
$USERI4
 70
     0
  9
$USERI5
 70
     0
  9
$USERR1
 40
0.0
  9
$USERR2
 40
0.0
  9
$USERR3
 40
0.0
  9
$USERR4
 40
0.0
  9
$USERR5
 40
0.0
  9
$WORLDVIEW
 70
     1
  9
$SHADEDGE
 70
     3
  9
$SHADEDIF
 70
    70
  9
$TILEMODE
 70
     1
  9
$MAXACTVP
 70
    64
  9
$PINSBASE
 10
0.0
 20
0.0
 30
0.0
  9
$PLIMCHECK
 70
     0
  9
$PEXTMIN
 10
0.0
 20
0.0
 30
0.0
  9
$PEXTMAX
 10
297.0
 20
210.0
 30
0.0
  9
$PLIMMIN
 10
0.0
 20
0.0
  9
$PLIMMAX
 10
297.0
 20
210.0
  9
$UNITMODE
 70
     0
  9
$VISRETAIN
 70
     1
  9
$PLINEGEN
 70
     0
  9
$PSLTSCALE
 70
     1
  9
$TREEDEPTH
 70
  3020
  9
$CMLSTYLE
  2
Standard
  9
$CMLJUST
 70
     0
  9
$CMLSCALE
 40
1.0
  9
$PROXYGRAPHICS
 70
     1
  9
$MEASUREMENT
 70
     1
  9
$CELWEIGHT
370
    -1
  9
$ENDCAPS
280
     0
  9
$JOINSTYLE
280
     0
  9
$LWDISPLAY
290
     0
  9
$INSUNITS
 70
     4
  9
$HYPERLINKBASE
  1

  9
$STYLESHEET
  1

  9
$XEDIT
290
     1
  9
$CEPSNTYPE
380
     0
  9
$PSTYLEMODE
290
     1
  9
$FINGERPRINTGUID
  2
{57BA4BE8-0A9D-4278-A416-577C162B679D}
  9
$VERSIONGUID
  2
{FC103909-5BD4-46B5-B2B4-FCAE993239E6}
  9
$EXTNAMES
290
     1
  9
$PSVPSCALE
 40
0.0
  9
$OLESTARTUP
290
     0
  9
$SORTENTS
280
   127
  9
$INDEXCTL
280
     0
  9
$HIDETEXT
280
     1
  9
$XCLIPFRAME
290
     0
  9
$HALOGAP
280
     0
  9
$OBSCOLOR
 70
   257
  9
$OBSLTYPE
280
     0
  9
$INTERSECTIONDISPLAY
280
     0
  9
$INTERSECTIONCOLOR
 70
   257
  9
$DIMASSOC
280
     1
  9
$PROJECTNAME
  1

  0
ENDSEC
  0
SECTION
  2
CLASSES
  0
CLASS
  1
ACDBDICTIONARYWDFLT
  2
AcDbDictionaryWithDefault
  3
ObjectDBX Classes
 90
        0
 91
        1
280
     0
281
     0
  0
CLASS
  1
MATERIAL
  2
AcDbMaterial
  3
ObjectDBX Classes
 90
     1153
 91
        3
280
     0
281
     0
  0
CLASS
  1
VISUALSTYLE
  2
AcDbVisualStyle
  3
ObjectDBX Classes
 90
     4095
 91
       16
280
     0
281
     0
  0
CLASS
  1
SCALE
  2
AcDbScale
  3
ObjectDBX Classes
 90
     1153
 91
       33
280
     0
281
     0
  0
CLASS
  1
TABLESTYLE
  2
AcDbTableStyle
  3
ObjectDBX Classes
 90
     4095
 91
        1
280
     0
281
     0
  0
CLASS
  1
MLEADERSTYLE
  2
AcDbMLeaderStyle
  3
ACDB_MLEADERSTYLE_CLASS
 90
     4095
 91
        1
280
     0
281
     0
  0
CLASS
  1
DICTIONARYVAR
  2
AcDbDictionaryVar
  3
ObjectDBX Classes
 90
        0
 91
        5
280
     0
281
     0
  0
CLASS
  1
CELLSTYLEMAP
  2
AcDbCellStyleMap
  3
ObjectDBX Classes
 90
     1152
 91
        1
280
     0
281
     0
  0
ENDSEC
  0
SECTION
  2
TABLES
  0
TABLE
  2
VPORT
  5
8
330
0
100
AcDbSymbolTable
 70
     1
  0
VPORT
  5
5F
330
8
100
AcDbSymbolTableRecord
100
AcDbViewportTableRecord
  2
*Active
 70
     0
 10
0.0
 20
0.0
 11
1.0
 21
1.0
 12
148.5
 22
105.0
 13
0.0
 23
0.0
 14
1.0
 24
1.0
 15
0.0
 25
0.0
 16
0.0
 26
0.0
 36
1.0
 17
0.0
 27
0.0
 37
0.0
 40
210.0
 41
1.414285714285714
 42
50.0
 43
0.0
 44
0.0
 50
0.0
 51
0.0
 71
     0
 72
   100
 73
     1
 74
     1
 75
     0
 76
     0
 77
     0
 78
     0
281
     0
 65
     1
110
0.0
120
0.0
130
0.0
111
1.0
121
0.0
131
0.0
112
0.0
122
1.0
132
0.0
 79
     0
146
0.0
  0
ENDTAB
  0
TABLE
  2
LTYPE
  5
5
330
0
100
AcDbSymbolTable
 70
    59
  0
LTYPE
  5
63
330
5
100
AcDbSymbolTableRecord
100
AcDbLinetypeTableRecord
  2
ByBlock
 70
     0
  3

 72
    65
 73
     0
 40
0.0
  0
LTYPE
  5
64
330
5
100
AcDbSymbolTableRecord
100
AcDbLinetypeTableRecord
  2
ByLayer
 70
     0
  3

 72
    65
 73
     0
 40
0.0
  0
LTYPE
  5
65
330
5
100
AcDbSymbolTableRecord
100
AcDbLinetypeTableRecord
  2
Continuous
 70
     0
  3
Solid line
 72
    65
 73
     0
 40
0.0
  0
LTYPE
  5
7D
330
5
100
AcDbSymbolTableRecord
100
AcDbLinetypeTableRecord
  2
Section_View_Lines
 70
     0
  3
Section View Lines
 72
    65
 73
     4
 40
0.8406
 49
0.6614
 74
     0
 49
-0.0827
 74
     0
 49
0.0138
 74
     0
 49
-0.0827
 74
     0
  0
LTYPE
  5
7E
330
5
100
AcDbSymbolTableRecord
100
AcDbLinetypeTableRecord
  2
CHAIN
 70
     0
  3
Chain ____ _ ____ _ ____ _ ____ _ ____ _ ____
 72
    65
 73
     4
 40
0.3543
 49
0.2362
 74
     0
 49
-0.0295
 74
     0
 49
0.0591
 74
     0
 49
-0.0295
 74
     0
  0
LTYPE
  5
7F
330
5
100
AcDbSymbolTableRecord
100
AcDbLinetypeTableRecord
  2
DASH_DOT
 70
     0
  3
Dash dot _._._._._._._._._._._._._._._.
 72
    65
 73
     4
 40
0.37
 49
0.24
 74
     0
 49
-0.06
 74
     0
 49
0.01
 74
     0
 49
-0.06
 74
     0
  0
LTYPE
  5
80
330
5
100
AcDbSymbolTableRecord
100
AcDbLinetypeTableRecord
  2
DASH_DOUBLE_DOT
 70
     0
  3
Dash Double Dot __ __ . __ __ . __ __ . __ _
 72
    65
 73
     6
 40
0.4398
 49
0.24
 74
     0
 49
-0.06
 74
     0
 49
0.0098
 74
     0
 49
-0.06
 74
     0
 49
0.01
 74
     0
 49
-0.06
 74
     0
  0
LTYPE
  5
81
330
5
100
AcDbSymbolTableRecord
100
AcDbLinetypeTableRecord
  2
DASH_TRIPLE_DOT
 70
     0
  3
Dash Triple-Dot _ . . . _ . . . _ . . . _
 72
    65
 73
     8
 40
0.51
 49
0.24
 74
     0
 49
-0.06
 74
     0
 49
0.01
 74
     0
 49
-0.06
 74
     0
 49
0.01
 74
     0
 49
-0.06
 74
     0
 49
0.01
 74
     0
 49
-0.06
 74
     0
  0
LTYPE
  5
82
330
5
100
AcDbSymbolTableRecord
100
AcDbLinetypeTableRecord
  2
DASHED
 70
     0
  3
Dashed __ __ __ __ __ __ __ __ __ __ __ __ __ _
 72
    65
 73
     2
 40
0.2067
 49
0.1654
 74
     0
 49
-0.0413
 74
     0
  0
LTYPE
  5
83
330
5
100
AcDbSymbolTableRecord
100
AcDbLinetypeTableRecord
  2
DASHED_SPACE
 70
     0
  3
Dashed Space _._._._._._._._._._._._._._._.
 72
    65
 73
     2
 40
0.2067
 49
0.1654
 74
     0
 49
-0.0413
 74
     0
  0
LTYPE
  5
84
330
5
100
AcDbSymbolTableRecord
100
AcDbLinetypeTableRecord
  2
DOTTED
 70
     0
  3
Dotted . . . . . . . . . . . . . . . . . . . . 
 72
    65
 73
     2
 40
0.0482
 49
0.0069
 74
     0
 49
-0.0413
 74
     0
  0
LTYPE
  5
85
330
5
100
AcDbSymbolTableRecord
100
AcDbLinetypeTableRecord
  2
DOUBLE_DASH_CHAIN
 70
     0
  3
Double Dash Chain ___ _ _ ___ _ _ ___ _ _ ___ _
 72
    65
 73
     6
 40
1.240299999999999
 49
0.6614
 74
     0
 49
-0.0827
 74
     0
 49
0.1654
 74
     0
 49
-0.0827
 74
     0
 49
0.1654
 74
     0
 49
-0.0827
 74
     0
  0
LTYPE
  5
86
330
5
100
AcDbSymbolTableRecord
100
AcDbLinetypeTableRecord
  2
DOUBLE_DASH_DOT
 70
     0
  3
Double Dash Dot __ __ . __ __ . __ __ . __ _
 72
    65
 73
     6
 40
0.67
 49
0.24
 74
     0
 49
-0.06
 74
     0
 49
0.24
 74
     0
 49
-0.06
 74
     0
 49
0.01
 74
     0
 49
-0.06
 74
     0
  0
LTYPE
  5
87
330
5
100
AcDbSymbolTableRecord
100
AcDbLinetypeTableRecord
  2
DOUBLE_DASH_DOUBLE_DOT
 70
     0
  3
Double-dash double-dot _ _ . . _ _ . . _
 72
    65
 73
     8
 40
0.7400000000000001
 49
0.24
 74
     0
 49
-0.06
 74
     0
 49
0.24
 74
     0
 49
-0.06
 74
     0
 49
0.01
 74
     0
 49
-0.06
 74
     0
 49
0.01
 74
     0
 49
-0.06
 74
     0
  0
LTYPE
  5
88
330
5
100
AcDbSymbolTableRecord
100
AcDbLinetypeTableRecord
  2
DOUBLE_DASH_TRIPLE_DOT
 70
     0
  3
Double Dash Triple Dot __ __ . . . __ __ . . .
 72
    65
 73
    10
 40
0.8100000000000001
 49
0.24
 74
     0
 49
-0.06
 74
     0
 49
0.24
 74
     0
 49
-0.06
 74
     0
 49
0.01
 74
     0
 49
-0.06
 74
     0
 49
0.01
 74
     0
 49
-0.06
 74
     0
 49
0.01
 74
     0
 49
-0.06
 74
     0
  0
LTYPE
  5
89
330
5
100
AcDbSymbolTableRecord
100
AcDbLinetypeTableRecord
  2
LONG_DASH_DOTTED
 70
     0
  3
Long-Dash Dot ____ . ____ . ____ . ____ . _
 72
    65
 73
     4
 40
0.3001
 49
0.2362
 74
     0
 49
-0.0295
 74
     0
 49
0.0049
 74
     0
 49
-0.0295
 74
     0
  0
LTYPE
  5
8A
330
5
100
AcDbSymbolTableRecord
100
AcDbLinetypeTableRecord
  2
LONG_DASH_DOUBLE_DOT
 70
     0
  3
Long Dash Double Dot ____ . . ____ . . ____ . .
 72
    65
 73
     6
 40
0.3345
 49
0.2362
 74
     0
 49
-0.0295
 74
     0
 49
0.0049
 74
     0
 49
-0.0295
 74
     0
 49
0.0049
 74
     0
 49
-0.0295
 74
     0
  0
LTYPE
  5
8B
330
5
100
AcDbSymbolTableRecord
100
AcDbLinetypeTableRecord
  2
LONG_DASH_TRIPLE_DOT
 70
     0
  3
Long Dash Triple Dot ____ ... ____ ... ____
 72
    65
 73
     8
 40
0.75
 49
0.48
 74
     0
 49
-0.06
 74
     0
 49
0.01
 74
     0
 49
-0.06
 74
     0
 49
0.01
 74
     0
 49
-0.06
 74
     0
 49
0.01
 74
     0
 49
-0.06
 74
     0
  0
LTYPE
  5
8C
330
5
100
AcDbSymbolTableRecord
100
AcDbLinetypeTableRecord
  2
BORDER
 70
     0
  3
Border __ __ . __ __ . __ __ . __ __ . __ __ .
 72
    65
 73
     6
 40
44.45
 49
12.7
 74
     0
 49
-6.349999999999999
 74
     0
 49
12.7
 74
     0
 49
-6.349999999999999
 74
     0
 49
0.0
 74
     0
 49
-6.349999999999999
 74
     0
  0
LTYPE
  5
8D
330
5
100
AcDbSymbolTableRecord
100
AcDbLinetypeTableRecord
  2
BORDER2
 70
     0
  3
Border (.5x) __.__.__.__.__.__.__.__.__.__.__.
 72
    65
 73
     6
 40
22.225
 49
6.349999999999999
 74
     0
 49
-3.174999999999999
 74
     0
 49
6.349999999999999
 74
     0
 49
-3.174999999999999
 74
     0
 49
0.0
 74
     0
 49
-3.174999999999999
 74
     0
  0
LTYPE
  5
8E
330
5
100
AcDbSymbolTableRecord
100
AcDbLinetypeTableRecord
  2
BORDERX2
 70
     0
  3
Border (2x) ____  ____  .  ____  ____  .  ___
 72
    65
 73
     6
 40
88.9
 49
25.4
 74
     0
 49
-12.7
 74
     0
 49
25.4
 74
     0
 49
-12.7
 74
     0
 49
0.0
 74
     0
 49
-12.7
 74
     0
  0
LTYPE
  5
8F
330
5
100
AcDbSymbolTableRecord
100
AcDbLinetypeTableRecord
  2
CENTER
 70
     0
  3
Center ____ _ ____ _ ____ _ ____ _ ____ _ ____
 72
    65
 73
     4
 40
50.8
 49
31.75
 74
     0
 49
-6.349999999999999
 74
     0
 49
6.349999999999999
 74
     0
 49
-6.349999999999999
 74
     0
  0
LTYPE
  5
90
330
5
100
AcDbSymbolTableRecord
100
AcDbLinetypeTableRecord
  2
CENTER2
 70
     0
  3
Center (.5x) ___ _ ___ _ ___ _ ___ _ ___ _ ___
 72
    65
 73
     4
 40
28.575
 49
19.05
 74
     0
 49
-3.174999999999999
 74
     0
 49
3.174999999999999
 74
     0
 49
-3.174999999999999
 74
     0
  0
LTYPE
  5
91
330
5
100
AcDbSymbolTableRecord
100
AcDbLinetypeTableRecord
  2
CENTERX2
 70
     0
  3
Center (2x) ________  __  ________  __  _____
 72
    65
 73
     4
 40
101.6
 49
63.5
 74
     0
 49
-12.7
 74
     0
 49
12.7
 74
     0
 49
-12.7
 74
     0
  0
LTYPE
  5
92
330
5
100
AcDbSymbolTableRecord
100
AcDbLinetypeTableRecord
  2
DASHDOT2
 70
     0
  3
Dash dot (.5x) _._._._._._._._._._._._._._._.
 72
    65
 73
     4
 40
12.7
 49
6.349999999999999
 74
     0
 49
-3.174999999999999
 74
     0
 49
0.0
 74
     0
 49
-3.174999999999999
 74
     0
  0
LTYPE
  5
93
330
5
100
AcDbSymbolTableRecord
100
AcDbLinetypeTableRecord
  2
DASHDOTX2
 70
     0
  3
Dash dot (2x) ____  .  ____  .  ____  .  ___
 72
    65
 73
     4
 40
50.8
 49
25.4
 74
     0
 49
-12.7
 74
     0
 49
0.0
 74
     0
 49
-12.7
 74
     0
  0
LTYPE
  5
94
330
5
100
AcDbSymbolTableRecord
100
AcDbLinetypeTableRecord
  2
DASHED2
 70
     0
  3
Dashed (.5x) _ _ _ _ _ _ _ _ _ _ _ _ _ _ _ _ _
 72
    65
 73
     2
 40
9.524999999999998
 49
6.349999999999999
 74
     0
 49
-3.174999999999999
 74
     0
  0
LTYPE
  5
95
330
5
100
AcDbSymbolTableRecord
100
AcDbLinetypeTableRecord
  2
DASHEDX2
 70
     0
  3
Dashed (2x) ____  ____  ____  ____  ____  ___
 72
    65
 73
     2
 40
38.1
 49
25.4
 74
     0
 49
-12.7
 74
     0
  0
LTYPE
  5
96
330
5
100
AcDbSymbolTableRecord
100
AcDbLinetypeTableRecord
  2
DIVIDE
 70
     0
  3
Divide ____ . . ____ . . ____ . . ____ . . ____
 72
    65
 73
     6
 40
31.75
 49
12.7
 74
     0
 49
-6.349999999999999
 74
     0
 49
0.0
 74
     0
 49
-6.349999999999999
 74
     0
 49
0.0
 74
     0
 49
-6.349999999999999
 74
     0
  0
LTYPE
  5
97
330
5
100
AcDbSymbolTableRecord
100
AcDbLinetypeTableRecord
  2
DIVIDE2
 70
     0
  3
Divide (.5x) __..__..__..__..__..__..__..__.._
 72
    65
 73
     6
 40
15.875
 49
6.349999999999999
 74
     0
 49
-3.174999999999999
 74
     0
 49
0.0
 74
     0
 49
-3.174999999999999
 74
     0
 49
0.0
 74
     0
 49
-3.174999999999999
 74
     0
  0
LTYPE
  5
98
330
5
100
AcDbSymbolTableRecord
100
AcDbLinetypeTableRecord
  2
DIVIDEX2
 70
     0
  3
Divide (2x) ________  .  .  ________  .  .  _
 72
    65
 73
     6
 40
63.49999999999999
 49
25.4
 74
     0
 49
-12.7
 74
     0
 49
0.0
 74
     0
 49
-12.7
 74
     0
 49
0.0
 74
     0
 49
-12.7
 74
     0
  0
LTYPE
  5
99
330
5
100
AcDbSymbolTableRecord
100
AcDbLinetypeTableRecord
  2
DOT
 70
     0
  3
Dot . . . . . . . . . . . . . . . . . . . . . .
 72
    65
 73
     2
 40
6.349999999999999
 49
0.0
 74
     0
 49
-6.349999999999999
 74
     0
  0
LTYPE
  5
9A
330
5
100
AcDbSymbolTableRecord
100
AcDbLinetypeTableRecord
  2
DOT2
 70
     0
  3
Dot (.5x) .....................................
 72
    65
 73
     2
 40
3.174999999999999
 49
0.0
 74
     0
 49
-3.174999999999999
 74
     0
  0
LTYPE
  5
9B
330
5
100
AcDbSymbolTableRecord
100
AcDbLinetypeTableRecord
  2
DOTX2
 70
     0
  3
Dot (2x) .  .  .  .  .  .  .  .  .  .  .  .  . 
 72
    65
 73
     2
 40
12.7
 49
0.0
 74
     0
 49
-12.7
 74
     0
  0
LTYPE
  5
9C
330
5
100
AcDbSymbolTableRecord
100
AcDbLinetypeTableRecord
  2
HIDDEN
 70
     0
  3
Hidden __ __ __ __ __ __ __ __ __ __ __ __ __ _
 72
    65
 73
     2
 40
9.524999999999998
 49
6.349999999999999
 74
     0
 49
-3.174999999999999
 74
     0
  0
LTYPE
  5
9D
330
5
100
AcDbSymbolTableRecord
100
AcDbLinetypeTableRecord
  2
HIDDEN2
 70
     0
  3
Hidden (.5x) _ _ _ _ _ _ _ _ _ _ _ _ _ _ _ _ _
 72
    65
 73
     2
 40
4.762499999999999
 49
3.174999999999999
 74
     0
 49
-1.587499999999999
 74
     0
  0
LTYPE
  5
9E
330
5
100
AcDbSymbolTableRecord
100
AcDbLinetypeTableRecord
  2
HIDDENX2
 70
     0
  3
Hidden (2x) ____ ____ ____ ____ ____ ____ ____
 72
    65
 73
     2
 40
19.05
 49
12.7
 74
     0
 49
-6.349999999999999
 74
     0
  0
LTYPE
  5
9F
330
5
100
AcDbSymbolTableRecord
100
AcDbLinetypeTableRecord
  2
PHANTOM
 70
     0
  3
Phantom ______  __  __  ______  __  __  ______
 72
    65
 73
     6
 40
63.5
 49
31.75
 74
     0
 49
-6.349999999999999
 74
     0
 49
6.349999999999999
 74
     0
 49
-6.349999999999999
 74
     0
 49
6.349999999999999
 74
     0
 49
-6.349999999999999
 74
     0
  0
LTYPE
  5
A0
330
5
100
AcDbSymbolTableRecord
100
AcDbLinetypeTableRecord
  2
PHANTOM2
 70
     0
  3
Phantom (.5x) ___ _ _ ___ _ _ ___ _ _ ___ _ _
 72
    65
 73
     6
 40
31.75
 49
15.875
 74
     0
 49
-3.174999999999999
 74
     0
 49
3.174999999999999
 74
     0
 49
-3.174999999999999
 74
     0
 49
3.174999999999999
 74
     0
 49
-3.174999999999999
 74
     0
  0
LTYPE
  5
A1
330
5
100
AcDbSymbolTableRecord
100
AcDbLinetypeTableRecord
  2
PHANTOMX2
 70
     0
  3
Phantom (2x) ____________    ____    ____   _
 72
    65
 73
     6
 40
127.0
 49
63.5
 74
     0
 49
-12.7
 74
     0
 49
12.7
 74
     0
 49
-12.7
 74
     0
 49
12.7
 74
     0
 49
-12.7
 74
     0
  0
LTYPE
  5
A2
330
5
100
AcDbSymbolTableRecord
100
AcDbLinetypeTableRecord
  2
ACAD_ISO02W100
 70
     0
  3
ISO dash __ __ __ __ __ __ __ __ __ __ __ __ __
 72
    65
 73
     2
 40
15.0
 49
12.0
 74
     0
 49
-3.0
 74
     0
  0
LTYPE
  5
A3
330
5
100
AcDbSymbolTableRecord
100
AcDbLinetypeTableRecord
  2
ACAD_ISO03W100
 70
     0
  3
ISO dash space __    __    __    __    __    __
 72
    65
 73
     2
 40
30.0
 49
12.0
 74
     0
 49
-18.0
 74
     0
  0
LTYPE
  5
A4
330
5
100
AcDbSymbolTableRecord
100
AcDbLinetypeTableRecord
  2
ACAD_ISO04W100
 70
     0
  3
ISO long-dash dot ____ . ____ . ____ . ____ . _
 72
    65
 73
     4
 40
30.0
 49
24.0
 74
     0
 49
-3.0
 74
     0
 49
0.0
 74
     0
 49
-3.0
 74
     0
  0
LTYPE
  5
A5
330
5
100
AcDbSymbolTableRecord
100
AcDbLinetypeTableRecord
  2
ACAD_ISO05W100
 70
     0
  3
ISO long-dash double-dot ____ .. ____ .. ____ .
 72
    65
 73
     6
 40
33.0
 49
24.0
 74
     0
 49
-3.0
 74
     0
 49
0.0
 74
     0
 49
-3.0
 74
     0
 49
0.0
 74
     0
 49
-3.0
 74
     0
  0
LTYPE
  5
A6
330
5
100
AcDbSymbolTableRecord
100
AcDbLinetypeTableRecord
  2
ACAD_ISO06W100
 70
     0
  3
ISO long-dash triple-dot ____ ... ____ ... ____
 72
    65
 73
     8
 40
36.0
 49
24.0
 74
     0
 49
-3.0
 74
     0
 49
0.0
 74
     0
 49
-3.0
 74
     0
 49
0.0
 74
     0
 49
-3.0
 74
     0
 49
0.0
 74
     0
 49
-3.0
 74
     0
  0
LTYPE
  5
A7
330
5
100
AcDbSymbolTableRecord
100
AcDbLinetypeTableRecord
  2
ACAD_ISO07W100
 70
     0
  3
ISO dot . . . . . . . . . . . . . . . . . . . .
 72
    65
 73
     2
 40
3.0
 49
0.0
 74
     0
 49
-3.0
 74
     0
  0
LTYPE
  5
A8
330
5
100
AcDbSymbolTableRecord
100
AcDbLinetypeTableRecord
  2
ACAD_ISO08W100
 70
     0
  3
ISO long-dash short-dash ____ __ ____ __ ____ _
 72
    65
 73
     4
 40
36.0
 49
24.0
 74
     0
 49
-3.0
 74
     0
 49
6.0
 74
     0
 49
-3.0
 74
     0
  0
LTYPE
  5
A9
330
5
100
AcDbSymbolTableRecord
100
AcDbLinetypeTableRecord
  2
ACAD_ISO09W100
 70
     0
  3
ISO long-dash double-short-dash ____ __ __ ____
 72
    65
 73
     6
 40
45.0
 49
24.0
 74
     0
 49
-3.0
 74
     0
 49
6.0
 74
     0
 49
-3.0
 74
     0
 49
6.0
 74
     0
 49
-3.0
 74
     0
  0
LTYPE
  5
AA
330
5
100
AcDbSymbolTableRecord
100
AcDbLinetypeTableRecord
  2
ACAD_ISO10W100
 70
     0
  3
ISO dash dot __ . __ . __ . __ . __ . __ . __ .
 72
    65
 73
     4
 40
18.0
 49
12.0
 74
     0
 49
-3.0
 74
     0
 49
0.0
 74
     0
 49
-3.0
 74
     0
  0
LTYPE
  5
AB
330
5
100
AcDbSymbolTableRecord
100
AcDbLinetypeTableRecord
  2
ACAD_ISO11W100
 70
     0
  3
ISO double-dash dot __ __ . __ __ . __ __ . __ 
 72
    65
 73
     6
 40
33.0
 49
12.0
 74
     0
 49
-3.0
 74
     0
 49
12.0
 74
     0
 49
-3.0
 74
     0
 49
0.0
 74
     0
 49
-3.0
 74
     0
  0
LTYPE
  5
AC
330
5
100
AcDbSymbolTableRecord
100
AcDbLinetypeTableRecord
  2
ACAD_ISO12W100
 70
     0
  3
ISO dash double-dot __ . . __ . . __ . . __ . .
 72
    65
 73
     6
 40
21.0
 49
12.0
 74
     0
 49
-3.0
 74
     0
 49
0.0
 74
     0
 49
-3.0
 74
     0
 49
0.0
 74
     0
 49
-3.0
 74
     0
  0
LTYPE
  5
AD
330
5
100
AcDbSymbolTableRecord
100
AcDbLinetypeTableRecord
  2
ACAD_ISO13W100
 70
     0
  3
ISO double-dash double-dot __ __ . . __ __ . . 
 72
    65
 73
     8
 40
36.0
 49
12.0
 74
     0
 49
-3.0
 74
     0
 49
12.0
 74
     0
 49
-3.0
 74
     0
 49
0.0
 74
     0
 49
-3.0
 74
     0
 49
0.0
 74
     0
 49
-3.0
 74
     0
  0
LTYPE
  5
AE
330
5
100
AcDbSymbolTableRecord
100
AcDbLinetypeTableRecord
  2
ACAD_ISO14W100
 70
     0
  3
ISO dash triple-dot __ . . . __ . . . __ . . . 
 72
    65
 73
     8
 40
24.0
 49
12.0
 74
     0
 49
-3.0
 74
     0
 49
0.0
 74
     0
 49
-3.0
 74
     0
 49
0.0
 74
     0
 49
-3.0
 74
     0
 49
0.0
 74
     0
 49
-3.0
 74
     0
  0
LTYPE
  5
AF
330
5
100
AcDbSymbolTableRecord
100
AcDbLinetypeTableRecord
  2
ACAD_ISO15W100
 70
     0
  3
ISO double-dash triple-dot __ __ . . . __ __ . 
 72
    65
 73
    10
 40
39.0
 49
12.0
 74
     0
 49
-3.0
 74
     0
 49
12.0
 74
     0
 49
-3.0
 74
     0
 49
0.0
 74
     0
 49
-3.0
 74
     0
 49
0.0
 74
     0
 49
-3.0
 74
     0
 49
0.0
 74
     0
 49
-3.0
 74
     0
  0
LTYPE
  5
B2
330
5
100
AcDbSymbolTableRecord
100
AcDbLinetypeTableRecord
  2
FENCELINE1
 70
     0
  3
Fenceline circle ----0-----0----0-----0----0---
 72
    65
 73
     4
 40
36.83
 49
6.349999999999999
 74
     0
 49
-2.54
 74
     4
 75
   133
340
B1
 46
2.54
 50
0.0
 44
-2.54
 45
0.0
 49
-2.54
 74
     0
 49
25.4
 74
     0
  0
LTYPE
  5
B3
330
5
100
AcDbSymbolTableRecord
100
AcDbLinetypeTableRecord
  2
FENCELINE2
 70
     0
  3
Fenceline square ----[]-----[]----[]-----[]----
 72
    65
 73
     4
 40
36.83
 49
6.349999999999999
 74
     0
 49
-2.54
 74
     4
 75
   132
340
B1
 46
2.54
 50
0.0
 44
-2.54
 45
0.0
 49
-2.54
 74
     0
 49
25.4
 74
     0
  0
LTYPE
  5
B4
330
5
100
AcDbSymbolTableRecord
100
AcDbLinetypeTableRecord
  2
TRACKS
 70
     0
  3
Tracks -|-|-|-|-|-|-|-|-|-|-|-|-|-|-|-|-|-|-|-|
 72
    65
 73
     2
 40
7.62
 49
3.81
 74
     4
 75
   130
340
B1
 46
6.349999999999999
 50
0.0
 44
0.0
 45
0.0
 49
3.81
 74
     0
  0
LTYPE
  5
B5
330
5
100
AcDbSymbolTableRecord
100
AcDbLinetypeTableRecord
  2
BATTING
 70
     0
  3
Batting SSSSSSSSSSSSSSSSSSSSSSSSSSSSSSSSSSSSSSS
 72
    65
 73
     4
 40
10.16254
 49
0.00254
 74
     0
 49
-2.54
 74
     4
 75
   134
340
B1
 46
2.54
 50
0.0
 44
-2.54
 45
0.0
 49
-5.08
 74
     4
 75
   134
340
B1
 46
2.54
 50
180.0
 44
2.54
 45
0.0
 49
-2.54
 74
     0
  0
LTYPE
  5
B6
330
5
100
AcDbSymbolTableRecord
100
AcDbLinetypeTableRecord
  2
HOT_WATER_SUPPLY
 70
     0
  3
Hot water supply ---- HW ---- HW ---- HW ----
 72
    65
 73
     3
 40
22.86
 49
12.7
 74
     0
 49
-5.08
 74
     2
 75
     0
340
5D
 46
2.54
 50
0.0
 44
-2.54
 45
-1.27
  9
HW
 49
-5.08
 74
     0
  0
LTYPE
  5
B7
330
5
100
AcDbSymbolTableRecord
100
AcDbLinetypeTableRecord
  2
GAS_LINE
 70
     0
  3
Gas line ----GAS----GAS----GAS----GAS----GAS---
 72
    65
 73
     3
 40
24.13
 49
12.7
 74
     0
 49
-5.08
 74
     2
 75
     0
340
5D
 46
2.54
 50
0.0
 44
-2.54
 45
-1.27
  9
GAS
 49
-6.349999999999999
 74
     0
  0
LTYPE
  5
B8
330
5
100
AcDbSymbolTableRecord
100
AcDbLinetypeTableRecord
  2
ZIGZAG
 70
     0
  3
Zig zag /\/\/\/\/\/\/\/\/\/\/\/\/\/\/\/\/\/\/\/
 72
    65
 73
     4
 40
20.32254
 49
0.00254
 74
     0
 49
-5.08
 74
     4
 75
   131
340
B1
 46
5.08
 50
0.0
 44
-5.08
 45
0.0
 49
-10.16
 74
     4
 75
   131
340
B1
 46
5.08
 50
180.0
 44
5.08
 45
0.0
 49
-5.08
 74
     0
  0
ENDTAB
  0
TABLE
  2
LAYER
  5
2
330
0
100
AcDbSymbolTable
 70
    26
  0
LAYER
  5
5C
330
2
100
AcDbSymbolTableRecord
100
AcDbLayerTableRecord
  2
0
 70
     0
 62
     7
  6
Continuous
370
    -3
390
F
  0
LAYER
  5
CA
330
2
100
AcDbSymbolTableRecord
100
AcDbLayerTableRecord
  2
Sichtbar MD
 70
     0
 62
     7
  6
Continuous
370
    35
390
F
  0
ENDTAB
  0
TABLE
  2
STYLE
  5
3
330
0
100
AcDbSymbolTable
 70
     3
  0
STYLE
  5
5D
330
3
100
AcDbSymbolTableRecord
100
AcDbTextStyleTableRecord
  2
Standard
 70
     0
 40
0.0
 41
1.0
 50
0.0
 71
     0
 42
0.2
  3
isocpeur.ttf
  4

1001
ACAD
1000
ISOCPEUR
1071
      256
  0
STYLE
  5
62
330
3
100
AcDbSymbolTableRecord
100
AcDbTextStyleTableRecord
  2
Annotative
 70
     0
 40
0.0
 41
1.0
 50
0.0
 71
     0
 42
0.2
  3

  4

1001
AcadAnnotative
1000
AnnotativeData
1002
{
1070
     1
1070
     1
1002
}
  0
STYLE
  5
B1
330
3
100
AcDbSymbolTableRecord
100
AcDbTextStyleTableRecord
  2

 70
     1
 40
0.0
 41
1.0
 50
0.0
 71
     0
 42
0.2
  3
ltypeshp.shx
  4

  0
ENDTAB
  0
TABLE
  2
VIEW
  5
6
330
0
100
AcDbSymbolTable
 70
     0
  0
ENDTAB
  0
TABLE
  2
UCS
  5
7
330
0
100
AcDbSymbolTable
 70
     0
  0
ENDTAB
  0
TABLE
  2
APPID
  5
9
330
0
100
AcDbSymbolTable
 70
     3
  0
APPID
  5
5E
330
9
100
AcDbSymbolTableRecord
100
AcDbRegAppTableRecord
  2
ACAD
 70
     0
  0
APPID
  5
66
330
9
100
AcDbSymbolTableRecord
100
AcDbRegAppTableRecord
  2
AcadAnnotative
 70
     0
  0
APPID
  5
70
330
9
100
AcDbSymbolTableRecord
100
AcDbRegAppTableRecord
  2
ACAD_MLEADERVER
 70
     0
  0
ENDTAB
  0
TABLE
  2
DIMSTYLE
  5
A
330
0
100
AcDbSymbolTable
 70
     2
100
AcDbDimStyleTable
 71
     0
  0
DIMSTYLE
105
60
330
A
100
AcDbSymbolTableRecord
100
AcDbDimStyleTableRecord
  2
Standard
 70
     0
340
5D
  0
DIMSTYLE
105
61
330
A
100
AcDbSymbolTableRecord
100
AcDbDimStyleTableRecord
  2
Annotative
 70
     0
340
5D
1001
AcadAnnotative
1000
AnnotativeData
1002
{
1070
     1
1070
     1
1002
}
  0
ENDTAB
  0
TABLE
  2
BLOCK_RECORD
  5
1
330
0
100
AcDbSymbolTable
 70
     1
  0
BLOCK_RECORD
  5
75
330
1
100
AcDbSymbolTableRecord
100
AcDbBlockTableRecord
  2
*Model_Space
340
78
  0
BLOCK_RECORD
  5
71
330
1
100
AcDbSymbolTableRecord
100
AcDbBlockTableRecord
  2
*Paper_Space
340
74
  0
BLOCK_RECORD
  5
79
330
1
100
AcDbSymbolTableRecord
100
AcDbBlockTableRecord
  2
*Paper_Space0
340
7C
  0
ENDTAB
  0
ENDSEC
  0
SECTION
  2
BLOCKS
  0
BLOCK
  5
76
330
75
100
AcDbEntity
  8
0
100
AcDbBlockBegin
  2
*Model_Space
 70
     0
 10
0.0
 20
0.0
 30
0.0
  3
*Model_Space
  1

  0
ENDBLK
  5
77
330
75
100
AcDbEntity
  8
0
100
AcDbBlockEnd
  0
BLOCK
  5
72
330
71
100
AcDbEntity
 67
     1
  8
0
100
AcDbBlockBegin
  2
*Paper_Space
 70
     0
 10
0.0
 20
0.0
 30
0.0
  3
*Paper_Space
  1

  0
ENDBLK
  5
73
330
71
100
AcDbEntity
 67
     1
  8
0
100
AcDbBlockEnd
  0
BLOCK
  5
7A
330
79
100
AcDbEntity
 67
     1
  8
0
100
AcDbBlockBegin
  2
*Paper_Space0
 70
     0
 10
0.0
 20
0.0
 30
0.0
  3
*Paper_Space0
  1

  0
ENDBLK
  5
7B
330
79
100
AcDbEntity
 67
     1
  8
0
100
AcDbBlockEnd
  0
ENDSEC
  0
SECTION
  2
ENTITIES
  0
LINE
  5
D2
330
75
100
AcDbEntity
  8
Sichtbar MD
100
AcDbLine
 10
62.75804299103292
 20
114.6102216761242
 30
0.0
 11
62.75804299163464
 21
129.6102216761243
 31
0.0
  0
ARC
  5
D3
330
75
100
AcDbEntity
  8
Sichtbar MD
100
AcDbCircle
 10
63.25804299103293
 20
114.6102216761041
 30
0.0
 40
0.5000000000000036
100
AcDbArc
 50
180.0
 51
269.9999999977019
  0
ARC
  5
D4
330
75
100
AcDbEntity
  8
Sichtbar MD
100
AcDbCircle
 10
63.25804299163464
 20
129.6102216761042
 30
0.0
 40
0.5000000000000036
100
AcDbArc
 50
89.99999999770187
 51
180.0
  0
LINE
  5
D5
330
75
100
AcDbEntity
  8
Sichtbar MD
100
AcDbLine
 10
69.75804299165472
 20
130.1102216758435
 30
0.0
 11
69.75804299101287
 21
114.1102216758434
 31
0.0
  0
LINE
  5
D6
330
75
100
AcDbEntity
  8
Sichtbar MD
100
AcDbLine
 10
80.25804299103292
 20
114.6102216754222
 30
0.0
 11
80.25804299122578
 21
119.417639271855
 31
0.0
  0
POLYLINE
  5
D7
330
75
100
AcDbEntity
  8
Sichtbar MD
100
AcDb2dPolyline
 66
     1
 10
0.0
 20
0.0
 30
0.0
 70
   128
  0
VERTEX
  5
D8
330
D7
100
AcDbEntity
  8
Sichtbar MD
100
AcDbVertex
100
AcDb2dVertex
 10
79.75804251434128
 20
118.2372382197843
 30
0.0
  0
VERTEX
  5
D9
330
D7
100
AcDbEntity
  8
Sichtbar MD
100
AcDbVertex
100
AcDb2dVertex
 10
79.78233736755374
 20
118.28767268996
 30
0.0
  0
VERTEX
  5
DB
330
D7
100
AcDbEntity
  8
Sichtbar MD
100
AcDbVertex
100
AcDb2dVertex
 10
79.80632466079917
 20
118.3379778180566
 30
0.0
  0
VERTEX
  5
DC
330
D7
100
AcDbEntity
  8
Sichtbar MD
100
AcDbVertex
100
AcDb2dVertex
 10
79.83000677826334
 20
118.3881565843063
 30
0.0
  0
VERTEX
  5
DD
330
D7
100
AcDbEntity
  8
Sichtbar MD
100
AcDbVertex
100
AcDb2dVertex
 10
79.85338371994626
 20
118.4382119689413
 30
0.0
  0
VERTEX
  5
DE
330
D7
100
AcDbEntity
  8
Sichtbar MD
100
AcDbVertex
100
AcDb2dVertex
 10
79.87645548584793
 20
118.4881466541706
 30
0.0
  0
VERTEX
  5
DF
330
D7
100
AcDbEntity
  8
Sichtbar MD
100
AcDbVertex
100
AcDb2dVertex
 10
79.89922446015412
 20
118.5379633222033
 30
0.0
  0
VERTEX
  5
E0
330
D7
100
AcDbEntity
  8
Sichtbar MD
100
AcDbVertex
100
AcDb2dVertex
 10
79.92169064286485
 20
118.5876649532715
 30
0.0
  0
VERTEX
  5
E1
330
D7
100
AcDbEntity
  8
Sichtbar MD
100
AcDbVertex
100
AcDb2dVertex
 10
79.94385641816592
 20
118.6372542295844
 30
0.0
  0
VERTEX
  5
E2
330
D7
100
AcDbEntity
  8
Sichtbar MD
100
AcDbVertex
100
AcDb2dVertex
 10
79.9657217860573
 20
118.6867338333509
 30
0.0
  0
VERTEX
  5
E3
330
D7
100
AcDbEntity
  8
Sichtbar MD
100
AcDbVertex
100
AcDb2dVertex
 10
79.98728674653903
 20
118.7361067448033
 30
0.0
  0
VERTEX
  5
E4
330
D7
100
AcDbEntity
  8
Sichtbar MD
100
AcDbVertex
100
AcDb2dVertex
 10
80.00855129961108
 20
118.7853753481274
 30
0.0
  0
VERTEX
  5
E5
330
D7
100
AcDbEntity
  8
Sichtbar MD
100
AcDbVertex
100
AcDb2dVertex
 10
80.02952021364501
 20
118.8345426235553
 30
0.0
  0
VERTEX
  5
E6
330
D7
100
AcDbEntity
  8
Sichtbar MD
100
AcDbVertex
100
AcDb2dVertex
 10
80.0501887202693
 20
118.8836112532961
 30
0.0
  0
VERTEX
  5
E7
330
D7
100
AcDbEntity
  8
Sichtbar MD
100
AcDbVertex
100
AcDb2dVertex
 10
80.0705615878555
 20
118.9325842175821
 30
0.0
  0
VERTEX
  5
E8
330
D7
100
AcDbEntity
  8
Sichtbar MD
100
AcDbVertex
100
AcDb2dVertex
 10
80.0906364322178
 20
118.9814639005991
 30
0.0
  0
VERTEX
  5
E9
330
D7
100
AcDbEntity
  8
Sichtbar MD
100
AcDbVertex
100
AcDb2dVertex
 10
80.11041563754202
 20
119.0302532825792
 30
0.0
  0
VERTEX
  5
EA
330
D7
100
AcDbEntity
  8
Sichtbar MD
100
AcDbVertex
100
AcDb2dVertex
 10
80.12989920382816
 20
119.0789547477082
 30
0.0
  0
VERTEX
  5
EB
330
D7
100
AcDbEntity
  8
Sichtbar MD
100
AcDbVertex
100
AcDb2dVertex
 10
80.14908713107621
 20
119.1275712762185
 30
0.0
  0
VERTEX
  5
EC
330
D7
100
AcDbEntity
  8
Sichtbar MD
100
AcDbVertex
100
AcDb2dVertex
 10
80.16798180347194
 20
119.1761058483422
 30
0.0
  0
VERTEX
  5
ED
330
D7
100
AcDbEntity
  8
Sichtbar MD
100
AcDbVertex
100
AcDb2dVertex
 10
80.18658083682963
 20
119.224560550242
 30
0.0
  0
VERTEX
  5
EE
330
D7
100
AcDbEntity
  8
Sichtbar MD
100
AcDbVertex
100
AcDb2dVertex
 10
80.20488661533496
 20
119.2729386601732
 30
0.0
  0
VERTEX
  5
EF
330
D7
100
AcDbEntity
  8
Sichtbar MD
100
AcDbVertex
100
AcDb2dVertex
 10
80.22289913898802
 20
119.3212425623217
 30
0.0
  0
VERTEX
  5
F0
330
D7
100
AcDbEntity
  8
Sichtbar MD
100
AcDbVertex
100
AcDb2dVertex
 10
80.24061602360299
 20
119.3694752369196
 30
0.0
  0
VERTEX
  5
F1
330
D7
100
AcDbEntity
  8
Sichtbar MD
100
AcDbVertex
100
AcDb2dVertex
 10
80.25804203755146
 20
119.4176393661761
 30
0.0
  0
SEQEND
  5
DA
330
D7
100
AcDbEntity
  8
Sichtbar MD
  0
LINE
  5
F2
330
75
100
AcDbEntity
  8
Sichtbar MD
100
AcDbLine
 10
79.75804299117844
 20
118.2372383292349
 30
0.0
 11
79.75804299101287
 21
114.1102216754422
 31
0.0
  0
LINE
  5
F3
330
75
100
AcDbEntity
  8
Sichtbar MD
100
AcDbLine
 10
79.75804299165472
 20
130.1102216754423
 30
0.0
 11
79.75804299148916
 21
125.9832050216497
 31
0.0
  0
POLYLINE
  5
F4
330
75
100
AcDbEntity
  8
Sichtbar MD
100
AcDb2dPolyline
 66
     1
 10
0.0
 20
0.0
 30
0.0
 70
   128
  0
VERTEX
  5
F5
330
F4
100
AcDbEntity
  8
Sichtbar MD
100
AcDbVertex
100
AcDb2dVertex
 10
80.25804203776749
 20
124.8028039846683
 30
0.0
  0
VERTEX
  5
F6
330
F4
100
AcDbEntity
  8
Sichtbar MD
100
AcDbVertex
100
AcDb2dVertex
 10
80.24061602382289
 20
124.8509681139262
 30
0.0
  0
VERTEX
  5
F8
330
F4
100
AcDbEntity
  8
Sichtbar MD
100
AcDbVertex
100
AcDb2dVertex
 10
80.22289913921179
 20
124.8992007885256
 30
0.0
  0
VERTEX
  5
F9
330
F4
100
AcDbEntity
  8
Sichtbar MD
100
AcDbVertex
100
AcDb2dVertex
 10
80.2048866155626
 20
124.9475046906755
 30
0.0
  0
VERTEX
  5
FA
330
F4
100
AcDbEntity
  8
Sichtbar MD
100
AcDbVertex
100
AcDb2dVertex
 10
80.18658083706112
 20
124.9958828006082
 30
0.0
  0
VERTEX
  5
FB
330
F4
100
AcDbEntity
  8
Sichtbar MD
100
AcDbVertex
100
AcDb2dVertex
 10
80.16798180370734
 20
125.0443375025094
 30
0.0
  0
VERTEX
  5
FC
330
F4
100
AcDbEntity
  8
Sichtbar MD
100
AcDbVertex
100
AcDb2dVertex
 10
80.1490871313155
 20
125.0928720746347
 30
0.0
  0
VERTEX
  5
FD
330
F4
100
AcDbEntity
  8
Sichtbar MD
100
AcDbVertex
100
AcDb2dVertex
 10
80.12989920407136
 20
125.1414886031465
 30
0.0
  0
VERTEX
  5
FE
330
F4
100
AcDbEntity
  8
Sichtbar MD
100
AcDbVertex
100
AcDb2dVertex
 10
80.11041563778915
 20
125.1901900682772
 30
0.0
  0
VERTEX
  5
FF
330
F4
100
AcDbEntity
  8
Sichtbar MD
100
AcDbVertex
100
AcDb2dVertex
 10
80.09063643246882
 20
125.2389794502588
 30
0.0
  0
VERTEX
  5
100
330
F4
100
AcDbEntity
  8
Sichtbar MD
100
AcDbVertex
100
AcDb2dVertex
 10
80.07056158811042
 20
125.2878591332774
 30
0.0
  0
VERTEX
  5
101
330
F4
100
AcDbEntity
  8
Sichtbar MD
100
AcDbVertex
100
AcDb2dVertex
 10
80.05018872052817
 20
125.336832097565
 30
0.0
  0
VERTEX
  5
102
330
F4
100
AcDbEntity
  8
Sichtbar MD
100
AcDbVertex
100
AcDb2dVertex
 10
80.02952021390782
 20
125.3859007273075
 30
0.0
  0
VERTEX
  5
103
330
F4
100
AcDbEntity
  8
Sichtbar MD
100
AcDbVertex
100
AcDb2dVertex
 10
80.00855129987781
 20
125.4350680027371
 30
0.0
  0
VERTEX
  5
104
330
F4
100
AcDbEntity
  8
Sichtbar MD
100
AcDbVertex
100
AcDb2dVertex
 10
79.98728674680973
 20
125.4843366060628
 30
0.0
  0
VERTEX
  5
105
330
F4
100
AcDbEntity
  8
Sichtbar MD
100
AcDbVertex
100
AcDb2dVertex
 10
79.96572178633197
 20
125.533709517517
 30
0.0
  0
VERTEX
  5
106
330
F4
100
AcDbEntity
  8
Sichtbar MD
100
AcDbVertex
100
AcDb2dVertex
 10
79.94385641844454
 20
125.5831891212852
 30
0.0
  0
VERTEX
  5
107
330
F4
100
AcDbEntity
  8
Sichtbar MD
100
AcDbVertex
100
AcDb2dVertex
 10
79.92169064314746
 20
125.6327783975999
 30
0.0
  0
VERTEX
  5
108
330
F4
100
AcDbEntity
  8
Sichtbar MD
100
AcDbVertex
100
AcDb2dVertex
 10
79.89922446044072
 20
125.68248002867
 30
0.0
  0
VERTEX
  5
109
330
F4
100
AcDbEntity
  8
Sichtbar MD
100
AcDbVertex
100
AcDb2dVertex
 10
79.87645548613852
 20
125.7322966967045
 30
0.0
  0
VERTEX
  5
10A
330
F4
100
AcDbEntity
  8
Sichtbar MD
100
AcDbVertex
100
AcDb2dVertex
 10
79.85338372024087
 20
125.7822313819357
 30
0.0
  0
VERTEX
  5
10B
330
F4
100
AcDbEntity
  8
Sichtbar MD
100
AcDbVertex
100
AcDb2dVertex
 10
79.83000677856196
 20
125.8322867665725
 30
0.0
  0
VERTEX
  5
10C
330
F4
100
AcDbEntity
  8
Sichtbar MD
100
AcDbVertex
100
AcDb2dVertex
 10
79.80632466110181
 20
125.8824655328241
 30
0.0
  0
VERTEX
  5
10D
330
F4
100
AcDbEntity
  8
Sichtbar MD
100
AcDbVertex
100
AcDb2dVertex
 10
79.78233736786044
 20
125.9327706609226
 30
0.0
  0
VERTEX
  5
10E
330
F4
100
AcDbEntity
  8
Sichtbar MD
100
AcDbVertex
100
AcDb2dVertex
 10
79.758042514652
 20
125.9832051311003
 30
0.0
  0
SEQEND
  5
F7
330
F4
100
AcDbEntity
  8
Sichtbar MD
  0
LINE
  5
10F
330
75
100
AcDbEntity
  8
Sichtbar MD
100
AcDbLine
 10
80.25804299144178
 20
124.8028040789895
 30
0.0
 11
80.25804299163466
 21
129.6102216754223
 31
0.0
  0
LINE
  5
110
330
75
100
AcDbEntity
  8
Sichtbar MD
100
AcDbLine
 10
80.75804299101285
 20
114.1102216754021
 30
0.0
 11
80.75804299165469
 21
130.1102216754022
 31
0.0
  0
LINE
  5
111
330
75
100
AcDbEntity
  8
Sichtbar MD
100
AcDbLine
 10
80.25804299144182
 20
124.8028040789895
 30
0.0
 11
80.25804299122578
 21
119.417639271855
 31
0.0
  0
LINE
  5
112
330
75
100
AcDbEntity
  8
Sichtbar MD
100
AcDbLine
 10
70.25804299144181
 20
124.8028040793906
 30
0.0
 11
70.25804299163465
 21
129.6102216758234
 31
0.0
  0
POLYLINE
  5
113
330
75
100
AcDbEntity
  8
Sichtbar MD
100
AcDb2dPolyline
 66
     1
 10
0.0
 20
0.0
 30
0.0
 70
   128
  0
VERTEX
  5
114
330
113
100
AcDbEntity
  8
Sichtbar MD
100
AcDbVertex
100
AcDb2dVertex
 10
70.75804394516348
 20
125.9832051314613
 30
0.0
  0
VERTEX
  5
115
330
113
100
AcDbEntity
  8
Sichtbar MD
100
AcDbVertex
100
AcDb2dVertex
 10
70.73374909195101
 20
125.9327706612856
 30
0.0
  0
VERTEX
  5
117
330
113
100
AcDbEntity
  8
Sichtbar MD
100
AcDbVertex
100
AcDb2dVertex
 10
70.70976179870557
 20
125.882465533189
 30
0.0
  0
VERTEX
  5
118
330
113
100
AcDbEntity
  8
Sichtbar MD
100
AcDbVertex
100
AcDb2dVertex
 10
70.6860796812414
 20
125.8322867669393
 30
0.0
  0
VERTEX
  5
119
330
113
100
AcDbEntity
  8
Sichtbar MD
100
AcDbVertex
100
AcDb2dVertex
 10
70.6627027395585
 20
125.7822313823044
 30
0.0
  0
VERTEX
  5
11A
330
113
100
AcDbEntity
  8
Sichtbar MD
100
AcDbVertex
100
AcDb2dVertex
 10
70.63963097365683
 20
125.732296697075
 30
0.0
  0
VERTEX
  5
11B
330
113
100
AcDbEntity
  8
Sichtbar MD
100
AcDbVertex
100
AcDb2dVertex
 10
70.61686199935063
 20
125.6824800290424
 30
0.0
  0
VERTEX
  5
11C
330
113
100
AcDbEntity
  8
Sichtbar MD
100
AcDbVertex
100
AcDb2dVertex
 10
70.5943934324541
 20
125.6327783979741
 30
0.0
  0
VERTEX
  5
11D
330
113
100
AcDbEntity
  8
Sichtbar MD
100
AcDbVertex
100
AcDb2dVertex
 10
70.57223004133883
 20
125.5831891216611
 30
0.0
  0
VERTEX
  5
11E
330
113
100
AcDbEntity
  8
Sichtbar MD
100
AcDbVertex
100
AcDb2dVertex
 10
70.55036467344745
 20
125.5337095178947
 30
0.0
  0
VERTEX
  5
11F
330
113
100
AcDbEntity
  8
Sichtbar MD
100
AcDbVertex
100
AcDb2dVertex
 10
70.52879971296573
 20
125.4843366064423
 30
0.0
  0
VERTEX
  5
120
330
113
100
AcDbEntity
  8
Sichtbar MD
100
AcDbVertex
100
AcDb2dVertex
 10
70.5075327757079
 20
125.4350680031182
 30
0.0
  0
VERTEX
  5
121
330
113
100
AcDbEntity
  8
Sichtbar MD
100
AcDbVertex
100
AcDb2dVertex
 10
70.48656624585973
 20
125.3859007276903
 30
0.0
  0
VERTEX
  5
122
330
113
100
AcDbEntity
  8
Sichtbar MD
100
AcDbVertex
100
AcDb2dVertex
 10
70.46589773923544
 20
125.3368320979495
 30
0.0
  0
VERTEX
  5
123
330
113
100
AcDbEntity
  8
Sichtbar MD
100
AcDbVertex
100
AcDb2dVertex
 10
70.44552487164924
 20
125.2878591336635
 30
0.0
  0
VERTEX
  5
124
330
113
100
AcDbEntity
  8
Sichtbar MD
100
AcDbVertex
100
AcDb2dVertex
 10
70.42545002728694
 20
125.2389794506466
 30
0.0
  0
VERTEX
  5
125
330
113
100
AcDbEntity
  8
Sichtbar MD
100
AcDbVertex
100
AcDb2dVertex
 10
70.40567082196273
 20
125.1901900686664
 30
0.0
  0
VERTEX
  5
126
330
113
100
AcDbEntity
  8
Sichtbar MD
100
AcDbVertex
100
AcDb2dVertex
 10
70.38618725567658
 20
125.1414886035374
 30
0.0
  0
VERTEX
  5
127
330
113
100
AcDbEntity
  8
Sichtbar MD
100
AcDbVertex
100
AcDb2dVertex
 10
70.36699932842854
 20
125.0928720750271
 30
0.0
  0
VERTEX
  5
128
330
113
100
AcDbEntity
  8
Sichtbar MD
100
AcDbVertex
100
AcDb2dVertex
 10
70.3481046560328
 20
125.0443375029034
 30
0.0
  0
VERTEX
  5
129
330
113
100
AcDbEntity
  8
Sichtbar MD
100
AcDbVertex
100
AcDb2dVertex
 10
70.32950562267514
 20
124.9958828010036
 30
0.0
  0
VERTEX
  5
12A
330
113
100
AcDbEntity
  8
Sichtbar MD
100
AcDbVertex
100
AcDb2dVertex
 10
70.31119984416978
 20
124.9475046910724
 30
0.0
  0
VERTEX
  5
12B
330
113
100
AcDbEntity
  8
Sichtbar MD
100
AcDbVertex
100
AcDb2dVertex
 10
70.29318732051672
 20
124.8992007889239
 30
0.0
  0
VERTEX
  5
12C
330
113
100
AcDbEntity
  8
Sichtbar MD
100
AcDbVertex
100
AcDb2dVertex
 10
70.27546805171596
 20
124.850968114326
 30
0.0
  0
VERTEX
  5
12D
330
113
100
AcDbEntity
  8
Sichtbar MD
100
AcDbVertex
100
AcDb2dVertex
 10
70.2580420377675
 20
124.8028039850695
 30
0.0
  0
SEQEND
  5
116
330
113
100
AcDbEntity
  8
Sichtbar MD
  0
LINE
  5
12E
330
75
100
AcDbEntity
  8
Sichtbar MD
100
AcDbLine
 10
70.75804299148915
 20
125.9832050220107
 30
0.0
 11
70.75804299165469
 21
130.1102216758034
 31
0.0
  0
LINE
  5
12F
330
75
100
AcDbEntity
  8
Sichtbar MD
100
AcDbLine
 10
70.75804299101285
 20
114.1102216758033
 30
0.0
 11
70.75804299117843
 21
118.2372383295959
 31
0.0
  0
POLYLINE
  5
130
330
75
100
AcDbEntity
  8
Sichtbar MD
100
AcDb2dPolyline
 66
     1
 10
0.0
 20
0.0
 30
0.0
 70
   128
  0
VERTEX
  5
131
330
130
100
AcDbEntity
  8
Sichtbar MD
100
AcDbVertex
100
AcDb2dVertex
 10
70.25804203755146
 20
119.4176393665773
 30
0.0
  0
VERTEX
  5
132
330
130
100
AcDbEntity
  8
Sichtbar MD
100
AcDbVertex
100
AcDb2dVertex
 10
70.27546805149606
 20
119.3694752373194
 30
0.0
  0
VERTEX
  5
134
330
130
100
AcDbEntity
  8
Sichtbar MD
100
AcDbVertex
100
AcDb2dVertex
 10
70.29318732029295
 20
119.32124256272
 30
0.0
  0
VERTEX
  5
135
330
130
100
AcDbEntity
  8
Sichtbar MD
100
AcDbVertex
100
AcDb2dVertex
 10
70.31119984394215
 20
119.27293866057
 30
0.0
  0
VERTEX
  5
136
330
130
100
AcDbEntity
  8
Sichtbar MD
100
AcDbVertex
100
AcDb2dVertex
 10
70.32950562244363
 20
119.2245605506374
 30
0.0
  0
VERTEX
  5
137
330
130
100
AcDbEntity
  8
Sichtbar MD
100
AcDbVertex
100
AcDb2dVertex
 10
70.3481046557974
 20
119.1761058487361
 30
0.0
  0
VERTEX
  5
138
330
130
100
AcDbEntity
  8
Sichtbar MD
100
AcDbVertex
100
AcDb2dVertex
 10
70.36699932818925
 20
119.1275712766109
 30
0.0
  0
VERTEX
  5
139
330
130
100
AcDbEntity
  8
Sichtbar MD
100
AcDbVertex
100
AcDb2dVertex
 10
70.38618725543338
 20
119.0789547480991
 30
0.0
  0
VERTEX
  5
13A
330
130
100
AcDbEntity
  8
Sichtbar MD
100
AcDbVertex
100
AcDb2dVertex
 10
70.40567082171562
 20
119.0302532829685
 30
0.0
  0
VERTEX
  5
13B
330
130
100
AcDbEntity
  8
Sichtbar MD
100
AcDbVertex
100
AcDb2dVertex
 10
70.42545002703592
 20
118.9814639009868
 30
0.0
  0
VERTEX
  5
13C
330
130
100
AcDbEntity
  8
Sichtbar MD
100
AcDbVertex
100
AcDb2dVertex
 10
70.44552487139433
 20
118.9325842179682
 30
0.0
  0
VERTEX
  5
13D
330
130
100
AcDbEntity
  8
Sichtbar MD
100
AcDbVertex
100
AcDb2dVertex
 10
70.46589773897657
 20
118.8836112536806
 30
0.0
  0
VERTEX
  5
13E
330
130
100
AcDbEntity
  8
Sichtbar MD
100
AcDbVertex
100
AcDb2dVertex
 10
70.48656624559692
 20
118.8345426239381
 30
0.0
  0
VERTEX
  5
13F
330
130
100
AcDbEntity
  8
Sichtbar MD
100
AcDbVertex
100
AcDb2dVertex
 10
70.50753277544115
 20
118.7853753485085
 30
0.0
  0
VERTEX
  5
140
330
130
100
AcDbEntity
  8
Sichtbar MD
100
AcDbVertex
100
AcDb2dVertex
 10
70.52879971269503
 20
118.7361067451828
 30
0.0
  0
VERTEX
  5
141
330
130
100
AcDbEntity
  8
Sichtbar MD
100
AcDbVertex
100
AcDb2dVertex
 10
70.55036467317278
 20
118.6867338337286
 30
0.0
  0
VERTEX
  5
142
330
130
100
AcDbEntity
  8
Sichtbar MD
100
AcDbVertex
100
AcDb2dVertex
 10
70.5722300410602
 20
118.6372542299604
 30
0.0
  0
VERTEX
  5
143
330
130
100
AcDbEntity
  8
Sichtbar MD
100
AcDbVertex
100
AcDb2dVertex
 10
70.5943934321715
 20
118.5876649536457
 30
0.0
  0
VERTEX
  5
144
330
130
100
AcDbEntity
  8
Sichtbar MD
100
AcDbVertex
100
AcDb2dVertex
 10
70.61686199906403
 20
118.5379633225756
 30
0.0
  0
VERTEX
  5
145
330
130
100
AcDbEntity
  8
Sichtbar MD
100
AcDbVertex
100
AcDb2dVertex
 10
70.63963097336624
 20
118.4881466545411
 30
0.0
  0
VERTEX
  5
146
330
130
100
AcDbEntity
  8
Sichtbar MD
100
AcDbVertex
100
AcDb2dVertex
 10
70.66270273926389
 20
118.4382119693099
 30
0.0
  0
VERTEX
  5
147
330
130
100
AcDbEntity
  8
Sichtbar MD
100
AcDbVertex
100
AcDb2dVertex
 10
70.68607968094278
 20
118.3881565846731
 30
0.0
  0
VERTEX
  5
148
330
130
100
AcDbEntity
  8
Sichtbar MD
100
AcDbVertex
100
AcDb2dVertex
 10
70.70976179840293
 20
118.3379778184215
 30
0.0
  0
VERTEX
  5
149
330
130
100
AcDbEntity
  8
Sichtbar MD
100
AcDbVertex
100
AcDb2dVertex
 10
70.73374909164432
 20
118.287672690323
 30
0.0
  0
VERTEX
  5
14A
330
130
100
AcDbEntity
  8
Sichtbar MD
100
AcDbVertex
100
AcDb2dVertex
 10
70.75804394485276
 20
118.2372382201453
 30
0.0
  0
SEQEND
  5
133
330
130
100
AcDbEntity
  8
Sichtbar MD
  0
LINE
  5
14B
330
75
100
AcDbEntity
  8
Sichtbar MD
100
AcDbLine
 10
70.25804299103292
 20
114.6102216758233
 30
0.0
 11
70.25804299122578
 21
119.4176392722561
 31
0.0
  0
LINE
  5
14C
330
75
100
AcDbEntity
  8
Sichtbar MD
100
AcDbLine
 10
70.25804299122578
 20
119.4176392722561
 30
0.0
 11
70.25804299144181
 21
124.8028040793906
 31
0.0
  0
LINE
  5
14D
330
75
100
AcDbEntity
  8
Sichtbar MD
100
AcDbLine
 10
80.25804299103292
 20
114.6102216754222
 30
0.0
 11
79.75804299101287
 21
114.1102216754422
 31
0.0
  0
LINE
  5
14E
330
75
100
AcDbEntity
  8
Sichtbar MD
100
AcDbLine
 10
80.25804299163462
 20
129.6102216754223
 30
0.0
 11
79.75804299165471
 21
130.1102216754423
 31
0.0
  0
LINE
  5
14F
330
75
100
AcDbEntity
  8
Sichtbar MD
100
AcDbLine
 10
80.25804299163466
 20
129.6102216754223
 30
0.0
 11
80.75804299165469
 21
130.1102216754022
 31
0.0
  0
LINE
  5
150
330
75
100
AcDbEntity
  8
Sichtbar MD
100
AcDbLine
 10
80.25804299103292
 20
114.6102216754222
 30
0.0
 11
80.75804299101285
 21
114.1102216754021
 31
0.0
  0
LINE
  5
151
330
75
100
AcDbEntity
  8
Sichtbar MD
100
AcDbLine
 10
70.25804299163462
 20
129.6102216758234
 30
0.0
 11
70.7580429916547
 21
130.1102216758034
 31
0.0
  0
LINE
  5
152
330
75
100
AcDbEntity
  8
Sichtbar MD
100
AcDbLine
 10
70.25804299103292
 20
114.6102216758233
 30
0.0
 11
70.75804299101287
 21
114.1102216758033
 31
0.0
  0
LINE
  5
153
330
75
100
AcDbEntity
  8
Sichtbar MD
100
AcDbLine
 10
70.25804299103294
 20
114.6102216758233
 30
0.0
 11
69.75804299101287
 21
114.1102216758434
 31
0.0
  0
LINE
  5
154
330
75
100
AcDbEntity
  8
Sichtbar MD
100
AcDbLine
 10
70.25804299163462
 20
129.6102216758234
 30
0.0
 11
69.75804299165472
 21
130.1102216758435
 31
0.0
  0
LINE
  5
155
330
75
100
AcDbEntity
  8
Sichtbar MD
100
AcDbLine
 10
79.75804299117844
 20
118.2372383292349
 30
0.0
 11
70.75804299117843
 21
118.2372383295959
 31
0.0
  0
LINE
  5
156
330
75
100
AcDbEntity
  8
Sichtbar MD
100
AcDbLine
 10
70.75804299148915
 20
125.9832050220107
 30
0.0
 11
79.75804299148918
 21
125.9832050216497
 31
0.0
  0
LINE
  5
157
330
75
100
AcDbEntity
  8
Sichtbar MD
100
AcDbLine
 10
63.25804299165469
 20
130.1102216761042
 30
0.0
 11
69.75804299165471
 21
130.1102216758435
 31
0.0
  0
LINE
  5
158
330
75
100
AcDbEntity
  8
Sichtbar MD
100
AcDbLine
 10
63.25804299101286
 20
114.1102216761041
 30
0.0
 11
69.75804299101287
 21
114.1102216758434
 31
0.0
  0
LINE
  5
159
330
75
100
AcDbEntity
  8
Sichtbar MD
100
AcDbLine
 10
70.75804299101287
 20
114.1102216758033
 30
0.0
 11
79.75804299101287
 21
114.1102216754422
 31
0.0
  0
LINE
  5
15A
330
75
100
AcDbEntity
  8
Sichtbar MD
100
AcDbLine
 10
80.75804299165469
 20
130.1102216754022
 30
0.0
 11
88.15804299272386
 21
130.1102216751053
 31
0.0
  0
LINE
  5
15B
330
75
100
AcDbEntity
  8
Sichtbar MD
100
AcDbLine
 10
80.75804299101285
 20
114.1102216754021
 30
0.0
 11
88.15804298994388
 21
114.1102216751053
 31
0.0
  0
LINE
  5
15C
330
75
100
AcDbEntity
  8
Sichtbar MD
100
AcDbLine
 10
70.7580429916547
 20
130.1102216758034
 30
0.0
 11
79.75804299165471
 21
130.1102216754423
 31
0.0
  0
LINE
  5
15D
330
75
100
AcDbEntity
  8
Sichtbar MD
100
AcDbLine
 10
96.25804298976033
 20
108.7154936791587
 30
0.0
 11
96.25804299290727
 21
135.5049496791587
 31
0.0
  0
LINE
  5
15E
330
75
100
AcDbEntity
  8
Sichtbar MD
100
AcDbLine
 10
96.25804299290727
 20
135.5049496791587
 30
0.0
 11
96.35804299215905
 21
135.604949678387
 31
0.0
  0
LINE
  5
15F
330
75
100
AcDbEntity
  8
Sichtbar MD
100
AcDbLine
 10
96.25804298976033
 20
108.7154936791587
 30
0.0
 11
96.35804299050873
 21
108.6154936783868
 31
0.0
  0
LINE
  5
160
330
75
100
AcDbEntity
  8
Sichtbar MD
100
AcDbLine
 10
96.2580429898654
 20
109.6102216791587
 30
0.0
 11
96.15804298916202
 21
109.6102216791705
 31
0.0
  0
LINE
  5
161
330
75
100
AcDbEntity
  8
Sichtbar MD
100
AcDbLine
 10
96.25804299280217
 20
134.6102216791587
 30
0.0
 11
96.15804299350578
 21
134.6102216791704
 31
0.0
  0
LINE
  5
162
330
75
100
AcDbEntity
  8
Sichtbar MD
100
AcDbLine
 10
212.3580429904166
 20
107.1102216688716
 30
0.0
 11
212.3580429922511
 21
137.1102216688717
 31
0.0
  0
LINE
  5
163
330
75
100
AcDbEntity
  8
Sichtbar MD
100
AcDbLine
 10
96.35804299041666
 20
107.1102216759648
 30
0.0
 11
96.35804299225112
 21
137.1102216759648
 31
0.0
  0
LINE
  5
164
330
75
100
AcDbEntity
  8
Sichtbar MD
100
AcDbLine
 10
96.35804299225112
 20
137.1102216759648
 30
0.0
 11
212.358042992251
 21
137.1102216688716
 31
0.0
  0
LINE
  5
165
330
75
100
AcDbEntity
  8
Sichtbar MD
100
AcDbLine
 10
96.35804299041666
 20
107.1102216759648
 30
0.0
 11
212.3580429904166
 21
107.1102216688716
 31
0.0
  0
POLYLINE
  5
166
330
75
100
AcDbEntity
  8
Sichtbar MD
100
AcDb2dPolyline
 66
     1
 10
0.0
 20
0.0
 30
0.0
 70
   128
  0
VERTEX
  5
167
330
166
100
AcDbEntity
  8
Sichtbar MD
100
AcDbVertex
100
AcDb2dVertex
 10
55.19105568608289
 20
127.4310919643156
 30
0.0
  0
VERTEX
  5
168
330
166
100
AcDbEntity
  8
Sichtbar MD
100
AcDbVertex
100
AcDb2dVertex
 10
55.15533618707736
 20
127.3162820935999
 30
0.0
  0
VERTEX
  5
16A
330
166
100
AcDbEntity
  8
Sichtbar MD
100
AcDbVertex
100
AcDb2dVertex
 10
55.12126892882514
 20
127.2026857734516
 30
0.0
  0
VERTEX
  5
16B
330
166
100
AcDbEntity
  8
Sichtbar MD
100
AcDbVertex
100
AcDb2dVertex
 10
55.08882712648899
 20
127.0902225376003
 30
0.0
  0
VERTEX
  5
16C
330
166
100
AcDbEntity
  8
Sichtbar MD
100
AcDbVertex
100
AcDb2dVertex
 10
55.05798621177937
 20
126.9788149000079
 30
0.0
  0
VERTEX
  5
16D
330
166
100
AcDbEntity
  8
Sichtbar MD
100
AcDbVertex
100
AcDb2dVertex
 10
55.02872383295448
 20
126.8683862687056
 30
0.0
  0
VERTEX
  5
16E
330
166
100
AcDbEntity
  8
Sichtbar MD
100
AcDbVertex
100
AcDb2dVertex
 10
55.00101981756736
 20
126.758861243818
 30
0.0
  0
VERTEX
  5
16F
330
166
100
AcDbEntity
  8
Sichtbar MD
100
AcDbVertex
100
AcDb2dVertex
 10
54.9748561165865
 20
126.6501662136087
 30
0.0
  0
VERTEX
  5
170
330
166
100
AcDbEntity
  8
Sichtbar MD
100
AcDbVertex
100
AcDb2dVertex
 10
54.95021671126359
 20
126.5422278643646
 30
0.0
  0
VERTEX
  5
171
330
166
100
AcDbEntity
  8
Sichtbar MD
100
AcDbVertex
100
AcDb2dVertex
 10
54.92708765038647
 20
126.4349743724888
 30
0.0
  0
VERTEX
  5
172
330
166
100
AcDbEntity
  8
Sichtbar MD
100
AcDbVertex
100
AcDb2dVertex
 10
54.90545701302616
 20
126.3283345104308
 30
0.0
  0
VERTEX
  5
173
330
166
100
AcDbEntity
  8
Sichtbar MD
100
AcDbVertex
100
AcDb2dVertex
 10
54.8853148526576
 20
126.2222373486634
 30
0.0
  0
VERTEX
  5
174
330
166
100
AcDbEntity
  8
Sichtbar MD
100
AcDbVertex
100
AcDb2dVertex
 10
54.86665321578593
 20
126.1166125537055
 30
0.0
  0
VERTEX
  5
175
330
166
100
AcDbEntity
  8
Sichtbar MD
100
AcDbVertex
100
AcDb2dVertex
 10
54.84946613263348
 20
126.011390388123
 30
0.0
  0
VERTEX
  5
176
330
166
100
AcDbEntity
  8
Sichtbar MD
100
AcDbVertex
100
AcDb2dVertex
 10
54.83374961248301
 20
125.9065005184349
 30
0.0
  0
VERTEX
  5
177
330
166
100
AcDbEntity
  8
Sichtbar MD
100
AcDbVertex
100
AcDb2dVertex
 10
54.81950166230419
 20
125.8018729091837
 30
0.0
  0
VERTEX
  5
178
330
166
100
AcDbEntity
  8
Sichtbar MD
100
AcDbVertex
100
AcDb2dVertex
 10
54.80672227744038
 20
125.6974375249116
 30
0.0
  0
VERTEX
  5
179
330
166
100
AcDbEntity
  8
Sichtbar MD
100
AcDbVertex
100
AcDb2dVertex
 10
54.79541349283144
 20
125.5931234360916
 30
0.0
  0
VERTEX
  5
17A
330
166
100
AcDbEntity
  8
Sichtbar MD
100
AcDbVertex
100
AcDb2dVertex
 10
54.78557940629666
 20
125.4888594151729
 30
0.0
  0
VERTEX
  5
17B
330
166
100
AcDbEntity
  8
Sichtbar MD
100
AcDbVertex
100
AcDb2dVertex
 10
54.77722619832547
 20
125.3845736385588
 30
0.0
  0
VERTEX
  5
17C
330
166
100
AcDbEntity
  8
Sichtbar MD
100
AcDbVertex
100
AcDb2dVertex
 10
54.77036219959831
 20
125.280192792536
 30
0.0
  0
VERTEX
  5
17D
330
166
100
AcDbEntity
  8
Sichtbar MD
100
AcDbVertex
100
AcDb2dVertex
 10
54.76499792940362
 20
125.1756432653684
 30
0.0
  0
VERTEX
  5
17E
330
166
100
AcDbEntity
  8
Sichtbar MD
100
AcDbVertex
100
AcDb2dVertex
 10
54.76114616577818
 20
125.0708499552034
 30
0.0
  0
VERTEX
  5
17F
330
166
100
AcDbEntity
  8
Sichtbar MD
100
AcDbVertex
100
AcDb2dVertex
 10
54.75882201470138
 20
124.965735376003
 30
0.0
  0
VERTEX
  5
180
330
166
100
AcDbEntity
  8
Sichtbar MD
100
AcDbVertex
100
AcDb2dVertex
 10
54.75804299165872
 20
124.8602217437056
 30
0.0
  0
SEQEND
  5
169
330
166
100
AcDbEntity
  8
Sichtbar MD
  0
LINE
  5
181
330
75
100
AcDbEntity
  8
Sichtbar MD
100
AcDbLine
 10
55.1910556938547
 20
127.4310921592001
 30
0.0
 11
55.19105569387587
 21
127.6102216840497
 31
0.0
  0
LINE
  5
182
330
75
100
AcDbEntity
  8
Sichtbar MD
100
AcDbLine
 10
54.77113758994541
 20
127.6102218033086
 30
0.0
 11
55.19105568610406
 21
127.610221803259
 31
0.0
  0
LINE
  5
183
330
75
100
AcDbEntity
  8
Sichtbar MD
100
AcDbLine
 10
54.75804299198095
 20
127.587447464588
 30
0.0
 11
54.77113758994541
 21
127.6102218033086
 31
0.0
  0
LINE
  5
184
330
75
100
AcDbEntity
  8
Sichtbar MD
100
AcDbLine
 10
54.75804299198095
 20
127.5874472591526
 30
0.0
 11
54.75804299165872
 21
124.8602216841009
 31
0.0
  0
LINE
  5
185
330
75
100
AcDbEntity
  8
Sichtbar MD
100
AcDbLine
 10
54.77113758902179
 20
119.7932343186151
 30
0.0
 11
54.75804299106138
 21
119.8046216369894
 31
0.0
  0
POLYLINE
  5
186
330
75
100
AcDbEntity
  8
Sichtbar MD
100
AcDb2dPolyline
 66
     1
 10
0.0
 20
0.0
 30
0.0
 70
   128
  0
VERTEX
  5
187
330
186
100
AcDbEntity
  8
Sichtbar MD
100
AcDbVertex
100
AcDb2dVertex
 10
55.19105568543304
 20
121.9310921617559
 30
0.0
  0
VERTEX
  5
188
330
186
100
AcDbEntity
  8
Sichtbar MD
100
AcDbVertex
100
AcDb2dVertex
 10
55.1613569261044
 20
121.8359259144214
 30
0.0
  0
VERTEX
  5
18A
330
186
100
AcDbEntity
  8
Sichtbar MD
100
AcDbVertex
100
AcDb2dVertex
 10
55.1327945293285
 20
121.7416013405503
 30
0.0
  0
VERTEX
  5
18B
330
186
100
AcDbEntity
  8
Sichtbar MD
100
AcDbVertex
100
AcDb2dVertex
 10
55.10535299789769
 20
121.64807278671
 30
0.0
  0
VERTEX
  5
18C
330
186
100
AcDbEntity
  8
Sichtbar MD
100
AcDbVertex
100
AcDb2dVertex
 10
55.07901776592692
 20
121.5552955121641
 30
0.0
  0
VERTEX
  5
18D
330
186
100
AcDbEntity
  8
Sichtbar MD
100
AcDbVertex
100
AcDb2dVertex
 10
55.05377547825043
 20
121.4632255584871
 30
0.0
  0
VERTEX
  5
18E
330
186
100
AcDbEntity
  8
Sichtbar MD
100
AcDbVertex
100
AcDb2dVertex
 10
55.02961365514574
 20
121.3718195260469
 30
0.0
  0
VERTEX
  5
18F
330
186
100
AcDbEntity
  8
Sichtbar MD
100
AcDbVertex
100
AcDb2dVertex
 10
55.00652093447742
 20
121.2810348720283
 30
0.0
  0
VERTEX
  5
190
330
186
100
AcDbEntity
  8
Sichtbar MD
100
AcDbVertex
100
AcDb2dVertex
 10
54.98448692268555
 20
121.1908295006511
 30
0.0
  0
VERTEX
  5
191
330
186
100
AcDbEntity
  8
Sichtbar MD
100
AcDbVertex
100
AcDb2dVertex
 10
54.9635021761592
 20
121.1011619121812
 30
0.0
  0
VERTEX
  5
192
330
186
100
AcDbEntity
  8
Sichtbar MD
100
AcDbVertex
100
AcDb2dVertex
 10
54.94355825711586
 20
121.0119908304022
 30
0.0
  0
VERTEX
  5
193
330
186
100
AcDbEntity
  8
Sichtbar MD
100
AcDbVertex
100
AcDb2dVertex
 10
54.92464765909556
 20
120.9232756496497
 30
0.0
  0
VERTEX
  5
194
330
186
100
AcDbEntity
  8
Sichtbar MD
100
AcDbVertex
100
AcDb2dVertex
 10
54.9067638442138
 20
120.8349758387655
 30
0.0
  0
VERTEX
  5
195
330
186
100
AcDbEntity
  8
Sichtbar MD
100
AcDbVertex
100
AcDb2dVertex
 10
54.88990115934258
 20
120.7470513881316
 30
0.0
  0
VERTEX
  5
196
330
186
100
AcDbEntity
  8
Sichtbar MD
100
AcDbVertex
100
AcDb2dVertex
 10
54.87405494786902
 20
120.6594620646128
 30
0.0
  0
VERTEX
  5
197
330
186
100
AcDbEntity
  8
Sichtbar MD
100
AcDbVertex
100
AcDb2dVertex
 10
54.85922144724991
 20
120.572168380132
 30
0.0
  0
VERTEX
  5
198
330
186
100
AcDbEntity
  8
Sichtbar MD
100
AcDbVertex
100
AcDb2dVertex
 10
54.84539783557784
 20
120.4851303995771
 30
0.0
  0
VERTEX
  5
199
330
186
100
AcDbEntity
  8
Sichtbar MD
100
AcDbVertex
100
AcDb2dVertex
 10
54.8325822315812
 20
120.3983081878362
 30
0.0
  0
VERTEX
  5
19A
330
186
100
AcDbEntity
  8
Sichtbar MD
100
AcDbVertex
100
AcDb2dVertex
 10
54.82077368531095
 20
120.3116622568321
 30
0.0
  0
VERTEX
  5
19B
330
186
100
AcDbEntity
  8
Sichtbar MD
100
AcDbVertex
100
AcDb2dVertex
 10
54.8099721874539
 20
120.2251526714529
 30
0.0
  0
VERTEX
  5
19C
330
186
100
AcDbEntity
  8
Sichtbar MD
100
AcDbVertex
100
AcDb2dVertex
 10
54.80017868795903
 20
120.1387390495515
 30
0.0
  0
VERTEX
  5
19D
330
186
100
AcDbEntity
  8
Sichtbar MD
100
AcDbVertex
100
AcDb2dVertex
 10
54.7913950890527
 20
120.0523813070046
 30
0.0
  0
VERTEX
  5
19E
330
186
100
AcDbEntity
  8
Sichtbar MD
100
AcDbVertex
100
AcDb2dVertex
 10
54.78362428481983
 20
119.966038763642
 30
0.0
  0
VERTEX
  5
19F
330
186
100
AcDbEntity
  8
Sichtbar MD
100
AcDbVertex
100
AcDb2dVertex
 10
54.77687015538307
 20
119.8796701432471
 30
0.0
  0
VERTEX
  5
1A0
330
186
100
AcDbEntity
  8
Sichtbar MD
100
AcDbVertex
100
AcDb2dVertex
 10
54.77113758902179
 20
119.7932343186151
 30
0.0
  0
SEQEND
  5
189
330
186
100
AcDbEntity
  8
Sichtbar MD
  0
LINE
  5
1A1
330
75
100
AcDbEntity
  8
Sichtbar MD
100
AcDbLine
 10
55.19105569320486
 20
121.9310921592001
 30
0.0
 11
55.19105569324718
 21
122.2893512088994
 31
0.0
  0
POLYLINE
  5
1A2
330
75
100
AcDbEntity
  8
Sichtbar MD
100
AcDb2dPolyline
 66
     1
 10
0.0
 20
0.0
 30
0.0
 70
   128
  0
VERTEX
  5
1A3
330
1A2
100
AcDbEntity
  8
Sichtbar MD
100
AcDbVertex
100
AcDb2dVertex
 10
54.75804299165872
 20
124.8602217437056
 30
0.0
  0
VERTEX
  5
1A4
330
1A2
100
AcDbEntity
  8
Sichtbar MD
100
AcDbVertex
100
AcDb2dVertex
 10
54.75882201467644
 20
124.7547078133847
 30
0.0
  0
VERTEX
  5
1A6
330
1A2
100
AcDbEntity
  8
Sichtbar MD
100
AcDbVertex
100
AcDb2dVertex
 10
54.76114616572842
 20
124.6495935322069
 30
0.0
  0
VERTEX
  5
1A7
330
1A2
100
AcDbEntity
  8
Sichtbar MD
100
AcDbVertex
100
AcDb2dVertex
 10
54.76499792932909
 20
124.5447999240178
 30
0.0
  0
VERTEX
  5
1A8
330
1A2
100
AcDbEntity
  8
Sichtbar MD
100
AcDbVertex
100
AcDb2dVertex
 10
54.77036219949906
 20
124.4402505458605
 30
0.0
  0
VERTEX
  5
1A9
330
1A2
100
AcDbEntity
  8
Sichtbar MD
100
AcDbVertex
100
AcDb2dVertex
 10
54.77722619820156
 20
124.3358698488478
 30
0.0
  0
VERTEX
  5
1AA
330
1A2
100
AcDbEntity
  8
Sichtbar MD
100
AcDbVertex
100
AcDb2dVertex
 10
54.7855794061481
 20
124.23158392322
 30
0.0
  0
VERTEX
  5
1AB
330
1A2
100
AcDbEntity
  8
Sichtbar MD
100
AcDbVertex
100
AcDb2dVertex
 10
54.79541349265824
 20
124.1273199022991
 30
0.0
  0
VERTEX
  5
1AC
330
1A2
100
AcDbEntity
  8
Sichtbar MD
100
AcDbVertex
100
AcDb2dVertex
 10
54.80672227724255
 20
124.0230058134763
 30
0.0
  0
VERTEX
  5
1AD
330
1A2
100
AcDbEntity
  8
Sichtbar MD
100
AcDbVertex
100
AcDb2dVertex
 10
54.81950166208165
 20
123.9185702801897
 30
0.0
  0
VERTEX
  5
1AE
330
1A2
100
AcDbEntity
  8
Sichtbar MD
100
AcDbVertex
100
AcDb2dVertex
 10
54.83374961223575
 20
123.8139428199467
 30
0.0
  0
VERTEX
  5
1AF
330
1A2
100
AcDbEntity
  8
Sichtbar MD
100
AcDbVertex
100
AcDb2dVertex
 10
54.84946613236146
 20
123.7090529502549
 30
0.0
  0
VERTEX
  5
1B0
330
1A2
100
AcDbEntity
  8
Sichtbar MD
100
AcDbVertex
100
AcDb2dVertex
 10
54.86665321548904
 20
123.6038306356567
 30
0.0
  0
VERTEX
  5
1B1
330
1A2
100
AcDbEntity
  8
Sichtbar MD
100
AcDbVertex
100
AcDb2dVertex
 10
54.88531485233573
 20
123.4982059897061
 30
0.0
  0
VERTEX
  5
1B2
330
1A2
100
AcDbEntity
  8
Sichtbar MD
100
AcDbVertex
100
AcDb2dVertex
 10
54.90545701267925
 20
123.3921088279338
 30
0.0
  0
VERTEX
  5
1B3
330
1A2
100
AcDbEntity
  8
Sichtbar MD
100
AcDbVertex
100
AcDb2dVertex
 10
54.92708765001435
 20
123.2854689658707
 30
0.0
  0
VERTEX
  5
1B4
330
1A2
100
AcDbEntity
  8
Sichtbar MD
100
AcDbVertex
100
AcDb2dVertex
 10
54.95021671086611
 20
123.1782154739895
 30
0.0
  0
VERTEX
  5
1B5
330
1A2
100
AcDbEntity
  8
Sichtbar MD
100
AcDbVertex
100
AcDb2dVertex
 10
54.97485611616351
 20
123.0702771992454
 30
0.0
  0
VERTEX
  5
1B6
330
1A2
100
AcDbEntity
  8
Sichtbar MD
100
AcDbVertex
100
AcDb2dVertex
 10
55.0010198171187
 20
122.9615820200183
 30
0.0
  0
VERTEX
  5
1B7
330
1A2
100
AcDbEntity
  8
Sichtbar MD
100
AcDbVertex
100
AcDb2dVertex
 10
55.02872383247994
 20
122.8520569951241
 30
0.0
  0
VERTEX
  5
1B8
330
1A2
100
AcDbEntity
  8
Sichtbar MD
100
AcDbVertex
100
AcDb2dVertex
 10
55.05798621127873
 20
122.741628363815
 30
0.0
  0
VERTEX
  5
1B9
330
1A2
100
AcDbEntity
  8
Sichtbar MD
100
AcDbVertex
100
AcDb2dVertex
 10
55.08882712596203
 20
122.6302207634681
 30
0.0
  0
VERTEX
  5
1BA
330
1A2
100
AcDbEntity
  8
Sichtbar MD
100
AcDbVertex
100
AcDb2dVertex
 10
55.1212689282716
 20
122.5177577511266
 30
0.0
  0
VERTEX
  5
1BB
330
1A2
100
AcDbEntity
  8
Sichtbar MD
100
AcDbVertex
100
AcDb2dVertex
 10
55.15533618649698
 20
122.4041611888264
 30
0.0
  0
VERTEX
  5
1BC
330
1A2
100
AcDbEntity
  8
Sichtbar MD
100
AcDbVertex
100
AcDb2dVertex
 10
55.19105568547537
 20
122.2893512063435
 30
0.0
  0
SEQEND
  5
1A5
330
1A2
100
AcDbEntity
  8
Sichtbar MD
  0
LINE
  5
1BD
330
75
100
AcDbEntity
  8
Sichtbar MD
100
AcDbLine
 10
54.75804299165872
 20
124.8602216841009
 30
0.0
 11
54.75804299106138
 21
119.8046215984673
 31
0.0
  0
LINE
  5
1BE
330
75
100
AcDbEntity
  8
Sichtbar MD
100
AcDbLine
 10
55.19105568480435
 20
116.6102215648405
 30
0.0
 11
54.75804299068394
 21
116.6102215648916
 31
0.0
  0
LINE
  5
1BF
330
75
100
AcDbEntity
  8
Sichtbar MD
100
AcDbLine
 10
55.19105569257617
 20
116.6102216840497
 30
0.0
 11
55.19105569259733
 21
116.7893512088993
 31
0.0
  0
POLYLINE
  5
1C0
330
75
100
AcDbEntity
  8
Sichtbar MD
100
AcDb2dPolyline
 66
     1
 10
0.0
 20
0.0
 30
0.0
 70
   128
  0
VERTEX
  5
1C1
330
1C0
100
AcDbEntity
  8
Sichtbar MD
100
AcDbVertex
100
AcDb2dVertex
 10
54.77113758891946
 20
118.9272090793859
 30
0.0
  0
VERTEX
  5
1C2
330
1C0
100
AcDbEntity
  8
Sichtbar MD
100
AcDbVertex
100
AcDb2dVertex
 10
54.77687015526033
 20
118.840773105741
 30
0.0
  0
VERTEX
  5
1C4
330
1C0
100
AcDbEntity
  8
Sichtbar MD
100
AcDbVertex
100
AcDb2dVertex
 10
54.78362428467668
 20
118.7544047833678
 30
0.0
  0
VERTEX
  5
1C5
330
1C0
100
AcDbEntity
  8
Sichtbar MD
100
AcDbVertex
100
AcDb2dVertex
 10
54.79139508888914
 20
118.6680620909917
 30
0.0
  0
VERTEX
  5
1C6
330
1C0
100
AcDbEntity
  8
Sichtbar MD
100
AcDbVertex
100
AcDb2dVertex
 10
54.80017868777506
 20
118.581704199431
 30
0.0
  0
VERTEX
  5
1C7
330
1C0
100
AcDbEntity
  8
Sichtbar MD
100
AcDbVertex
100
AcDb2dVertex
 10
54.80997218724951
 20
118.4952908755506
 30
0.0
  0
VERTEX
  5
1C8
330
1C0
100
AcDbEntity
  8
Sichtbar MD
100
AcDbVertex
100
AcDb2dVertex
 10
54.82077368508612
 20
118.4087809921456
 30
0.0
  0
VERTEX
  5
1C9
330
1C0
100
AcDbEntity
  8
Sichtbar MD
100
AcDbVertex
100
AcDb2dVertex
 10
54.83258223133589
 20
118.3221352101503
 30
0.0
  0
VERTEX
  5
1CA
330
1C0
100
AcDbEntity
  8
Sichtbar MD
100
AcDbVertex
100
AcDb2dVertex
 10
54.84539783531201
 20
118.2353129984064
 30
0.0
  0
VERTEX
  5
1CB
330
1C0
100
AcDbEntity
  8
Sichtbar MD
100
AcDbVertex
100
AcDb2dVertex
 10
54.85922144696353
 20
118.1482750178483
 30
0.0
  0
VERTEX
  5
1CC
330
1C0
100
AcDbEntity
  8
Sichtbar MD
100
AcDbVertex
100
AcDb2dVertex
 10
54.874054947562
 20
118.0609813333639
 30
0.0
  0
VERTEX
  5
1CD
330
1C0
100
AcDbEntity
  8
Sichtbar MD
100
AcDbVertex
100
AcDb2dVertex
 10
54.88990115901486
 20
117.9733920098414
 30
0.0
  0
VERTEX
  5
1CE
330
1C0
100
AcDbEntity
  8
Sichtbar MD
100
AcDbVertex
100
AcDb2dVertex
 10
54.90676384386532
 20
117.8854674101919
 30
0.0
  0
VERTEX
  5
1CF
330
1C0
100
AcDbEntity
  8
Sichtbar MD
100
AcDbVertex
100
AcDb2dVertex
 10
54.92464765872618
 20
117.7971678973266
 30
0.0
  0
VERTEX
  5
1D0
330
1C0
100
AcDbEntity
  8
Sichtbar MD
100
AcDbVertex
100
AcDb2dVertex
 10
54.94355825672553
 20
117.7084526420639
 30
0.0
  0
VERTEX
  5
1D1
330
1C0
100
AcDbEntity
  8
Sichtbar MD
100
AcDbVertex
100
AcDb2dVertex
 10
54.9635021757478
 20
117.6192814112686
 30
0.0
  0
VERTEX
  5
1D2
330
1C0
100
AcDbEntity
  8
Sichtbar MD
100
AcDbVertex
100
AcDb2dVertex
 10
54.98448692225296
 20
117.5296139718053
 30
0.0
  0
VERTEX
  5
1D3
330
1C0
100
AcDbEntity
  8
Sichtbar MD
100
AcDbVertex
100
AcDb2dVertex
 10
55.00652093402352
 20
117.4394086004229
 30
0.0
  0
VERTEX
  5
1D4
330
1C0
100
AcDbEntity
  8
Sichtbar MD
100
AcDbVertex
100
AcDb2dVertex
 10
55.02961365467037
 20
117.3486238718931
 30
0.0
  0
VERTEX
  5
1D5
330
1C0
100
AcDbEntity
  8
Sichtbar MD
100
AcDbVertex
100
AcDb2dVertex
 10
55.05377547775347
 20
117.2572177649414
 30
0.0
  0
VERTEX
  5
1D6
330
1C0
100
AcDbEntity
  8
Sichtbar MD
100
AcDbVertex
100
AcDb2dVertex
 10
55.07901776540819
 20
117.1651479602699
 30
0.0
  0
VERTEX
  5
1D7
330
1C0
100
AcDbEntity
  8
Sichtbar MD
100
AcDbVertex
100
AcDb2dVertex
 10
55.10535299735706
 20
117.0723703504417
 30
0.0
  0
VERTEX
  5
1D8
330
1C0
100
AcDbEntity
  8
Sichtbar MD
100
AcDbVertex
100
AcDb2dVertex
 10
55.13279452876576
 20
116.9788423181356
 30
0.0
  0
VERTEX
  5
1D9
330
1C0
100
AcDbEntity
  8
Sichtbar MD
100
AcDbVertex
100
AcDb2dVertex
 10
55.16135692551937
 20
116.8845173717287
 30
0.0
  0
VERTEX
  5
1DA
330
1C0
100
AcDbEntity
  8
Sichtbar MD
100
AcDbVertex
100
AcDb2dVertex
 10
55.19105568482552
 20
116.7893514037839
 30
0.0
  0
SEQEND
  5
1C3
330
1C0
100
AcDbEntity
  8
Sichtbar MD
  0
LINE
  5
1DB
330
75
100
AcDbEntity
  8
Sichtbar MD
100
AcDbLine
 10
54.75804299095905
 20
118.9385962487486
 30
0.0
 11
54.77113758891946
 21
118.9272090793859
 31
0.0
  0
LINE
  5
1DC
330
75
100
AcDbEntity
  8
Sichtbar MD
100
AcDbLine
 10
54.75804299095906
 20
118.9385961946828
 30
0.0
 11
54.75804299068394
 21
116.6102216841009
 31
0.0
  0
LINE
  5
1DD
330
75
100
AcDbEntity
  8
Sichtbar MD
100
AcDbLine
 10
54.75804299095905
 20
118.9385961946828
 30
0.0
 11
54.75804299106137
 21
119.8046215984673
 31
0.0
  0
LINE
  5
1DE
330
75
100
AcDbEntity
  8
Sichtbar MD
100
AcDbLine
 10
59.75804299101691
 20
119.4282504368081
 30
0.0
 11
62.75804299101692
 21
119.4282504364536
 31
0.0
  0
LINE
  5
1DF
330
75
100
AcDbEntity
  8
Sichtbar MD
100
AcDbLine
 10
62.75804299091461
 20
118.5622250326692
 30
0.0
 11
59.75804299091461
 21
118.5622250330236
 31
0.0
  0
LINE
  5
1E0
330
75
100
AcDbEntity
  8
Sichtbar MD
100
AcDbLine
 10
59.75804299106004
 20
119.7932343854023
 30
0.0
 11
54.77113758880193
 21
119.7932343859916
 31
0.0
  0
LINE
  5
1E1
330
75
100
AcDbEntity
  8
Sichtbar MD
100
AcDbLine
 10
55.19105569320486
 20
121.9310921592001
 30
0.0
 11
59.75804299131263
 21
121.9310921586605
 31
0.0
  0
LINE
  5
1E2
330
75
100
AcDbEntity
  8
Sichtbar MD
100
AcDbLine
 10
59.75804299070511
 20
116.7893512083597
 30
0.0
 11
55.19105569259733
 21
116.7893512088993
 31
0.0
  0
LINE
  5
1E3
330
75
100
AcDbEntity
  8
Sichtbar MD
100
AcDbLine
 10
54.77113758869961
 20
118.9272089822071
 30
0.0
 11
59.75804299095771
 21
118.9272089816179
 31
0.0
  0
LINE
  5
1E4
330
75
100
AcDbEntity
  8
Sichtbar MD
100
AcDbLine
 10
59.75804299135496
 20
122.2893512083597
 30
0.0
 11
59.75804299196248
 21
127.4310921586605
 31
0.0
  0
LINE
  5
1E5
330
75
100
AcDbEntity
  8
Sichtbar MD
100
AcDbLine
 10
59.75804299101691
 20
119.4282504368081
 30
0.0
 11
59.75804299131263
 21
121.9310921586605
 31
0.0
  0
LINE
  5
1E6
330
75
100
AcDbEntity
  8
Sichtbar MD
100
AcDbLine
 10
59.75804299070511
 20
116.7893512083597
 30
0.0
 11
59.75804299091459
 21
118.5622250330236
 31
0.0
  0
LINE
  5
1E7
330
75
100
AcDbEntity
  8
Sichtbar MD
100
AcDbLine
 10
59.75804299095771
 20
118.9272089816179
 30
0.0
 11
59.75804299091461
 21
118.5622250330236
 31
0.0
  0
LINE
  5
1E8
330
75
100
AcDbEntity
  8
Sichtbar MD
100
AcDbLine
 10
59.75804299059532
 20
115.8602216835101
 30
0.0
 11
59.75804299068395
 21
116.6102216835101
 31
0.0
  0
LINE
  5
1E9
330
75
100
AcDbEntity
  8
Sichtbar MD
100
AcDbLine
 10
55.19105569257617
 20
116.6102216840497
 30
0.0
 11
59.75804299068395
 21
116.6102216835101
 31
0.0
  0
LINE
  5
1EA
330
75
100
AcDbEntity
  8
Sichtbar MD
100
AcDbLine
 10
59.75804299135498
 20
122.2893512083597
 30
0.0
 11
55.19105569324721
 21
122.2893512088994
 31
0.0
  0
LINE
  5
1EB
330
75
100
AcDbEntity
  8
Sichtbar MD
100
AcDbLine
 10
55.1910556938547
 20
127.4310921592001
 30
0.0
 11
59.75804299196248
 21
127.4310921586605
 31
0.0
  0
LINE
  5
1EC
330
75
100
AcDbEntity
  8
Sichtbar MD
100
AcDbLine
 10
59.75804299198365
 20
127.6102216835101
 30
0.0
 11
59.75804299206989
 21
128.3401895806987
 31
0.0
  0
LINE
  5
1ED
330
75
100
AcDbEntity
  8
Sichtbar MD
100
AcDbLine
 10
59.75804299198365
 20
127.6102216835101
 30
0.0
 11
55.19105569387588
 21
127.6102216840497
 31
0.0
  0
LINE
  5
1EE
330
75
100
AcDbEntity
  8
Sichtbar MD
100
AcDbLine
 10
62.75804299206988
 20
128.3401895803442
 30
0.0
 11
59.7580429920699
 21
128.3401895806987
 31
0.0
  0
LINE
  5
1EF
330
75
100
AcDbEntity
  8
Sichtbar MD
100
AcDbLine
 10
59.75804299059534
 20
115.8602216835101
 30
0.0
 11
62.75804299059531
 21
115.8602216831557
 31
0.0
  0
LINE
  5
1F0
330
75
100
AcDbEntity
  8
Sichtbar MD
100
AcDbLine
 10
218.2080429912505
 20
117.4037803248962
 30
0.0
 11
218.208042991218
 21
115.5666630178089
 31
0.0
  0
LINE
  5
1F1
330
75
100
AcDbEntity
  8
Sichtbar MD
100
AcDbLine
 10
218.2080429913664
 20
123.9473389784399
 30
0.0
 11
218.2080429913013
 21
120.2731043642652
 31
0.0
  0
LINE
  5
1F2
330
75
100
AcDbEntity
  8
Sichtbar MD
100
AcDbLine
 10
218.2080429914498
 20
128.6537803248962
 30
0.0
 11
218.2080429914172
 21
126.8166630178088
 31
0.0
  0
POLYLINE
  5
1F3
330
75
100
AcDbEntity
  8
Sichtbar MD
100
AcDb2dPolyline
 66
     1
 10
0.0
 20
0.0
 30
0.0
 70
   128
  0
VERTEX
  5
1F4
330
1F3
100
AcDbEntity
  8
Sichtbar MD
100
AcDbVertex
100
AcDb2dVertex
 10
212.6467182040936
 20
116.4439335340151
 30
0.0
  0
VERTEX
  5
1F5
330
1F3
100
AcDbEntity
  8
Sichtbar MD
100
AcDbVertex
100
AcDb2dVertex
 10
212.622953236177
 20
116.5435024970664
 30
0.0
  0
VERTEX
  5
1F7
330
1F3
100
AcDbEntity
  8
Sichtbar MD
100
AcDbVertex
100
AcDb2dVertex
 10
212.6002569795412
 20
116.6424456113475
 30
0.0
  0
VERTEX
  5
1F8
330
1F3
100
AcDbEntity
  8
Sichtbar MD
100
AcDbVertex
100
AcDb2dVertex
 10
212.5786190033733
 20
116.7408004277846
 30
0.0
  0
VERTEX
  5
1F9
330
1F3
100
AcDbEntity
  8
Sichtbar MD
100
AcDbVertex
100
AcDb2dVertex
 10
212.5580294729071
 20
116.838605689397
 30
0.0
  0
VERTEX
  5
1FA
330
1F3
100
AcDbEntity
  8
Sichtbar MD
100
AcDbVertex
100
AcDb2dVertex
 10
212.5384788513992
 20
116.9358995431571
 30
0.0
  0
VERTEX
  5
1FB
330
1F3
100
AcDbEntity
  8
Sichtbar MD
100
AcDbVertex
100
AcDb2dVertex
 10
212.519959390246
 20
117.0327183478983
 30
0.0
  0
VERTEX
  5
1FC
330
1F3
100
AcDbEntity
  8
Sichtbar MD
100
AcDbVertex
100
AcDb2dVertex
 10
212.5024633408436
 20
117.1290987604772
 30
0.0
  0
VERTEX
  5
1FD
330
1F3
100
AcDbEntity
  8
Sichtbar MD
100
AcDbVertex
100
AcDb2dVertex
 10
212.485984146681
 20
117.2250777357735
 30
0.0
  0
VERTEX
  5
1FE
330
1F3
100
AcDbEntity
  8
Sichtbar MD
100
AcDbVertex
100
AcDb2dVertex
 10
212.4705155492706
 20
117.3206916326205
 30
0.0
  0
VERTEX
  5
1FF
330
1F3
100
AcDbEntity
  8
Sichtbar MD
100
AcDbVertex
100
AcDb2dVertex
 10
212.4560527802408
 20
117.4159756177587
 30
0.0
  0
VERTEX
  5
200
330
1F3
100
AcDbEntity
  8
Sichtbar MD
100
AcDbVertex
100
AcDb2dVertex
 10
212.4425910712199
 20
117.5109657519982
 30
0.0
  0
VERTEX
  5
201
330
1F3
100
AcDbEntity
  8
Sichtbar MD
100
AcDbVertex
100
AcDb2dVertex
 10
212.4301268459294
 20
117.6056977981257
 30
0.0
  0
VERTEX
  5
202
330
1F3
100
AcDbEntity
  8
Sichtbar MD
100
AcDbVertex
100
AcDb2dVertex
 10
212.4186571241369
 20
117.7002066248586
 30
0.0
  0
VERTEX
  5
203
330
1F3
100
AcDbEntity
  8
Sichtbar MD
100
AcDbVertex
100
AcDb2dVertex
 10
212.40817981968
 20
117.7945276969603
 30
0.0
  0
VERTEX
  5
204
330
1F3
100
AcDbEntity
  8
Sichtbar MD
100
AcDbVertex
100
AcDb2dVertex
 10
212.3986934424424
 20
117.8886964791947
 30
0.0
  0
VERTEX
  5
205
330
1F3
100
AcDbEntity
  8
Sichtbar MD
100
AcDbVertex
100
AcDb2dVertex
 10
212.3901973963778
 20
117.982748138302
 30
0.0
  0
VERTEX
  5
206
330
1F3
100
AcDbEntity
  8
Sichtbar MD
100
AcDbVertex
100
AcDb2dVertex
 10
212.3826913834629
 20
118.0767181390461
 30
0.0
  0
VERTEX
  5
207
330
1F3
100
AcDbEntity
  8
Sichtbar MD
100
AcDbVertex
100
AcDb2dVertex
 10
212.3761765957906
 20
118.1706419461903
 30
0.0
  0
VERTEX
  5
208
330
1F3
100
AcDbEntity
  8
Sichtbar MD
100
AcDbVertex
100
AcDb2dVertex
 10
212.370654523477
 20
118.2645547264753
 30
0.0
  0
VERTEX
  5
209
330
1F3
100
AcDbEntity
  8
Sichtbar MD
100
AcDbVertex
100
AcDb2dVertex
 10
212.366127550708
 20
118.3584928387343
 30
0.0
  0
VERTEX
  5
20A
330
1F3
100
AcDbEntity
  8
Sichtbar MD
100
AcDbVertex
100
AcDb2dVertex
 10
212.3625983596925
 20
118.4524920457542
 30
0.0
  0
VERTEX
  5
20B
330
1F3
100
AcDbEntity
  8
Sichtbar MD
100
AcDbVertex
100
AcDb2dVertex
 10
212.3600714207789
 20
118.5465887063682
 30
0.0
  0
VERTEX
  5
20C
330
1F3
100
AcDbEntity
  8
Sichtbar MD
100
AcDbVertex
100
AcDb2dVertex
 10
212.3585512043156
 20
118.640819477433
 30
0.0
  0
VERTEX
  5
20D
330
1F3
100
AcDbEntity
  8
Sichtbar MD
100
AcDbVertex
100
AcDb2dVertex
 10
212.3580430747206
 20
118.7352216118515
 30
0.0
  0
SEQEND
  5
1F6
330
1F3
100
AcDbEntity
  8
Sichtbar MD
  0
LINE
  5
20E
330
75
100
AcDbEntity
  8
Sichtbar MD
100
AcDbLine
 10
212.3580430746608
 20
115.3602215522468
 30
0.0
 11
212.6467182040744
 21
115.3602215522417
 31
0.0
  0
LINE
  5
20F
330
75
100
AcDbEntity
  8
Sichtbar MD
100
AcDbLine
 10
212.6467181258283
 20
116.4439338239731
 30
0.0
 11
212.6467181258091
 21
115.360221671451
 31
0.0
  0
POLYLINE
  5
210
330
75
100
AcDbEntity
  8
Sichtbar MD
100
AcDb2dPolyline
 66
     1
 10
0.0
 20
0.0
 30
0.0
 70
   128
  0
VERTEX
  5
211
330
210
100
AcDbEntity
  8
Sichtbar MD
100
AcDbVertex
100
AcDb2dVertex
 10
212.3580430747206
 20
118.7352216118515
 30
0.0
  0
VERTEX
  5
212
330
210
100
AcDbEntity
  8
Sichtbar MD
100
AcDbVertex
100
AcDb2dVertex
 10
212.3585512043189
 20
118.82962374627
 30
0.0
  0
VERTEX
  5
214
330
210
100
AcDbEntity
  8
Sichtbar MD
100
AcDbVertex
100
AcDb2dVertex
 10
212.3600714207856
 20
118.9238545173347
 30
0.0
  0
VERTEX
  5
215
330
210
100
AcDbEntity
  8
Sichtbar MD
100
AcDbVertex
100
AcDb2dVertex
 10
212.3625983597026
 20
119.0179511779487
 30
0.0
  0
VERTEX
  5
216
330
210
100
AcDbEntity
  8
Sichtbar MD
100
AcDbVertex
100
AcDb2dVertex
 10
212.3661275507214
 20
119.1119503849684
 30
0.0
  0
VERTEX
  5
217
330
210
100
AcDbEntity
  8
Sichtbar MD
100
AcDbVertex
100
AcDb2dVertex
 10
212.3706545234937
 20
119.2058884972273
 30
0.0
  0
VERTEX
  5
218
330
210
100
AcDbEntity
  8
Sichtbar MD
100
AcDbVertex
100
AcDb2dVertex
 10
212.3761765958106
 20
119.2998015755353
 30
0.0
  0
VERTEX
  5
219
330
210
100
AcDbEntity
  8
Sichtbar MD
100
AcDbVertex
100
AcDb2dVertex
 10
212.3826913834863
 20
119.3937250846561
 30
0.0
  0
VERTEX
  5
21A
330
210
100
AcDbEntity
  8
Sichtbar MD
100
AcDbVertex
100
AcDb2dVertex
 10
212.3901973964045
 20
119.4876950853998
 30
0.0
  0
VERTEX
  5
21B
330
210
100
AcDbEntity
  8
Sichtbar MD
100
AcDbVertex
100
AcDb2dVertex
 10
212.3986934424724
 20
119.5817467445069
 30
0.0
  0
VERTEX
  5
21C
330
210
100
AcDbEntity
  8
Sichtbar MD
100
AcDbVertex
100
AcDb2dVertex
 10
212.4081798197133
 20
119.6759155267409
 30
0.0
  0
VERTEX
  5
21D
330
210
100
AcDbEntity
  8
Sichtbar MD
100
AcDbVertex
100
AcDb2dVertex
 10
212.4186571241736
 20
119.7702367478539
 30
0.0
  0
VERTEX
  5
21E
330
210
100
AcDbEntity
  8
Sichtbar MD
100
AcDbVertex
100
AcDb2dVertex
 10
212.4301268459694
 20
119.8647455745863
 30
0.0
  0
VERTEX
  5
21F
330
210
100
AcDbEntity
  8
Sichtbar MD
100
AcDbVertex
100
AcDb2dVertex
 10
212.4425910712633
 20
119.9594774717019
 30
0.0
  0
VERTEX
  5
220
330
210
100
AcDbEntity
  8
Sichtbar MD
100
AcDbVertex
100
AcDb2dVertex
 10
212.4560527802875
 20
120.0544677549524
 30
0.0
  0
VERTEX
  5
221
330
210
100
AcDbEntity
  8
Sichtbar MD
100
AcDbVertex
100
AcDb2dVertex
 10
212.4705155493207
 20
120.1497518891017
 30
0.0
  0
VERTEX
  5
222
330
210
100
AcDbEntity
  8
Sichtbar MD
100
AcDbVertex
100
AcDb2dVertex
 10
212.4859841467345
 20
120.245365487925
 30
0.0
  0
VERTEX
  5
223
330
210
100
AcDbEntity
  8
Sichtbar MD
100
AcDbVertex
100
AcDb2dVertex
 10
212.5024633409005
 20
120.3413446122323
 30
0.0
  0
VERTEX
  5
224
330
210
100
AcDbEntity
  8
Sichtbar MD
100
AcDbVertex
100
AcDb2dVertex
 10
212.5199593903063
 20
120.4377253228338
 30
0.0
  0
VERTEX
  5
225
330
210
100
AcDbEntity
  8
Sichtbar MD
100
AcDbVertex
100
AcDb2dVertex
 10
212.5384788514629
 20
120.5345439785628
 30
0.0
  0
VERTEX
  5
226
330
210
100
AcDbEntity
  8
Sichtbar MD
100
AcDbVertex
100
AcDb2dVertex
 10
212.5580294729743
 20
120.6318373852874
 30
0.0
  0
VERTEX
  5
227
330
210
100
AcDbEntity
  8
Sichtbar MD
100
AcDbVertex
100
AcDb2dVertex
 10
212.578619003444
 20
120.7296429449222
 30
0.0
  0
VERTEX
  5
228
330
210
100
AcDbEntity
  8
Sichtbar MD
100
AcDbVertex
100
AcDb2dVertex
 10
212.6002569796153
 20
120.8279979103702
 30
0.0
  0
VERTEX
  5
229
330
210
100
AcDbEntity
  8
Sichtbar MD
100
AcDbVertex
100
AcDb2dVertex
 10
212.6229532362546
 20
120.9269405776156
 30
0.0
  0
VERTEX
  5
22A
330
210
100
AcDbEntity
  8
Sichtbar MD
100
AcDbVertex
100
AcDb2dVertex
 10
212.6467182041748
 20
121.026509540666
 30
0.0
  0
SEQEND
  5
213
330
210
100
AcDbEntity
  8
Sichtbar MD
  0
LINE
  5
22B
330
75
100
AcDbEntity
  8
Sichtbar MD
100
AcDbLine
 10
212.6467181259479
 20
123.1939338239731
 30
0.0
 11
212.6467181259095
 21
121.0265095189289
 31
0.0
  0
POLYLINE
  5
22C
330
75
100
AcDbEntity
  8
Sichtbar MD
100
AcDb2dPolyline
 66
     1
 10
0.0
 20
0.0
 30
0.0
 70
   128
  0
VERTEX
  5
22D
330
22C
100
AcDbEntity
  8
Sichtbar MD
100
AcDbVertex
100
AcDb2dVertex
 10
212.6467182042131
 20
123.193933802236
 30
0.0
  0
VERTEX
  5
22E
330
22C
100
AcDbEntity
  8
Sichtbar MD
100
AcDbVertex
100
AcDb2dVertex
 10
212.6229532362966
 20
123.2935027652873
 30
0.0
  0
VERTEX
  5
230
330
22C
100
AcDbEntity
  8
Sichtbar MD
100
AcDbVertex
100
AcDb2dVertex
 10
212.6002569796607
 20
123.3924454325336
 30
0.0
  0
VERTEX
  5
231
330
22C
100
AcDbEntity
  8
Sichtbar MD
100
AcDbVertex
100
AcDb2dVertex
 10
212.5786190034929
 20
123.4908003979823
 30
0.0
  0
VERTEX
  5
232
330
22C
100
AcDbEntity
  8
Sichtbar MD
100
AcDbVertex
100
AcDb2dVertex
 10
212.5580294730266
 20
123.5886059576179
 30
0.0
  0
VERTEX
  5
233
330
22C
100
AcDbEntity
  8
Sichtbar MD
100
AcDbVertex
100
AcDb2dVertex
 10
212.5384788515188
 20
123.6858993643431
 30
0.0
  0
VERTEX
  5
234
330
22C
100
AcDbEntity
  8
Sichtbar MD
100
AcDbVertex
100
AcDb2dVertex
 10
212.5199593903656
 20
123.7827180200728
 30
0.0
  0
VERTEX
  5
235
330
22C
100
AcDbEntity
  8
Sichtbar MD
100
AcDbVertex
100
AcDb2dVertex
 10
212.5024633409632
 20
123.8790987306749
 30
0.0
  0
VERTEX
  5
236
330
22C
100
AcDbEntity
  8
Sichtbar MD
100
AcDbVertex
100
AcDb2dVertex
 10
212.4859841468005
 20
123.9750778549828
 30
0.0
  0
VERTEX
  5
237
330
22C
100
AcDbEntity
  8
Sichtbar MD
100
AcDbVertex
100
AcDb2dVertex
 10
212.4705155493901
 20
124.0706914538066
 30
0.0
  0
VERTEX
  5
238
330
22C
100
AcDbEntity
  8
Sichtbar MD
100
AcDbVertex
100
AcDb2dVertex
 10
212.4560527803603
 20
124.1659755879564
 30
0.0
  0
VERTEX
  5
239
330
22C
100
AcDbEntity
  8
Sichtbar MD
100
AcDbVertex
100
AcDb2dVertex
 10
212.4425910713394
 20
124.2609658712075
 30
0.0
  0
VERTEX
  5
23A
330
22C
100
AcDbEntity
  8
Sichtbar MD
100
AcDbVertex
100
AcDb2dVertex
 10
212.4301268460489
 20
124.3556977683234
 30
0.0
  0
VERTEX
  5
23B
330
22C
100
AcDbEntity
  8
Sichtbar MD
100
AcDbVertex
100
AcDb2dVertex
 10
212.4186571242565
 20
124.4502065950563
 30
0.0
  0
VERTEX
  5
23C
330
22C
100
AcDbEntity
  8
Sichtbar MD
100
AcDbVertex
100
AcDb2dVertex
 10
212.4081798197995
 20
124.5445278161696
 30
0.0
  0
VERTEX
  5
23D
330
22C
100
AcDbEntity
  8
Sichtbar MD
100
AcDbVertex
100
AcDb2dVertex
 10
212.3986934425619
 20
124.638696598404
 30
0.0
  0
VERTEX
  5
23E
330
22C
100
AcDbEntity
  8
Sichtbar MD
100
AcDbVertex
100
AcDb2dVertex
 10
212.3901973964974
 20
124.7327482575113
 30
0.0
  0
VERTEX
  5
23F
330
22C
100
AcDbEntity
  8
Sichtbar MD
100
AcDbVertex
100
AcDb2dVertex
 10
212.3826913835825
 20
124.8267182582553
 30
0.0
  0
VERTEX
  5
240
330
22C
100
AcDbEntity
  8
Sichtbar MD
100
AcDbVertex
100
AcDb2dVertex
 10
212.3761765959102
 20
124.9206417673764
 30
0.0
  0
VERTEX
  5
241
330
22C
100
AcDbEntity
  8
Sichtbar MD
100
AcDbVertex
100
AcDb2dVertex
 10
212.3706545235966
 20
125.0145548456846
 30
0.0
  0
VERTEX
  5
242
330
22C
100
AcDbEntity
  8
Sichtbar MD
100
AcDbVertex
100
AcDb2dVertex
 10
212.3661275508276
 20
125.1084929579436
 30
0.0
  0
VERTEX
  5
243
330
22C
100
AcDbEntity
  8
Sichtbar MD
100
AcDbVertex
100
AcDb2dVertex
 10
212.3625983598121
 20
125.2024921649635
 30
0.0
  0
VERTEX
  5
244
330
22C
100
AcDbEntity
  8
Sichtbar MD
100
AcDbVertex
100
AcDb2dVertex
 10
212.3600714208985
 20
125.2965888255775
 30
0.0
  0
VERTEX
  5
245
330
22C
100
AcDbEntity
  8
Sichtbar MD
100
AcDbVertex
100
AcDb2dVertex
 10
212.3585512044352
 20
125.3908195966423
 30
0.0
  0
VERTEX
  5
246
330
22C
100
AcDbEntity
  8
Sichtbar MD
100
AcDbVertex
100
AcDb2dVertex
 10
212.3580430748401
 20
125.4852217310608
 30
0.0
  0
SEQEND
  5
22F
330
22C
100
AcDbEntity
  8
Sichtbar MD
  0
POLYLINE
  5
247
330
75
100
AcDbEntity
  8
Sichtbar MD
100
AcDb2dPolyline
 66
     1
 10
0.0
 20
0.0
 30
0.0
 70
   128
  0
VERTEX
  5
248
330
247
100
AcDbEntity
  8
Sichtbar MD
100
AcDbVertex
100
AcDb2dVertex
 10
212.3580430748401
 20
125.4852217310608
 30
0.0
  0
VERTEX
  5
249
330
247
100
AcDbEntity
  8
Sichtbar MD
100
AcDbVertex
100
AcDb2dVertex
 10
212.3585512044385
 20
125.5796238654793
 30
0.0
  0
VERTEX
  5
24B
330
247
100
AcDbEntity
  8
Sichtbar MD
100
AcDbVertex
100
AcDb2dVertex
 10
212.3600714209052
 20
125.673854636544
 30
0.0
  0
VERTEX
  5
24C
330
247
100
AcDbEntity
  8
Sichtbar MD
100
AcDbVertex
100
AcDb2dVertex
 10
212.3625983598221
 20
125.767951297158
 30
0.0
  0
VERTEX
  5
24D
330
247
100
AcDbEntity
  8
Sichtbar MD
100
AcDbVertex
100
AcDb2dVertex
 10
212.3661275508409
 20
125.8619505041777
 30
0.0
  0
VERTEX
  5
24E
330
247
100
AcDbEntity
  8
Sichtbar MD
100
AcDbVertex
100
AcDb2dVertex
 10
212.3706545236133
 20
125.9558886164365
 30
0.0
  0
VERTEX
  5
24F
330
247
100
AcDbEntity
  8
Sichtbar MD
100
AcDbVertex
100
AcDb2dVertex
 10
212.3761765959302
 20
126.0498013967213
 30
0.0
  0
VERTEX
  5
250
330
247
100
AcDbEntity
  8
Sichtbar MD
100
AcDbVertex
100
AcDb2dVertex
 10
212.3826913836058
 20
126.1437252038654
 30
0.0
  0
VERTEX
  5
251
330
247
100
AcDbEntity
  8
Sichtbar MD
100
AcDbVertex
100
AcDb2dVertex
 10
212.390197396524
 20
126.2376952046091
 30
0.0
  0
VERTEX
  5
252
330
247
100
AcDbEntity
  8
Sichtbar MD
100
AcDbVertex
100
AcDb2dVertex
 10
212.3986934425919
 20
126.3317468637162
 30
0.0
  0
VERTEX
  5
253
330
247
100
AcDbEntity
  8
Sichtbar MD
100
AcDbVertex
100
AcDb2dVertex
 10
212.4081798198328
 20
126.4259156459502
 30
0.0
  0
VERTEX
  5
254
330
247
100
AcDbEntity
  8
Sichtbar MD
100
AcDbVertex
100
AcDb2dVertex
 10
212.4186571242931
 20
126.5202367180516
 30
0.0
  0
VERTEX
  5
255
330
247
100
AcDbEntity
  8
Sichtbar MD
100
AcDbVertex
100
AcDb2dVertex
 10
212.4301268460889
 20
126.614745544784
 30
0.0
  0
VERTEX
  5
256
330
247
100
AcDbEntity
  8
Sichtbar MD
100
AcDbVertex
100
AcDb2dVertex
 10
212.4425910713828
 20
126.7094775909112
 30
0.0
  0
VERTEX
  5
257
330
247
100
AcDbEntity
  8
Sichtbar MD
100
AcDbVertex
100
AcDb2dVertex
 10
212.456052780407
 20
126.8044677251501
 30
0.0
  0
VERTEX
  5
258
330
247
100
AcDbEntity
  8
Sichtbar MD
100
AcDbVertex
100
AcDb2dVertex
 10
212.4705155494402
 20
126.8997517102878
 30
0.0
  0
VERTEX
  5
259
330
247
100
AcDbEntity
  8
Sichtbar MD
100
AcDbVertex
100
AcDb2dVertex
 10
212.485984146854
 20
126.9953656071343
 30
0.0
  0
VERTEX
  5
25A
330
247
100
AcDbEntity
  8
Sichtbar MD
100
AcDbVertex
100
AcDb2dVertex
 10
212.50246334102
 20
127.09134458243
 30
0.0
  0
VERTEX
  5
25B
330
247
100
AcDbEntity
  8
Sichtbar MD
100
AcDbVertex
100
AcDb2dVertex
 10
212.5199593904258
 20
127.1877249950083
 30
0.0
  0
VERTEX
  5
25C
330
247
100
AcDbEntity
  8
Sichtbar MD
100
AcDbVertex
100
AcDb2dVertex
 10
212.5384788515825
 20
127.2845437997489
 30
0.0
  0
VERTEX
  5
25D
330
247
100
AcDbEntity
  8
Sichtbar MD
100
AcDbVertex
100
AcDb2dVertex
 10
212.5580294730938
 20
127.3818376535083
 30
0.0
  0
VERTEX
  5
25E
330
247
100
AcDbEntity
  8
Sichtbar MD
100
AcDbVertex
100
AcDb2dVertex
 10
212.5786190035635
 20
127.4796429151199
 30
0.0
  0
VERTEX
  5
25F
330
247
100
AcDbEntity
  8
Sichtbar MD
100
AcDbVertex
100
AcDb2dVertex
 10
212.6002569797349
 20
127.5779977315562
 30
0.0
  0
VERTEX
  5
260
330
247
100
AcDbEntity
  8
Sichtbar MD
100
AcDbVertex
100
AcDb2dVertex
 10
212.6229532363742
 20
127.6769408458365
 30
0.0
  0
VERTEX
  5
261
330
247
100
AcDbEntity
  8
Sichtbar MD
100
AcDbVertex
100
AcDb2dVertex
 10
212.6467182042944
 20
127.7765098088869
 30
0.0
  0
SEQEND
  5
24A
330
247
100
AcDbEntity
  8
Sichtbar MD
  0
LINE
  5
262
330
75
100
AcDbEntity
  8
Sichtbar MD
100
AcDbLine
 10
212.6467181260482
 20
128.8602216714511
 30
0.0
 11
212.6467181260291
 21
127.776509518929
 31
0.0
  0
LINE
  5
263
330
75
100
AcDbEntity
  8
Sichtbar MD
100
AcDbLine
 10
212.6467182043135
 20
128.8602217906603
 30
0.0
 11
212.3580430748999
 21
128.8602217906654
 31
0.0
  0
POLYLINE
  5
264
330
75
100
AcDbEntity
  8
Sichtbar MD
100
AcDb2dPolyline
 66
     1
 10
0.0
 20
0.0
 30
0.0
 70
   128
  0
VERTEX
  5
265
330
264
100
AcDbEntity
  8
Sichtbar MD
100
AcDbVertex
100
AcDb2dVertex
 10
217.9193677308904
 20
127.7765098087936
 30
0.0
  0
VERTEX
  5
266
330
264
100
AcDbEntity
  8
Sichtbar MD
100
AcDbVertex
100
AcDb2dVertex
 10
217.9431332948535
 20
127.6769408457423
 30
0.0
  0
VERTEX
  5
268
330
264
100
AcDbEntity
  8
Sichtbar MD
100
AcDbVertex
100
AcDb2dVertex
 10
217.9658295514893
 20
127.5779977314612
 30
0.0
  0
VERTEX
  5
269
330
264
100
AcDbEntity
  8
Sichtbar MD
100
AcDbVertex
100
AcDb2dVertex
 10
217.9874672296339
 20
127.479642915024
 30
0.0
  0
VERTEX
  5
26A
330
264
100
AcDbEntity
  8
Sichtbar MD
100
AcDbVertex
100
AcDb2dVertex
 10
218.0080570581234
 20
127.3818376534118
 30
0.0
  0
VERTEX
  5
26B
330
264
100
AcDbEntity
  8
Sichtbar MD
100
AcDbVertex
100
AcDb2dVertex
 10
218.027607381608
 20
127.2845437996516
 30
0.0
  0
VERTEX
  5
26C
330
264
100
AcDbEntity
  8
Sichtbar MD
100
AcDbVertex
100
AcDb2dVertex
 10
218.046126544738
 20
127.1877249949104
 30
0.0
  0
VERTEX
  5
26D
330
264
100
AcDbEntity
  8
Sichtbar MD
100
AcDbVertex
100
AcDb2dVertex
 10
218.0636228921636
 20
127.0913445823315
 30
0.0
  0
VERTEX
  5
26E
330
264
100
AcDbEntity
  8
Sichtbar MD
100
AcDbVertex
100
AcDb2dVertex
 10
218.0801023843494
 20
126.9953656070352
 30
0.0
  0
VERTEX
  5
26F
330
264
100
AcDbEntity
  8
Sichtbar MD
100
AcDbVertex
100
AcDb2dVertex
 10
218.0955709817599
 20
126.8997517101882
 30
0.0
  0
VERTEX
  5
270
330
264
100
AcDbEntity
  8
Sichtbar MD
100
AcDbVertex
100
AcDb2dVertex
 10
218.1100334527665
 20
126.80446772505
 30
0.0
  0
VERTEX
  5
271
330
264
100
AcDbEntity
  8
Sichtbar MD
100
AcDbVertex
100
AcDb2dVertex
 10
218.1234945657409
 20
126.7094775908105
 30
0.0
  0
VERTEX
  5
272
330
264
100
AcDbEntity
  8
Sichtbar MD
100
AcDbVertex
100
AcDb2dVertex
 10
218.1359590890546
 20
126.614745544683
 30
0.0
  0
VERTEX
  5
273
330
264
100
AcDbEntity
  8
Sichtbar MD
100
AcDbVertex
100
AcDb2dVertex
 10
218.1474294068936
 20
126.5202367179502
 30
0.0
  0
VERTEX
  5
274
330
264
100
AcDbEntity
  8
Sichtbar MD
100
AcDbVertex
100
AcDb2dVertex
 10
218.1579067113505
 20
126.4259156458484
 30
0.0
  0
VERTEX
  5
275
330
264
100
AcDbEntity
  8
Sichtbar MD
100
AcDbVertex
100
AcDb2dVertex
 10
218.1673921945184
 20
126.331746863614
 30
0.0
  0
VERTEX
  5
276
330
264
100
AcDbEntity
  8
Sichtbar MD
100
AcDbVertex
100
AcDb2dVertex
 10
218.175888240583
 20
126.2376952045066
 30
0.0
  0
VERTEX
  5
277
330
264
100
AcDbEntity
  8
Sichtbar MD
100
AcDbVertex
100
AcDb2dVertex
 10
218.1833948495443
 20
126.1437252037626
 30
0.0
  0
VERTEX
  5
278
330
264
100
AcDbEntity
  8
Sichtbar MD
100
AcDbVertex
100
AcDb2dVertex
 10
218.1899096372166
 20
126.0498013966184
 30
0.0
  0
VERTEX
  5
279
330
264
100
AcDbEntity
  8
Sichtbar MD
100
AcDbVertex
100
AcDb2dVertex
 10
218.195431411507
 20
125.9558886163334
 30
0.0
  0
VERTEX
  5
27A
330
264
100
AcDbEntity
  8
Sichtbar MD
100
AcDbVertex
100
AcDb2dVertex
 10
218.1999589803224
 20
125.8619505040744
 30
0.0
  0
VERTEX
  5
27B
330
264
100
AcDbEntity
  8
Sichtbar MD
100
AcDbVertex
100
AcDb2dVertex
 10
218.2034875752915
 20
125.7679512970545
 30
0.0
  0
VERTEX
  5
27C
330
264
100
AcDbEntity
  8
Sichtbar MD
100
AcDbVertex
100
AcDb2dVertex
 10
218.2060148122283
 20
125.6738546364405
 30
0.0
  0
VERTEX
  5
27D
330
264
100
AcDbEntity
  8
Sichtbar MD
100
AcDbVertex
100
AcDb2dVertex
 10
218.2075347306684
 20
125.5796238653757
 30
0.0
  0
VERTEX
  5
27E
330
264
100
AcDbEntity
  8
Sichtbar MD
100
AcDbVertex
100
AcDb2dVertex
 10
218.2080425622402
 20
125.4852217309572
 30
0.0
  0
SEQEND
  5
267
330
264
100
AcDbEntity
  8
Sichtbar MD
  0
LINE
  5
27F
330
75
100
AcDbEntity
  8
Sichtbar MD
100
AcDbLine
 10
218.2080429913936
 20
125.4852216713526
 30
0.0
 11
218.2080429914172
 21
126.8166630178088
 31
0.0
  0
LINE
  5
280
330
75
100
AcDbEntity
  8
Sichtbar MD
100
AcDbLine
 10
218.2080429914498
 20
128.6537803248962
 30
0.0
 11
218.2080429914534
 21
128.8602216713526
 31
0.0
  0
LINE
  5
281
330
75
100
AcDbEntity
  8
Sichtbar MD
100
AcDbLine
 10
218.2080425622999
 20
128.8602217905618
 30
0.0
 11
217.9193677309096
 21
128.8602217905669
 31
0.0
  0
LINE
  5
282
330
75
100
AcDbEntity
  8
Sichtbar MD
100
AcDbLine
 10
217.9193678568394
 20
127.7765095188356
 30
0.0
 11
217.9193678568586
 21
128.8602216713577
 31
0.0
  0
POLYLINE
  5
283
330
75
100
AcDbEntity
  8
Sichtbar MD
100
AcDb2dPolyline
 66
     1
 10
0.0
 20
0.0
 30
0.0
 70
   128
  0
VERTEX
  5
284
330
283
100
AcDbEntity
  8
Sichtbar MD
100
AcDbVertex
100
AcDb2dVertex
 10
218.2080425622402
 20
125.4852217309572
 30
0.0
  0
VERTEX
  5
285
330
283
100
AcDbEntity
  8
Sichtbar MD
100
AcDbVertex
100
AcDb2dVertex
 10
218.207534730665
 20
125.3908195965387
 30
0.0
  0
VERTEX
  5
287
330
283
100
AcDbEntity
  8
Sichtbar MD
100
AcDbVertex
100
AcDb2dVertex
 10
218.2060148122216
 20
125.296588825474
 30
0.0
  0
VERTEX
  5
288
330
283
100
AcDbEntity
  8
Sichtbar MD
100
AcDbVertex
100
AcDb2dVertex
 10
218.2034875752814
 20
125.20249216486
 30
0.0
  0
VERTEX
  5
289
330
283
100
AcDbEntity
  8
Sichtbar MD
100
AcDbVertex
100
AcDb2dVertex
 10
218.1999589803091
 20
125.1084929578403
 30
0.0
  0
VERTEX
  5
28A
330
283
100
AcDbEntity
  8
Sichtbar MD
100
AcDbVertex
100
AcDb2dVertex
 10
218.1954314114903
 20
125.0145548455815
 30
0.0
  0
VERTEX
  5
28B
330
283
100
AcDbEntity
  8
Sichtbar MD
100
AcDbVertex
100
AcDb2dVertex
 10
218.1899096371966
 20
124.9206417672734
 30
0.0
  0
VERTEX
  5
28C
330
283
100
AcDbEntity
  8
Sichtbar MD
100
AcDbVertex
100
AcDb2dVertex
 10
218.183394849521
 20
124.8267182581526
 30
0.0
  0
VERTEX
  5
28D
330
283
100
AcDbEntity
  8
Sichtbar MD
100
AcDbVertex
100
AcDb2dVertex
 10
218.1758882405564
 20
124.7327482574089
 30
0.0
  0
VERTEX
  5
28E
330
283
100
AcDbEntity
  8
Sichtbar MD
100
AcDbVertex
100
AcDb2dVertex
 10
218.1673921944884
 20
124.6386965983018
 30
0.0
  0
VERTEX
  5
28F
330
283
100
AcDbEntity
  8
Sichtbar MD
100
AcDbVertex
100
AcDb2dVertex
 10
218.1579067113172
 20
124.5445278160678
 30
0.0
  0
VERTEX
  5
290
330
283
100
AcDbEntity
  8
Sichtbar MD
100
AcDbVertex
100
AcDb2dVertex
 10
218.1474294068569
 20
124.4502065949548
 30
0.0
  0
VERTEX
  5
291
330
283
100
AcDbEntity
  8
Sichtbar MD
100
AcDbVertex
100
AcDb2dVertex
 10
218.1359590890146
 20
124.3556977682223
 30
0.0
  0
VERTEX
  5
292
330
283
100
AcDbEntity
  8
Sichtbar MD
100
AcDbVertex
100
AcDb2dVertex
 10
218.1234945656975
 20
124.2609658711069
 30
0.0
  0
VERTEX
  5
293
330
283
100
AcDbEntity
  8
Sichtbar MD
100
AcDbVertex
100
AcDb2dVertex
 10
218.1100334527197
 20
124.1659755878563
 30
0.0
  0
VERTEX
  5
294
330
283
100
AcDbEntity
  8
Sichtbar MD
100
AcDbVertex
100
AcDb2dVertex
 10
218.0955709817098
 20
124.070691453707
 30
0.0
  0
VERTEX
  5
295
330
283
100
AcDbEntity
  8
Sichtbar MD
100
AcDbVertex
100
AcDb2dVertex
 10
218.080102384296
 20
123.9750778548837
 30
0.0
  0
VERTEX
  5
296
330
283
100
AcDbEntity
  8
Sichtbar MD
100
AcDbVertex
100
AcDb2dVertex
 10
218.0636228921068
 20
123.8790987305764
 30
0.0
  0
VERTEX
  5
297
330
283
100
AcDbEntity
  8
Sichtbar MD
100
AcDbVertex
100
AcDb2dVertex
 10
218.0461265446777
 20
123.7827180199749
 30
0.0
  0
VERTEX
  5
298
330
283
100
AcDbEntity
  8
Sichtbar MD
100
AcDbVertex
100
AcDb2dVertex
 10
218.0276073815443
 20
123.6858993642459
 30
0.0
  0
VERTEX
  5
299
330
283
100
AcDbEntity
  8
Sichtbar MD
100
AcDbVertex
100
AcDb2dVertex
 10
218.0080570580563
 20
123.5886059575213
 30
0.0
  0
VERTEX
  5
29A
330
283
100
AcDbEntity
  8
Sichtbar MD
100
AcDbVertex
100
AcDb2dVertex
 10
217.9874672295633
 20
123.4908003978865
 30
0.0
  0
VERTEX
  5
29B
330
283
100
AcDbEntity
  8
Sichtbar MD
100
AcDbVertex
100
AcDb2dVertex
 10
217.9658295514152
 20
123.3924454324385
 30
0.0
  0
VERTEX
  5
29C
330
283
100
AcDbEntity
  8
Sichtbar MD
100
AcDbVertex
100
AcDb2dVertex
 10
217.9431332947758
 20
123.2935027651931
 30
0.0
  0
VERTEX
  5
29D
330
283
100
AcDbEntity
  8
Sichtbar MD
100
AcDbVertex
100
AcDb2dVertex
 10
217.9193677308092
 20
123.1939338021426
 30
0.0
  0
SEQEND
  5
286
330
283
100
AcDbEntity
  8
Sichtbar MD
  0
LINE
  5
29E
330
75
100
AcDbEntity
  8
Sichtbar MD
100
AcDbLine
 10
217.9193678567199
 20
121.0265095188356
 30
0.0
 11
217.9193678567582
 21
123.1939338238797
 31
0.0
  0
POLYLINE
  5
29F
330
75
100
AcDbEntity
  8
Sichtbar MD
100
AcDb2dPolyline
 66
     1
 10
0.0
 20
0.0
 30
0.0
 70
   128
  0
VERTEX
  5
2A0
330
29F
100
AcDbEntity
  8
Sichtbar MD
100
AcDbVertex
100
AcDb2dVertex
 10
217.9193677307708
 20
121.0265095405727
 30
0.0
  0
VERTEX
  5
2A1
330
29F
100
AcDbEntity
  8
Sichtbar MD
100
AcDbVertex
100
AcDb2dVertex
 10
217.943133294734
 20
120.9269405775214
 30
0.0
  0
VERTEX
  5
2A3
330
29F
100
AcDbEntity
  8
Sichtbar MD
100
AcDbVertex
100
AcDb2dVertex
 10
217.9658295513697
 20
120.8279979102751
 30
0.0
  0
VERTEX
  5
2A4
330
29F
100
AcDbEntity
  8
Sichtbar MD
100
AcDbVertex
100
AcDb2dVertex
 10
217.9874672295143
 20
120.7296429448264
 30
0.0
  0
VERTEX
  5
2A5
330
29F
100
AcDbEntity
  8
Sichtbar MD
100
AcDbVertex
100
AcDb2dVertex
 10
218.0080570580039
 20
120.6318373851908
 30
0.0
  0
VERTEX
  5
2A6
330
29F
100
AcDbEntity
  8
Sichtbar MD
100
AcDbVertex
100
AcDb2dVertex
 10
218.0276073814884
 20
120.5345439784656
 30
0.0
  0
VERTEX
  5
2A7
330
29F
100
AcDbEntity
  8
Sichtbar MD
100
AcDbVertex
100
AcDb2dVertex
 10
218.0461265446185
 20
120.437725322736
 30
0.0
  0
VERTEX
  5
2A8
330
29F
100
AcDbEntity
  8
Sichtbar MD
100
AcDbVertex
100
AcDb2dVertex
 10
218.0636228920441
 20
120.3413446121338
 30
0.0
  0
VERTEX
  5
2A9
330
29F
100
AcDbEntity
  8
Sichtbar MD
100
AcDbVertex
100
AcDb2dVertex
 10
218.0801023842299
 20
120.2453654878259
 30
0.0
  0
VERTEX
  5
2AA
330
29F
100
AcDbEntity
  8
Sichtbar MD
100
AcDbVertex
100
AcDb2dVertex
 10
218.0955709816403
 20
120.1497518890021
 30
0.0
  0
VERTEX
  5
2AB
330
29F
100
AcDbEntity
  8
Sichtbar MD
100
AcDbVertex
100
AcDb2dVertex
 10
218.1100334526469
 20
120.0544677548523
 30
0.0
  0
VERTEX
  5
2AC
330
29F
100
AcDbEntity
  8
Sichtbar MD
100
AcDbVertex
100
AcDb2dVertex
 10
218.1234945656213
 20
119.9594774716012
 30
0.0
  0
VERTEX
  5
2AD
330
29F
100
AcDbEntity
  8
Sichtbar MD
100
AcDbVertex
100
AcDb2dVertex
 10
218.1359590889351
 20
119.8647455744853
 30
0.0
  0
VERTEX
  5
2AE
330
29F
100
AcDbEntity
  8
Sichtbar MD
100
AcDbVertex
100
AcDb2dVertex
 10
218.147429406774
 20
119.7702367477525
 30
0.0
  0
VERTEX
  5
2AF
330
29F
100
AcDbEntity
  8
Sichtbar MD
100
AcDbVertex
100
AcDb2dVertex
 10
218.1579067112309
 20
119.6759155266391
 30
0.0
  0
VERTEX
  5
2B0
330
29F
100
AcDbEntity
  8
Sichtbar MD
100
AcDbVertex
100
AcDb2dVertex
 10
218.1673921943988
 20
119.5817467444047
 30
0.0
  0
VERTEX
  5
2B1
330
29F
100
AcDbEntity
  8
Sichtbar MD
100
AcDbVertex
100
AcDb2dVertex
 10
218.1758882404634
 20
119.4876950852974
 30
0.0
  0
VERTEX
  5
2B2
330
29F
100
AcDbEntity
  8
Sichtbar MD
100
AcDbVertex
100
AcDb2dVertex
 10
218.1833948494248
 20
119.3937250845534
 30
0.0
  0
VERTEX
  5
2B3
330
29F
100
AcDbEntity
  8
Sichtbar MD
100
AcDbVertex
100
AcDb2dVertex
 10
218.1899096370971
 20
119.2998015754323
 30
0.0
  0
VERTEX
  5
2B4
330
29F
100
AcDbEntity
  8
Sichtbar MD
100
AcDbVertex
100
AcDb2dVertex
 10
218.1954314113874
 20
119.2058884971241
 30
0.0
  0
VERTEX
  5
2B5
330
29F
100
AcDbEntity
  8
Sichtbar MD
100
AcDbVertex
100
AcDb2dVertex
 10
218.1999589802029
 20
119.1119503848651
 30
0.0
  0
VERTEX
  5
2B6
330
29F
100
AcDbEntity
  8
Sichtbar MD
100
AcDbVertex
100
AcDb2dVertex
 10
218.2034875751719
 20
119.0179511778453
 30
0.0
  0
VERTEX
  5
2B7
330
29F
100
AcDbEntity
  8
Sichtbar MD
100
AcDbVertex
100
AcDb2dVertex
 10
218.2060148121087
 20
118.9238545172312
 30
0.0
  0
VERTEX
  5
2B8
330
29F
100
AcDbEntity
  8
Sichtbar MD
100
AcDbVertex
100
AcDb2dVertex
 10
218.2075347305488
 20
118.8296237461664
 30
0.0
  0
VERTEX
  5
2B9
330
29F
100
AcDbEntity
  8
Sichtbar MD
100
AcDbVertex
100
AcDb2dVertex
 10
218.2080425621206
 20
118.7352216117479
 30
0.0
  0
SEQEND
  5
2A2
330
29F
100
AcDbEntity
  8
Sichtbar MD
  0
LINE
  5
2BA
330
75
100
AcDbEntity
  8
Sichtbar MD
100
AcDbLine
 10
218.208042991274
 20
118.7352216713525
 30
0.0
 11
218.2080429913013
 21
120.2731043642652
 31
0.0
  0
LINE
  5
2BB
330
75
100
AcDbEntity
  8
Sichtbar MD
100
AcDbLine
 10
218.2080429913664
 20
123.9473389784399
 30
0.0
 11
218.2080429913936
 21
125.4852216713526
 31
0.0
  0
POLYLINE
  5
2BC
330
75
100
AcDbEntity
  8
Sichtbar MD
100
AcDb2dPolyline
 66
     1
 10
0.0
 20
0.0
 30
0.0
 70
   128
  0
VERTEX
  5
2BD
330
2BC
100
AcDbEntity
  8
Sichtbar MD
100
AcDbVertex
100
AcDb2dVertex
 10
218.2080425621206
 20
118.7352216117479
 30
0.0
  0
VERTEX
  5
2BE
330
2BC
100
AcDbEntity
  8
Sichtbar MD
100
AcDbVertex
100
AcDb2dVertex
 10
218.2075347305455
 20
118.6408194773294
 30
0.0
  0
VERTEX
  5
2C0
330
2BC
100
AcDbEntity
  8
Sichtbar MD
100
AcDbVertex
100
AcDb2dVertex
 10
218.2060148121021
 20
118.5465887062647
 30
0.0
  0
VERTEX
  5
2C1
330
2BC
100
AcDbEntity
  8
Sichtbar MD
100
AcDbVertex
100
AcDb2dVertex
 10
218.2034875751619
 20
118.4524920456507
 30
0.0
  0
VERTEX
  5
2C2
330
2BC
100
AcDbEntity
  8
Sichtbar MD
100
AcDbVertex
100
AcDb2dVertex
 10
218.1999589801896
 20
118.358492838631
 30
0.0
  0
VERTEX
  5
2C3
330
2BC
100
AcDbEntity
  8
Sichtbar MD
100
AcDbVertex
100
AcDb2dVertex
 10
218.1954314113708
 20
118.2645547263722
 30
0.0
  0
VERTEX
  5
2C4
330
2BC
100
AcDbEntity
  8
Sichtbar MD
100
AcDbVertex
100
AcDb2dVertex
 10
218.1899096370771
 20
118.1706419460874
 30
0.0
  0
VERTEX
  5
2C5
330
2BC
100
AcDbEntity
  8
Sichtbar MD
100
AcDbVertex
100
AcDb2dVertex
 10
218.1833948494015
 20
118.0767181389433
 30
0.0
  0
VERTEX
  5
2C6
330
2BC
100
AcDbEntity
  8
Sichtbar MD
100
AcDbVertex
100
AcDb2dVertex
 10
218.1758882404368
 20
117.9827481381996
 30
0.0
  0
VERTEX
  5
2C7
330
2BC
100
AcDbEntity
  8
Sichtbar MD
100
AcDbVertex
100
AcDb2dVertex
 10
218.1673921943688
 20
117.8886964790925
 30
0.0
  0
VERTEX
  5
2C8
330
2BC
100
AcDbEntity
  8
Sichtbar MD
100
AcDbVertex
100
AcDb2dVertex
 10
218.1579067111976
 20
117.7945276968585
 30
0.0
  0
VERTEX
  5
2C9
330
2BC
100
AcDbEntity
  8
Sichtbar MD
100
AcDbVertex
100
AcDb2dVertex
 10
218.1474294067373
 20
117.7002066247571
 30
0.0
  0
VERTEX
  5
2CA
330
2BC
100
AcDbEntity
  8
Sichtbar MD
100
AcDbVertex
100
AcDb2dVertex
 10
218.1359590888951
 20
117.6056977980246
 30
0.0
  0
VERTEX
  5
2CB
330
2BC
100
AcDbEntity
  8
Sichtbar MD
100
AcDbVertex
100
AcDb2dVertex
 10
218.123494565578
 20
117.5109657518976
 30
0.0
  0
VERTEX
  5
2CC
330
2BC
100
AcDbEntity
  8
Sichtbar MD
100
AcDbVertex
100
AcDb2dVertex
 10
218.1100334526002
 20
117.4159756176586
 30
0.0
  0
VERTEX
  5
2CD
330
2BC
100
AcDbEntity
  8
Sichtbar MD
100
AcDbVertex
100
AcDb2dVertex
 10
218.0955709815902
 20
117.3206916325209
 30
0.0
  0
VERTEX
  5
2CE
330
2BC
100
AcDbEntity
  8
Sichtbar MD
100
AcDbVertex
100
AcDb2dVertex
 10
218.0801023841764
 20
117.2250777356744
 30
0.0
  0
VERTEX
  5
2CF
330
2BC
100
AcDbEntity
  8
Sichtbar MD
100
AcDbVertex
100
AcDb2dVertex
 10
218.0636228919872
 20
117.1290987603787
 30
0.0
  0
VERTEX
  5
2D0
330
2BC
100
AcDbEntity
  8
Sichtbar MD
100
AcDbVertex
100
AcDb2dVertex
 10
218.0461265445581
 20
117.0327183478004
 30
0.0
  0
VERTEX
  5
2D1
330
2BC
100
AcDbEntity
  8
Sichtbar MD
100
AcDbVertex
100
AcDb2dVertex
 10
218.0276073814247
 20
116.9358995430598
 30
0.0
  0
VERTEX
  5
2D2
330
2BC
100
AcDbEntity
  8
Sichtbar MD
100
AcDbVertex
100
AcDb2dVertex
 10
218.0080570579367
 20
116.8386056893004
 30
0.0
  0
VERTEX
  5
2D3
330
2BC
100
AcDbEntity
  8
Sichtbar MD
100
AcDbVertex
100
AcDb2dVertex
 10
217.9874672294437
 20
116.7408004276888
 30
0.0
  0
VERTEX
  5
2D4
330
2BC
100
AcDbEntity
  8
Sichtbar MD
100
AcDbVertex
100
AcDb2dVertex
 10
217.9658295512956
 20
116.6424456112525
 30
0.0
  0
VERTEX
  5
2D5
330
2BC
100
AcDbEntity
  8
Sichtbar MD
100
AcDbVertex
100
AcDb2dVertex
 10
217.9431332946563
 20
116.5435024969722
 30
0.0
  0
VERTEX
  5
2D6
330
2BC
100
AcDbEntity
  8
Sichtbar MD
100
AcDbVertex
100
AcDb2dVertex
 10
217.9193677306897
 20
116.4439335339217
 30
0.0
  0
SEQEND
  5
2BF
330
2BC
100
AcDbEntity
  8
Sichtbar MD
  0
LINE
  5
2D7
330
75
100
AcDbEntity
  8
Sichtbar MD
100
AcDbLine
 10
217.9193678566195
 20
115.3602216713577
 30
0.0
 11
217.9193678566387
 21
116.4439338238797
 31
0.0
  0
LINE
  5
2D8
330
75
100
AcDbEntity
  8
Sichtbar MD
100
AcDbLine
 10
217.9193677306705
 20
115.3602215521484
 30
0.0
 11
218.2080425620609
 21
115.3602215521432
 31
0.0
  0
LINE
  5
2D9
330
75
100
AcDbEntity
  8
Sichtbar MD
100
AcDbLine
 10
218.2080429912143
 20
115.3602216713526
 30
0.0
 11
218.208042991218
 21
115.5666630178089
 31
0.0
  0
LINE
  5
2DA
330
75
100
AcDbEntity
  8
Sichtbar MD
100
AcDbLine
 10
218.2080429912505
 20
117.4037803248962
 30
0.0
 11
218.2080429912741
 21
118.7352216713525
 31
0.0
  0
LINE
  5
2DB
330
75
100
AcDbEntity
  8
Sichtbar MD
100
AcDbLine
 10
217.9193678566387
 20
116.4439338238797
 30
0.0
 11
212.6467181258283
 21
116.4439338239731
 31
0.0
  0
LINE
  5
2DC
330
75
100
AcDbEntity
  8
Sichtbar MD
100
AcDbLine
 10
212.6467181259095
 20
121.026509518929
 30
0.0
 11
217.9193678567199
 21
121.0265095188356
 31
0.0
  0
LINE
  5
2DD
330
75
100
AcDbEntity
  8
Sichtbar MD
100
AcDbLine
 10
212.6467181258091
 20
115.360221671451
 30
0.0
 11
217.9193678566195
 21
115.3602216713577
 31
0.0
  0
LINE
  5
2DE
330
75
100
AcDbEntity
  8
Sichtbar MD
100
AcDbLine
 10
217.9193678567582
 20
123.1939338238797
 30
0.0
 11
212.6467181259479
 21
123.1939338239731
 31
0.0
  0
LINE
  5
2DF
330
75
100
AcDbEntity
  8
Sichtbar MD
100
AcDbLine
 10
212.646718126029
 20
127.776509518929
 30
0.0
 11
217.9193678568394
 21
127.7765095188356
 31
0.0
  0
LINE
  5
2E0
330
75
100
AcDbEntity
  8
Sichtbar MD
100
AcDbLine
 10
217.9193678568586
 20
128.8602216713577
 30
0.0
 11
212.6467181260482
 21
128.8602216714511
 31
0.0
  0
LINE
  5
2E1
330
75
100
AcDbEntity
  8
Sichtbar MD
100
AcDbLine
 10
231.4580429912245
 20
115.9352216711179
 30
0.0
 11
231.4580429914432
 21
128.2852216711179
 31
0.0
  0
LINE
  5
2E2
330
75
100
AcDbEntity
  8
Sichtbar MD
100
AcDbLine
 10
231.7830429912187
 20
115.6102216711121
 30
0.0
 11
231.783042991449
 21
128.6102216711121
 31
0.0
  0
LINE
  5
2E3
330
75
100
AcDbEntity
  8
Sichtbar MD
100
AcDbLine
 10
233.0580429912245
 20
115.9352216710896
 30
0.0
 11
233.0580429914432
 21
128.2852216710895
 31
0.0
  0
LINE
  5
2E4
330
75
100
AcDbEntity
  8
Sichtbar MD
100
AcDbLine
 10
230.3580429913013
 20
120.27310436405
 30
0.0
 11
218.2080429913013
 21
120.2731043642652
 31
0.0
  0
LINE
  5
2E5
330
75
100
AcDbEntity
  8
Sichtbar MD
100
AcDbLine
 10
218.2080429912505
 20
117.4037803248962
 30
0.0
 11
230.3580429912505
 21
117.4037803246811
 31
0.0
  0
LINE
  5
2E6
330
75
100
AcDbEntity
  8
Sichtbar MD
100
AcDbLine
 10
230.3580429913013
 20
120.27310436405
 30
0.0
 11
230.3580429912505
 21
117.4037803246811
 31
0.0
  0
LINE
  5
2E7
330
75
100
AcDbEntity
  8
Sichtbar MD
100
AcDbLine
 10
230.3580429914172
 20
126.8166630175937
 30
0.0
 11
218.2080429914172
 21
126.8166630178088
 31
0.0
  0
LINE
  5
2E8
330
75
100
AcDbEntity
  8
Sichtbar MD
100
AcDbLine
 10
218.2080429913664
 20
123.9473389784399
 30
0.0
 11
230.3580429913664
 21
123.9473389782248
 31
0.0
  0
LINE
  5
2E9
330
75
100
AcDbEntity
  8
Sichtbar MD
100
AcDbLine
 10
230.3580429914172
 20
126.8166630175937
 30
0.0
 11
230.3580429913664
 21
123.9473389782248
 31
0.0
  0
LINE
  5
2EA
330
75
100
AcDbEntity
  8
Sichtbar MD
100
AcDbLine
 10
230.358042991218
 20
115.5666630175937
 30
0.0
 11
230.3580429912143
 21
115.3602216711374
 31
0.0
  0
LINE
  5
2EB
330
75
100
AcDbEntity
  8
Sichtbar MD
100
AcDbLine
 10
230.358042991218
 20
115.5666630175937
 30
0.0
 11
218.208042991218
 21
115.5666630178089
 31
0.0
  0
LINE
  5
2EC
330
75
100
AcDbEntity
  8
Sichtbar MD
100
AcDbLine
 10
218.2080429914498
 20
128.6537803248962
 30
0.0
 11
230.3580429914497
 21
128.653780324681
 31
0.0
  0
LINE
  5
2ED
330
75
100
AcDbEntity
  8
Sichtbar MD
100
AcDbLine
 10
230.3580429914534
 20
128.8602216711374
 30
0.0
 11
230.3580429914497
 21
128.653780324681
 31
0.0
  0
LINE
  5
2EE
330
75
100
AcDbEntity
  8
Sichtbar MD
100
AcDbLine
 10
230.3580429914172
 20
126.8166630175937
 30
0.0
 11
230.3580429914497
 21
128.653780324681
 31
0.0
  0
LINE
  5
2EF
330
75
100
AcDbEntity
  8
Sichtbar MD
100
AcDbLine
 10
230.3580429913013
 20
120.27310436405
 30
0.0
 11
230.3580429913664
 21
123.9473389782248
 31
0.0
  0
LINE
  5
2F0
330
75
100
AcDbEntity
  8
Sichtbar MD
100
AcDbLine
 10
230.358042991218
 20
115.5666630175937
 30
0.0
 11
230.3580429912505
 21
117.4037803246811
 31
0.0
  0
LINE
  5
2F1
330
75
100
AcDbEntity
  8
Sichtbar MD
100
AcDbLine
 10
230.3580429914153
 20
126.7102216711374
 30
0.0
 11
231.4580429914153
 21
126.7102216711179
 31
0.0
  0
LINE
  5
2F2
330
75
100
AcDbEntity
  8
Sichtbar MD
100
AcDbLine
 10
230.3580429912524
 20
117.5102216711374
 30
0.0
 11
231.4580429912524
 21
117.5102216711179
 31
0.0
  0
LINE
  5
2F3
330
75
100
AcDbEntity
  8
Sichtbar MD
100
AcDbLine
 10
231.4580429914432
 20
128.2852216711179
 30
0.0
 11
231.783042991449
 21
128.6102216711121
 31
0.0
  0
LINE
  5
2F4
330
75
100
AcDbEntity
  8
Sichtbar MD
100
AcDbLine
 10
231.4580429912245
 20
115.9352216711179
 30
0.0
 11
231.7830429912187
 21
115.6102216711121
 31
0.0
  0
LINE
  5
2F5
330
75
100
AcDbEntity
  8
Sichtbar MD
100
AcDbLine
 10
231.783042991449
 20
128.6102216711121
 30
0.0
 11
232.733042991449
 21
128.6102216710953
 31
0.0
  0
LINE
  5
2F6
330
75
100
AcDbEntity
  8
Sichtbar MD
100
AcDbLine
 10
231.7830429912187
 20
115.6102216711121
 30
0.0
 11
232.7330429912187
 21
115.6102216710953
 31
0.0
  0
ARC
  5
2F7
330
75
100
AcDbEntity
  8
Sichtbar MD
100
AcDbCircle
 10
232.7330429912245
 20
115.9352216710953
 30
0.0
 40
0.325
100
AcDbArc
 50
269.9999999989854
 51
0.0
  0
ARC
  5
2F8
330
75
100
AcDbEntity
  8
Sichtbar MD
100
AcDbCircle
 10
232.7330429914432
 20
128.2852216710953
 30
0.0
 40
0.325
100
AcDbArc
 50
0.0
 51
89.99999999898538
  0
LINE
  5
2F9
330
75
100
AcDbEntity
  8
Sichtbar MD
100
AcDbLine
 10
218.2080429912143
 20
115.3602216713526
 30
0.0
 11
230.3580429912143
 21
115.3602216711374
 31
0.0
  0
LINE
  5
2FA
330
75
100
AcDbEntity
  8
Sichtbar MD
100
AcDbLine
 10
218.2080429914534
 20
128.8602216713526
 30
0.0
 11
230.3580429914534
 21
128.8602216711374
 31
0.0
  0
LINE
  5
2FB
330
75
100
AcDbEntity
  8
Sichtbar MD
100
AcDbLine
 10
90.62075971042345
 20
107.8446711969181
 30
0.0
 11
90.62075971538071
 21
136.3757721697292
 31
0.0
  0
LINE
  5
2FC
330
75
100
AcDbEntity
  8
Sichtbar MD
100
AcDbLine
 10
88.15804298959637
 20
112.1102216837515
 30
0.0
 11
88.15804299307139
 21
132.1102216837515
 31
0.0
  0
LINE
  5
2FD
330
75
100
AcDbEntity
  8
Sichtbar MD
100
AcDbLine
 10
96.15804298877108
 20
107.3602216823616
 30
0.0
 11
96.15804299389669
 21
136.8602216823615
 31
0.0
  0
LINE
  5
2FE
330
75
100
AcDbEntity
  8
Sichtbar MD
100
AcDbLine
 10
88.15804299307139
 20
132.1102216837515
 30
0.0
 11
90.62075971538071
 21
136.3757721697292
 31
0.0
  0
LINE
  5
2FF
330
75
100
AcDbEntity
  8
Sichtbar MD
100
AcDbLine
 10
88.15804298959639
 20
112.1102216837515
 30
0.0
 11
90.62075971042345
 21
107.8446711969181
 31
0.0
  0
LINE
  5
300
330
75
100
AcDbEntity
  8
Sichtbar MD
100
AcDbLine
 10
90.62075971538071
 20
136.3757721697292
 30
0.0
 11
96.15804299389669
 21
136.8602216823615
 31
0.0
  0
LINE
  5
301
330
75
100
AcDbEntity
  8
Sichtbar MD
100
AcDbLine
 10
90.62075971042345
 20
107.8446711969181
 30
0.0
 11
96.15804298877108
 21
107.3602216823615
 31
0.0
  0
ENDSEC
  0
SECTION
  2
OBJECTS
  0
DICTIONARY
  5
C
330
0
100
AcDbDictionary
281
     1
  3
ACAD_COLOR
350
6B
  3
ACAD_GROUP
350
D
  3
ACAD_LAYOUT
350
6A
  3
ACAD_MATERIAL
350
10
  3
ACAD_MLEADERSTYLE
350
6E
  3
ACAD_MLINESTYLE
350
67
  3
ACAD_PLOTSETTINGS
350
69
  3
ACAD_PLOTSTYLENAME
350
E
  3
ACAD_SCALELIST
350
3A
  3
ACAD_TABLESTYLE
350
6C
  3
ACAD_VISUALSTYLE
350
29
  3
ACDB_RECOMPOSE_DATA
350
30A
  3
AcDbVariableDictionary
350
302
  0
DICTIONARY
  5
6B
102
{ACAD_REACTORS
330
C
102
}
330
C
100
AcDbDictionary
281
     1
  0
DICTIONARY
  5
D
102
{ACAD_REACTORS
330
C
102
}
330
C
100
AcDbDictionary
281
     1
  0
DICTIONARY
  5
6A
102
{ACAD_REACTORS
330
C
102
}
330
C
100
AcDbDictionary
281
     1
  3
Layout1
350
74
  3
Layout2
350
7C
  3
Model
350
78
  0
DICTIONARY
  5
10
102
{ACAD_REACTORS
330
C
102
}
330
C
100
AcDbDictionary
281
     1
  3
ByBlock
350
19
  3
ByLayer
350
11
  3
Global
350
21
  0
DICTIONARY
  5
6E
102
{ACAD_REACTORS
330
C
102
}
330
C
100
AcDbDictionary
281
     1
  3
Standard
350
6F
  0
DICTIONARY
  5
67
102
{ACAD_REACTORS
330
C
102
}
330
C
100
AcDbDictionary
281
     1
  3
Standard
350
68
  0
DICTIONARY
  5
69
102
{ACAD_REACTORS
330
C
102
}
330
C
100
AcDbDictionary
281
     1
  0
ACDBDICTIONARYWDFLT
  5
E
102
{ACAD_REACTORS
330
C
102
}
330
C
100
AcDbDictionary
281
     1
  3
Normal
350
F
100
AcDbDictionaryWithDefault
340
F
  0
DICTIONARY
  5
3A
102
{ACAD_REACTORS
330
C
102
}
330
C
100
AcDbDictionary
281
     1
  3
A0
350
3B
  3
A1
350
3C
  3
A2
350
3D
  3
A3
350
3E
  3
A4
350
3F
  3
A5
350
40
  3
A6
350
41
  3
A7
350
42
  3
A8
350
43
  3
A9
350
44
  3
B0
350
45
  3
B1
350
46
  3
B2
350
47
  3
B3
350
48
  3
B4
350
49
  3
B5
350
4A
  3
B6
350
4B
  3
B7
350
4C
  3
B8
350
4D
  3
B9
350
4E
  3
C0
350
4F
  3
C1
350
50
  3
C2
350
51
  3
C3
350
52
  3
C4
350
53
  3
C5
350
54
  3
C6
350
55
  3
C7
350
56
  3
C8
350
57
  3
C9
350
58
  3
D0
350
59
  3
D1
350
5A
  3
D2
350
5B
  0
DICTIONARY
  5
6C
102
{ACAD_REACTORS
330
C
102
}
330
C
100
AcDbDictionary
281
     1
  3
Standard
350
6D
  0
DICTIONARY
  5
29
102
{ACAD_REACTORS
330
C
102
}
330
C
100
AcDbDictionary
281
     1
  3
2dWireframe
350
2F
  3
3D Hidden
350
31
  3
3dWireframe
350
30
  3
Basic
350
2E
  3
Brighten
350
35
  3
ColorChange
350
39
  3
Conceptual
350
32
  3
Dim
350
34
  3
Facepattern
350
38
  3
Flat
350
2A
  3
FlatWithEdges
350
2B
  3
Gouraud
350
2C
  3
GouraudWithEdges
350
2D
  3
Linepattern
350
37
  3
Realistic
350
33
  3
Thicken
350
36
  0
XRECORD
  5
30A
102
{ACAD_REACTORS
330
C
102
}
330
C
100
AcDbXrecord
280
     1
 90
        1
330
6D
  0
DICTIONARY
  5
302
102
{ACAD_REACTORS
330
C
102
}
330
C
100
AcDbDictionary
281
     1
  3
CANNOSCALE
350
306
  3
CMLEADERSTYLE
350
304
  3
CTABLESTYLE
350
303
  3
LIGHTINGUNITS
350
307
  3
MSLTSCALE
350
305
  0
LAYOUT
  5
74
102
{ACAD_REACTORS
330
6A
102
}
330
6A
100
AcDbPlotSettings
  1

  2

  4

  6

 40
0.0
 41
0.0
 42
0.0
 43
0.0
 44
0.0
 45
0.0
 46
0.0
 47
0.0
 48
0.0
 49
0.0
140
0.0
141
0.0
142
1.0
143
1.0
 70
   688
 72
     0
 73
     0
 74
     5
  7

 75
    16
147
1.0
 76
     0
 77
     2
 78
   300
148
0.0
149
0.0
100
AcDbLayout
  1
Layout1
 70
     1
 71
     1
 10
0.0
 20
0.0
 11
12.0
 21
9.0
 12
0.0
 22
0.0
 32
0.0
 14
0.0
 24
0.0
 34
0.0
 15
0.0
 25
0.0
 35
0.0
146
0.0
 13
0.0
 23
0.0
 33
0.0
 16
1.0
 26
0.0
 36
0.0
 17
0.0
 27
1.0
 37
0.0
 76
     0
330
71
  0
LAYOUT
  5
7C
102
{ACAD_REACTORS
330
6A
102
}
330
6A
100
AcDbPlotSettings
  1

  2

  4

  6

 40
0.0
 41
0.0
 42
0.0
 43
0.0
 44
0.0
 45
0.0
 46
0.0
 47
0.0
 48
0.0
 49
0.0
140
0.0
141
0.0
142
1.0
143
1.0
 70
   688
 72
     0
 73
     0
 74
     5
  7

 75
    16
147
1.0
 76
     0
 77
     2
 78
   300
148
0.0
149
0.0
100
AcDbLayout
  1
Layout2
 70
     1
 71
     2
 10
0.0
 20
0.0
 11
12.0
 21
9.0
 12
0.0
 22
0.0
 32
0.0
 14
0.0
 24
0.0
 34
0.0
 15
0.0
 25
0.0
 35
0.0
146
0.0
 13
0.0
 23
0.0
 33
0.0
 16
1.0
 26
0.0
 36
0.0
 17
0.0
 27
1.0
 37
0.0
 76
     0
330
79
  0
LAYOUT
  5
78
102
{ACAD_REACTORS
330
6A
102
}
330
6A
100
AcDbPlotSettings
  1

  2

  4

  6

 40
0.0
 41
0.0
 42
0.0
 43
0.0
 44
0.0
 45
0.0
 46
0.0
 47
0.0
 48
0.0
 49
0.0
140
0.0
141
0.0
142
1.0
143
1.0
 70
  1712
 72
     0
 73
     0
 74
     0
  7

 75
     0
147
1.0
 76
     0
 77
     2
 78
   300
148
0.0
149
0.0
100
AcDbLayout
  1
Model
 70
     1
 71
     0
 10
0.0
 20
0.0
 11
12.0
 21
9.0
 12
0.0
 22
0.0
 32
0.0
 14
0.0
 24
0.0
 34
0.0
 15
0.0
 25
0.0
 35
0.0
146
0.0
 13
0.0
 23
0.0
 33
0.0
 16
1.0
 26
0.0
 36
0.0
 17
0.0
 27
1.0
 37
0.0
 76
     0
330
75
  0
MATERIAL
  5
19
102
{ACAD_XDICTIONARY
360
1A
102
}
102
{ACAD_REACTORS
330
10
102
}
330
10
100
AcDbMaterial
  1
ByBlock
 72
     0
 43
0.0208333333333333
 43
0.0
 43
0.0
 43
0.0
 43
0.0
 43
0.0208333333333333
 43
0.0
 43
0.0
 43
0.0
 43
0.0
 43
1.0
 43
0.0
 43
0.0
 43
0.0
 43
0.0
 43
1.0
 77
     0
 47
0.0208333333333333
 47
0.0
 47
0.0
 47
0.0
 47
0.0
 47
0.0208333333333333
 47
0.0
 47
0.0
 47
0.0
 47
0.0
 47
1.0
 47
0.0
 47
0.0
 47
0.0
 47
0.0
 47
1.0
171
     0
 49
0.0208333333333333
 49
0.0
 49
0.0
 49
0.0
 49
0.0
 49
0.0208333333333333
 49
0.0
 49
0.0
 49
0.0
 49
0.0
 49
1.0
 49
0.0
 49
0.0
 49
0.0
 49
0.0
 49
1.0
175
     0
142
0.0208333333333333
142
0.0
142
0.0
142
0.0
142
0.0
142
0.0208333333333333
142
0.0
142
0.0
142
0.0
142
0.0
142
1.0
142
0.0
142
0.0
142
0.0
142
0.0
142
1.0
179
     0
144
0.0208333333333333
144
0.0
144
0.0
144
0.0
144
0.0
144
0.0208333333333333
144
0.0
144
0.0
144
0.0
144
0.0
144
1.0
144
0.0
144
0.0
144
0.0
144
0.0
144
1.0
147
0.0208333333333333
147
0.0
147
0.0
147
0.0
147
0.0
147
0.0208333333333333
147
0.0
147
0.0
147
0.0
147
0.0
147
1.0
147
0.0
147
0.0
147
0.0
147
0.0
147
1.0
  0
MATERIAL
  5
11
102
{ACAD_XDICTIONARY
360
12
102
}
102
{ACAD_REACTORS
330
10
102
}
330
10
100
AcDbMaterial
  1
ByLayer
 72
     0
 43
0.0208333333333333
 43
0.0
 43
0.0
 43
0.0
 43
0.0
 43
0.0208333333333333
 43
0.0
 43
0.0
 43
0.0
 43
0.0
 43
1.0
 43
0.0
 43
0.0
 43
0.0
 43
0.0
 43
1.0
 77
     0
 47
0.0208333333333333
 47
0.0
 47
0.0
 47
0.0
 47
0.0
 47
0.0208333333333333
 47
0.0
 47
0.0
 47
0.0
 47
0.0
 47
1.0
 47
0.0
 47
0.0
 47
0.0
 47
0.0
 47
1.0
171
     0
 49
0.0208333333333333
 49
0.0
 49
0.0
 49
0.0
 49
0.0
 49
0.0208333333333333
 49
0.0
 49
0.0
 49
0.0
 49
0.0
 49
1.0
 49
0.0
 49
0.0
 49
0.0
 49
0.0
 49
1.0
175
     0
142
0.0208333333333333
142
0.0
142
0.0
142
0.0
142
0.0
142
0.0208333333333333
142
0.0
142
0.0
142
0.0
142
0.0
142
1.0
142
0.0
142
0.0
142
0.0
142
0.0
142
1.0
179
     0
144
0.0208333333333333
144
0.0
144
0.0
144
0.0
144
0.0
144
0.0208333333333333
144
0.0
144
0.0
144
0.0
144
0.0
144
1.0
144
0.0
144
0.0
144
0.0
144
0.0
144
1.0
147
0.0208333333333333
147
0.0
147
0.0
147
0.0
147
0.0
147
0.0208333333333333
147
0.0
147
0.0
147
0.0
147
0.0
147
1.0
147
0.0
147
0.0
147
0.0
147
0.0
147
1.0
  0
MATERIAL
  5
21
102
{ACAD_XDICTIONARY
360
22
102
}
102
{ACAD_REACTORS
330
10
102
}
330
10
100
AcDbMaterial
  1
Global
 72
     0
 43
0.0208333333333333
 43
0.0
 43
0.0
 43
0.0
 43
0.0
 43
0.0208333333333333
 43
0.0
 43
0.0
 43
0.0
 43
0.0
 43
1.0
 43
0.0
 43
0.0
 43
0.0
 43
0.0
 43
1.0
 77
     0
 47
0.0208333333333333
 47
0.0
 47
0.0
 47
0.0
 47
0.0
 47
0.0208333333333333
 47
0.0
 47
0.0
 47
0.0
 47
0.0
 47
1.0
 47
0.0
 47
0.0
 47
0.0
 47
0.0
 47
1.0
171
     0
 49
0.0208333333333333
 49
0.0
 49
0.0
 49
0.0
 49
0.0
 49
0.0208333333333333
 49
0.0
 49
0.0
 49
0.0
 49
0.0
 49
1.0
 49
0.0
 49
0.0
 49
0.0
 49
0.0
 49
1.0
175
     0
142
0.0208333333333333
142
0.0
142
0.0
142
0.0
142
0.0
142
0.0208333333333333
142
0.0
142
0.0
142
0.0
142
0.0
142
1.0
142
0.0
142
0.0
142
0.0
142
0.0
142
1.0
179
     0
144
0.0208333333333333
144
0.0
144
0.0
144
0.0
144
0.0
144
0.0208333333333333
144
0.0
144
0.0
144
0.0
144
0.0
144
1.0
144
0.0
144
0.0
144
0.0
144
0.0
144
1.0
147
0.0208333333333333
147
0.0
147
0.0
147
0.0
147
0.0
147
0.0208333333333333
147
0.0
147
0.0
147
0.0
147
0.0
147
1.0
147
0.0
147
0.0
147
0.0
147
0.0
147
1.0
  0
MLEADERSTYLE
  5
6F
102
{ACAD_REACTORS
330
6E
102
}
330
6E
100
AcDbMLeaderStyle
170
     2
171
     1
172
     0
 90
        2
 40
0.0
 41
0.0
173
     1
 91
-1056964608
340
63
 92
       -2
290
     1
 42
0.09
291
     1
 43
0.36
  3
Standard
 44
0.18
300

342
5D
174
     1
178
     6
175
     1
176
     0
 93
-1056964608
 45
0.18
292
     0
297
     0
 46
0.18
 94
-1056964608
 47
1.0
 49
1.0
140
1.0
293
     1
141
0.0
294
     1
177
     0
142
1.0
295
     0
296
     0
143
0.125
1001
ACAD_MLEADERVER
1070
     2
  0
MLINESTYLE
  5
68
102
{ACAD_REACTORS
330
67
102
}
330
67
100
AcDbMlineStyle
  2
STANDARD
 70
     0
  3

 62
   256
 51
90.0
 52
90.0
 71
     2
 49
0.5
 62
   256
  6
BYLAYER
 49
-0.5
 62
   256
  6
BYLAYER
  0
ACDBPLACEHOLDER
  5
F
102
{ACAD_REACTORS
330
E
102
}
330
E
  0
SCALE
  5
3B
102
{ACAD_REACTORS
330
3A
102
}
330
3A
100
AcDbScale
 70
     0
300
1:1
140
1.0
141
1.0
290
     1
  0
SCALE
  5
3C
102
{ACAD_REACTORS
330
3A
102
}
330
3A
100
AcDbScale
 70
     0
300
1:2
140
1.0
141
2.0
290
     0
  0
SCALE
  5
3D
102
{ACAD_REACTORS
330
3A
102
}
330
3A
100
AcDbScale
 70
     0
300
1:4
140
1.0
141
4.0
290
     0
  0
SCALE
  5
3E
102
{ACAD_REACTORS
330
3A
102
}
330
3A
100
AcDbScale
 70
     0
300
1:5
140
1.0
141
5.0
290
     0
  0
SCALE
  5
3F
102
{ACAD_REACTORS
330
3A
102
}
330
3A
100
AcDbScale
 70
     0
300
1:8
140
1.0
141
8.0
290
     0
  0
SCALE
  5
40
102
{ACAD_REACTORS
330
3A
102
}
330
3A
100
AcDbScale
 70
     0
300
1:10
140
1.0
141
10.0
290
     0
  0
SCALE
  5
41
102
{ACAD_REACTORS
330
3A
102
}
330
3A
100
AcDbScale
 70
     0
300
1:16
140
1.0
141
16.0
290
     0
  0
SCALE
  5
42
102
{ACAD_REACTORS
330
3A
102
}
330
3A
100
AcDbScale
 70
     0
300
1:20
140
1.0
141
20.0
290
     0
  0
SCALE
  5
43
102
{ACAD_REACTORS
330
3A
102
}
330
3A
100
AcDbScale
 70
     0
300
1:30
140
1.0
141
30.0
290
     0
  0
SCALE
  5
44
102
{ACAD_REACTORS
330
3A
102
}
330
3A
100
AcDbScale
 70
     0
300
1:40
140
1.0
141
40.0
290
     0
  0
SCALE
  5
45
102
{ACAD_REACTORS
330
3A
102
}
330
3A
100
AcDbScale
 70
     0
300
1:50
140
1.0
141
50.0
290
     0
  0
SCALE
  5
46
102
{ACAD_REACTORS
330
3A
102
}
330
3A
100
AcDbScale
 70
     0
300
1:100
140
1.0
141
100.0
290
     0
  0
SCALE
  5
47
102
{ACAD_REACTORS
330
3A
102
}
330
3A
100
AcDbScale
 70
     0
300
2:1
140
2.0
141
1.0
290
     0
  0
SCALE
  5
48
102
{ACAD_REACTORS
330
3A
102
}
330
3A
100
AcDbScale
 70
     0
300
4:1
140
4.0
141
1.0
290
     0
  0
SCALE
  5
49
102
{ACAD_REACTORS
330
3A
102
}
330
3A
100
AcDbScale
 70
     0
300
8:1
140
8.0
141
1.0
290
     0
  0
SCALE
  5
4A
102
{ACAD_REACTORS
330
3A
102
}
330
3A
100
AcDbScale
 70
     0
300
10:1
140
10.0
141
1.0
290
     0
  0
SCALE
  5
4B
102
{ACAD_REACTORS
330
3A
102
}
330
3A
100
AcDbScale
 70
     0
300
100:1
140
100.0
141
1.0
290
     0
  0
SCALE
  5
4C
102
{ACAD_REACTORS
330
3A
102
}
330
3A
100
AcDbScale
 70
     0
300
1/128" = 1'-0"
140
0.0078125
141
12.0
290
     0
  0
SCALE
  5
4D
102
{ACAD_REACTORS
330
3A
102
}
330
3A
100
AcDbScale
 70
     0
300
1/64" = 1'-0"
140
0.015625
141
12.0
290
     0
  0
SCALE
  5
4E
102
{ACAD_REACTORS
330
3A
102
}
330
3A
100
AcDbScale
 70
     0
300
1/32" = 1'-0"
140
0.03125
141
12.0
290
     0
  0
SCALE
  5
4F
102
{ACAD_REACTORS
330
3A
102
}
330
3A
100
AcDbScale
 70
     0
300
1/16" = 1'-0"
140
0.0625
141
12.0
290
     0
  0
SCALE
  5
50
102
{ACAD_REACTORS
330
3A
102
}
330
3A
100
AcDbScale
 70
     0
300
3/32" = 1'-0"
140
0.09375
141
12.0
290
     0
  0
SCALE
  5
51
102
{ACAD_REACTORS
330
3A
102
}
330
3A
100
AcDbScale
 70
     0
300
1/8" = 1'-0"
140
0.125
141
12.0
290
     0
  0
SCALE
  5
52
102
{ACAD_REACTORS
330
3A
102
}
330
3A
100
AcDbScale
 70
     0
300
3/16" = 1'-0"
140
0.1875
141
12.0
290
     0
  0
SCALE
  5
53
102
{ACAD_REACTORS
330
3A
102
}
330
3A
100
AcDbScale
 70
     0
300
1/4" = 1'-0"
140
0.25
141
12.0
290
     0
  0
SCALE
  5
54
102
{ACAD_REACTORS
330
3A
102
}
330
3A
100
AcDbScale
 70
     0
300
3/8" = 1'-0"
140
0.375
141
12.0
290
     0
  0
SCALE
  5
55
102
{ACAD_REACTORS
330
3A
102
}
330
3A
100
AcDbScale
 70
     0
300
1/2" = 1'-0"
140
0.5
141
12.0
290
     0
  0
SCALE
  5
56
102
{ACAD_REACTORS
330
3A
102
}
330
3A
100
AcDbScale
 70
     0
300
3/4" = 1'-0"
140
0.75
141
12.0
290
     0
  0
SCALE
  5
57
102
{ACAD_REACTORS
330
3A
102
}
330
3A
100
AcDbScale
 70
     0
300
1" = 1'-0"
140
1.0
141
12.0
290
     0
  0
SCALE
  5
58
102
{ACAD_REACTORS
330
3A
102
}
330
3A
100
AcDbScale
 70
     0
300
1-1/2" = 1'-0"
140
1.5
141
12.0
290
     0
  0
SCALE
  5
59
102
{ACAD_REACTORS
330
3A
102
}
330
3A
100
AcDbScale
 70
     0
300
3" = 1'-0"
140
3.0
141
12.0
290
     0
  0
SCALE
  5
5A
102
{ACAD_REACTORS
330
3A
102
}
330
3A
100
AcDbScale
 70
     0
300
6" = 1'-0"
140
6.0
141
12.0
290
     0
  0
SCALE
  5
5B
102
{ACAD_REACTORS
330
3A
102
}
330
3A
100
AcDbScale
 70
     0
300
1'-0" = 1'-0"
140
12.0
141
12.0
290
     0
  0
TABLESTYLE
  5
6D
102
{ACAD_XDICTIONARY
360
308
102
}
102
{ACAD_REACTORS
330
6C
102
}
330
6C
100
AcDbTableStyle
  3
Standard
 70
     0
 71
     0
 40
0.06
 41
0.06
280
     0
281
     0
  7
Standard
140
0.18
170
     2
 62
     0
 63
     7
283
     0
274
    -2
284
     1
 64
     0
275
    -2
285
     1
 65
     0
276
    -2
286
     1
 66
     0
277
    -2
287
     1
 67
     0
278
    -2
288
     1
 68
     0
279
    -2
289
     1
 69
     0
  7
Standard
140
0.25
170
     5
 62
     0
 63
     7
283
     0
274
    -2
284
     1
 64
     0
275
    -2
285
     1
 65
     0
276
    -2
286
     1
 66
     0
277
    -2
287
     1
 67
     0
278
    -2
288
     1
 68
     0
279
    -2
289
     1
 69
     0
  7
Standard
140
0.18
170
     5
 62
     0
 63
     7
283
     0
274
    -2
284
     1
 64
     0
275
    -2
285
     1
 65
     0
276
    -2
286
     1
 66
     0
277
    -2
287
     1
 67
     0
278
    -2
288
     1
 68
     0
279
    -2
289
     1
 69
     0
  0
VISUALSTYLE
  5
2F
102
{ACAD_REACTORS
330
29
102
}
330
29
100
AcDbVisualStyle
  2
2dWireframe
 70
     4
 71
     0
 72
     2
 73
     0
 90
        0
 40
-0.6
 41
-30.0
 62
     5
 63
     7
421
 16777215
 74
     1
 91
        4
 64
     7
 65
   257
 75
     1
175
     1
 42
1.0
 92
        0
 66
   257
 43
1.0
 76
     1
 77
     6
 78
     2
 67
     7
 79
     5
170
     0
171
     0
290
     0
174
     0
 93
        1
 44
0.0
173
     0
291
     0
 45
0.0
1001
ACAD
1000
AcDbSavedByObjectVersion
1070
     0
  0
VISUALSTYLE
  5
31
102
{ACAD_REACTORS
330
29
102
}
330
29
100
AcDbVisualStyle
  2
3D Hidden
 70
     6
 71
     1
 72
     2
 73
     2
 90
        0
 40
-0.6
 41
-30.0
 62
     5
 63
     7
421
 16777215
 74
     2
 91
        2
 64
     7
 65
   257
 75
     2
175
     1
 42
40.0
 92
        0
 66
   257
 43
1.0
 76
     1
 77
     6
 78
     2
 67
     7
 79
     3
170
     0
171
     0
290
     0
174
     0
 93
        1
 44
0.0
173
     0
291
     0
 45
0.0
1001
ACAD
1000
AcDbSavedByObjectVersion
1070
     0
  0
VISUALSTYLE
  5
30
102
{ACAD_REACTORS
330
29
102
}
330
29
100
AcDbVisualStyle
  2
3dWireframe
 70
     5
 71
     0
 72
     2
 73
     0
 90
        0
 40
-0.6
 41
-30.0
 62
     5
 63
     7
421
 16777215
 74
     1
 91
        4
 64
     7
 65
   257
 75
     1
175
     1
 42
1.0
 92
        0
 66
   257
 43
1.0
 76
     1
 77
     6
 78
     2
 67
     7
 79
     5
170
     0
171
     0
290
     0
174
     0
 93
        1
 44
0.0
173
     0
291
     0
 45
0.0
1001
ACAD
1000
AcDbSavedByObjectVersion
1070
     0
  0
VISUALSTYLE
  5
2E
102
{ACAD_REACTORS
330
29
102
}
330
29
100
AcDbVisualStyle
  2
Basic
 70
     7
 71
     1
 72
     0
 73
     1
 90
        0
 40
-0.6
 41
-30.0
 62
     5
 63
     7
421
 16777215
 74
     0
 91
        4
 64
     7
 65
   257
 75
     1
175
     1
 42
1.0
 92
        8
 66
     7
 43
1.0
 76
     1
 77
     6
 78
     2
 67
     7
 79
     5
170
     0
171
     0
290
     0
174
     0
 93
        1
 44
0.0
173
     0
291
     1
 45
0.0
1001
ACAD
1000
AcDbSavedByObjectVersion
1070
     0
  0
VISUALSTYLE
  5
35
102
{ACAD_REACTORS
330
29
102
}
330
29
100
AcDbVisualStyle
  2
Brighten
 70
    12
 71
     2
 72
     2
 73
     0
 90
        0
 40
-0.6
 41
-30.0
 62
     5
 63
     7
421
 16777215
 74
     1
 91
        4
 64
     7
 65
   257
 75
     1
175
     1
 42
1.0
 92
        8
 66
     7
 43
1.0
 76
     1
 77
     6
 78
     2
 67
     7
 79
     5
170
     0
171
     0
290
     0
174
     0
 93
        1
 44
50.0
173
     0
291
     1
 45
0.0
1001
ACAD
1000
AcDbSavedByObjectVersion
1070
     0
  0
VISUALSTYLE
  5
39
102
{ACAD_REACTORS
330
29
102
}
330
29
100
AcDbVisualStyle
  2
ColorChange
 70
    16
 71
     2
 72
     2
 73
     3
 90
        0
 40
-0.6
 41
-30.0
 62
     5
 63
     8
421
  8421504
 74
     1
 91
        4
 64
     7
 65
   257
 75
     1
175
     1
 42
1.0
 92
        8
 66
     8
424
  8421504
 43
1.0
 76
     1
 77
     6
 78
     2
 67
     7
 79
     5
170
     0
171
     0
290
     0
174
     0
 93
        1
 44
0.0
173
     0
291
     1
 45
0.0
1001
ACAD
1000
AcDbSavedByObjectVersion
1070
     0
  0
VISUALSTYLE
  5
32
102
{ACAD_REACTORS
330
29
102
}
330
29
100
AcDbVisualStyle
  2
Conceptual
 70
     9
 71
     3
 72
     2
 73
     0
 90
        0
 40
-0.6
 41
-30.0
 62
     5
 63
     7
421
 16777215
 74
     2
 91
        2
 64
     7
 65
   257
 75
     1
175
     1
 42
40.0
 92
        8
 66
     7
 43
1.0
 76
     1
 77
     6
 78
     2
 67
     7
 79
     3
170
     0
171
     0
290
     0
174
     0
 93
        1
 44
0.0
173
     0
291
     0
 45
0.0
1001
ACAD
1000
AcDbSavedByObjectVersion
1070
     0
  0
VISUALSTYLE
  5
34
102
{ACAD_REACTORS
330
29
102
}
330
29
100
AcDbVisualStyle
  2
Dim
 70
    11
 71
     2
 72
     2
 73
     0
 90
        0
 40
-0.6
 41
-30.0
 62
     5
 63
     7
421
 16777215
 74
     1
 91
        4
 64
     7
 65
   257
 75
     1
175
     1
 42
1.0
 92
        8
 66
     7
 43
1.0
 76
     1
 77
     6
 78
     2
 67
     7
 79
     5
170
     0
171
     0
290
     0
174
     0
 93
        1
 44
-50.0
173
     0
291
     1
 45
0.0
1001
ACAD
1000
AcDbSavedByObjectVersion
1070
     0
  0
VISUALSTYLE
  5
38
102
{ACAD_REACTORS
330
29
102
}
330
29
100
AcDbVisualStyle
  2
Facepattern
 70
    15
 71
     2
 72
     2
 73
     0
 90
        0
 40
-0.6
 41
-30.0
 62
     5
 63
     7
421
 16777215
 74
     1
 91
        4
 64
     7
 65
   257
 75
     1
175
     1
 42
1.0
 92
        8
 66
     7
 43
1.0
 76
     1
 77
     6
 78
     2
 67
     7
 79
     5
170
     0
171
     0
290
     0
174
     0
 93
        1
 44
0.0
173
     0
291
     1
 45
0.0
1001
ACAD
1000
AcDbSavedByObjectVersion
1070
     0
  0
VISUALSTYLE
  5
2A
102
{ACAD_REACTORS
330
29
102
}
330
29
100
AcDbVisualStyle
  2
Flat
 70
     0
 71
     2
 72
     1
 73
     1
 90
        2
 40
-0.6
 41
30.0
 62
     5
 63
     7
421
 16777215
 74
     0
 91
        4
 64
     7
 65
   257
 75
     1
175
     1
 42
1.0
 92
        8
 66
     7
 43
1.0
 76
     1
 77
     6
 78
     2
 67
     7
 79
     5
170
     0
171
     0
290
     0
174
     0
 93
       13
 44
0.0
173
     0
291
     1
 45
0.0
1001
ACAD
1000
AcDbSavedByObjectVersion
1070
     0
  0
VISUALSTYLE
  5
2B
102
{ACAD_REACTORS
330
29
102
}
330
29
100
AcDbVisualStyle
  2
FlatWithEdges
 70
     1
 71
     2
 72
     1
 73
     1
 90
        2
 40
-0.6
 41
30.0
 62
     5
 63
     7
421
 16777215
 74
     1
 91
        4
 64
     7
 65
   257
 75
     1
175
     1
 42
1.0
 92
        0
 66
   257
 43
1.0
 76
     1
 77
     6
 78
     2
 67
     7
 79
     5
170
     0
171
     0
290
     0
174
     0
 93
       13
 44
0.0
173
     0
291
     1
 45
0.0
1001
ACAD
1000
AcDbSavedByObjectVersion
1070
     0
  0
VISUALSTYLE
  5
2C
102
{ACAD_REACTORS
330
29
102
}
330
29
100
AcDbVisualStyle
  2
Gouraud
 70
     2
 71
     2
 72
     2
 73
     1
 90
        2
 40
-0.6
 41
30.0
 62
     5
 63
     7
421
 16777215
 74
     0
 91
        4
 64
     7
 65
   257
 75
     1
175
     1
 42
1.0
 92
        0
 66
     7
 43
1.0
 76
     1
 77
     6
 78
     2
 67
     7
 79
     5
170
     0
171
     0
290
     0
174
     0
 93
       13
 44
0.0
173
     0
291
     1
 45
0.0
1001
ACAD
1000
AcDbSavedByObjectVersion
1070
     0
  0
VISUALSTYLE
  5
2D
102
{ACAD_REACTORS
330
29
102
}
330
29
100
AcDbVisualStyle
  2
GouraudWithEdges
 70
     3
 71
     2
 72
     2
 73
     1
 90
        2
 40
-0.6
 41
30.0
 62
     5
 63
     7
421
 16777215
 74
     1
 91
        4
 64
     7
 65
   257
 75
     1
175
     1
 42
1.0
 92
        0
 66
   257
 43
1.0
 76
     1
 77
     6
 78
     2
 67
     7
 79
     5
170
     0
171
     0
290
     0
174
     0
 93
       13
 44
0.0
173
     0
291
     1
 45
0.0
1001
ACAD
1000
AcDbSavedByObjectVersion
1070
     0
  0
VISUALSTYLE
  5
37
102
{ACAD_REACTORS
330
29
102
}
330
29
100
AcDbVisualStyle
  2
Linepattern
 70
    14
 71
     2
 72
     2
 73
     0
 90
        0
 40
-0.6
 41
-30.0
 62
     5
 63
     7
421
 16777215
 74
     1
 91
        4
 64
     7
 65
   257
 75
     7
175
     7
 42
1.0
 92
        8
 66
     7
 43
1.0
 76
     1
 77
     6
 78
     2
 67
     7
 79
     5
170
     0
171
     0
290
     0
174
     0
 93
        1
 44
0.0
173
     0
291
     1
 45
0.0
1001
ACAD
1000
AcDbSavedByObjectVersion
1070
     0
  0
VISUALSTYLE
  5
33
102
{ACAD_REACTORS
330
29
102
}
330
29
100
AcDbVisualStyle
  2
Realistic
 70
     8
 71
     2
 72
     2
 73
     0
 90
        0
 40
-0.6
 41
-30.0
 62
     5
 63
     7
421
 16777215
 74
     1
 91
        0
 64
     7
 65
   257
 75
     1
175
     1
 42
1.0
 92
        8
 66
     8
424
  7895160
 43
1.0
 76
     1
 77
     6
 78
     2
 67
     7
 79
     5
170
     0
171
     0
290
     0
174
     0
 93
       13
 44
0.0
173
     0
291
     0
 45
0.0
1001
ACAD
1000
AcDbSavedByObjectVersion
1070
     0
  0
VISUALSTYLE
  5
36
102
{ACAD_REACTORS
330
29
102
}
330
29
100
AcDbVisualStyle
  2
Thicken
 70
    13
 71
     2
 72
     2
 73
     0
 90
        0
 40
-0.6
 41
-30.0
 62
     5
 63
     7
421
 16777215
 74
     1
 91
        4
 64
     7
 65
   257
 75
     1
175
     1
 42
1.0
 92
       12
 66
     7
 43
1.0
 76
     1
 77
     6
 78
     2
 67
     7
 79
     5
170
     0
171
     0
290
     0
174
     0
 93
        1
 44
0.0
173
     0
291
     1
 45
0.0
1001
ACAD
1000
AcDbSavedByObjectVersion
1070
     0
  0
DICTIONARYVAR
  5
306
102
{ACAD_REACTORS
330
302
102
}
330
302
100
DictionaryVariables
280
     0
  1
1:1
  0
DICTIONARYVAR
  5
304
102
{ACAD_REACTORS
330
302
102
}
330
302
100
DictionaryVariables
280
     0
  1
STANDARD
  0
DICTIONARYVAR
  5
303
102
{ACAD_REACTORS
330
302
102
}
330
302
100
DictionaryVariables
280
     0
  1
STANDARD
  0
DICTIONARYVAR
  5
307
102
{ACAD_REACTORS
330
302
102
}
330
302
100
DictionaryVariables
280
     0
  1
2
  0
DICTIONARYVAR
  5
305
102
{ACAD_REACTORS
330
302
102
}
330
302
100
DictionaryVariables
280
     0
  1
1
  0
DICTIONARY
  5
1A
330
19
100
AcDbDictionary
280
     1
281
     1
  3
ACAD_XREC_ROUNDTRIP
360
30C
  3
BUMPTILE
360
1C
  3
DIFFUSETILE
360
1B
  3
OPACITYTILE
360
1F
  3
REFLECTIONTILE
360
1E
  3
REFRACTIONTILE
360
20
  3
SPECULARTILE
360
1D
  0
DICTIONARY
  5
12
330
11
100
AcDbDictionary
280
     1
281
     1
  3
ACAD_XREC_ROUNDTRIP
360
30B
  3
BUMPTILE
360
14
  3
DIFFUSETILE
360
13
  3
OPACITYTILE
360
17
  3
REFLECTIONTILE
360
16
  3
REFRACTIONTILE
360
18
  3
SPECULARTILE
360
15
  0
DICTIONARY
  5
22
330
21
100
AcDbDictionary
280
     1
281
     1
  3
ACAD_XREC_ROUNDTRIP
360
30D
  3
BUMPTILE
360
24
  3
DIFFUSETILE
360
23
  3
OPACITYTILE
360
27
  3
REFLECTIONTILE
360
26
  3
REFRACTIONTILE
360
28
  3
SPECULARTILE
360
25
  0
DICTIONARY
  5
308
330
6D
100
AcDbDictionary
280
     1
281
     1
  3
ACAD_ROUNDTRIP_2008_TABLESTYLE_CELLSTYLEMAP
360
309
  3
ACAD_XREC_ROUNDTRIP
360
30E
  0
XRECORD
  5
30C
102
{ACAD_REACTORS
330
1A
102
}
330
1A
100
AcDbXrecord
280
     1
102
MATERIAL
148
0.0
149
0.0
149
0.0
 93
        0
 94
      127
282
     0
 72
     0
 77
     0
171
     0
175
     0
179
     0
273
     0
  0
XRECORD
  5
1C
102
{ACAD_REACTORS
330
1A
102
}
330
1A
100
AcDbXrecord
280
     1
270
     1
271
     1
  0
XRECORD
  5
1B
102
{ACAD_REACTORS
330
1A
102
}
330
1A
100
AcDbXrecord
280
     1
270
     1
271
     1
  0
XRECORD
  5
1F
102
{ACAD_REACTORS
330
1A
102
}
330
1A
100
AcDbXrecord
280
     1
270
     1
271
     1
  0
XRECORD
  5
1E
102
{ACAD_REACTORS
330
1A
102
}
330
1A
100
AcDbXrecord
280
     1
270
     1
271
     1
  0
XRECORD
  5
20
102
{ACAD_REACTORS
330
1A
102
}
330
1A
100
AcDbXrecord
280
     1
270
     1
271
     1
  0
XRECORD
  5
1D
102
{ACAD_REACTORS
330
1A
102
}
330
1A
100
AcDbXrecord
280
     1
270
     1
271
     1
  0
XRECORD
  5
30B
102
{ACAD_REACTORS
330
12
102
}
330
12
100
AcDbXrecord
280
     1
102
MATERIAL
148
0.0
149
0.0
149
0.0
 93
        0
 94
      127
282
     0
 72
     0
 77
     0
171
     0
175
     0
179
     0
273
     0
  0
XRECORD
  5
14
102
{ACAD_REACTORS
330
12
102
}
330
12
100
AcDbXrecord
280
     1
270
     1
271
     1
  0
XRECORD
  5
13
102
{ACAD_REACTORS
330
12
102
}
330
12
100
AcDbXrecord
280
     1
270
     1
271
     1
  0
XRECORD
  5
17
102
{ACAD_REACTORS
330
12
102
}
330
12
100
AcDbXrecord
280
     1
270
     1
271
     1
  0
XRECORD
  5
16
102
{ACAD_REACTORS
330
12
102
}
330
12
100
AcDbXrecord
280
     1
270
     1
271
     1
  0
XRECORD
  5
18
102
{ACAD_REACTORS
330
12
102
}
330
12
100
AcDbXrecord
280
     1
270
     1
271
     1
  0
XRECORD
  5
15
102
{ACAD_REACTORS
330
12
102
}
330
12
100
AcDbXrecord
280
     1
270
     1
271
     1
  0
XRECORD
  5
30D
102
{ACAD_REACTORS
330
22
102
}
330
22
100
AcDbXrecord
280
     1
102
MATERIAL
148
0.0
149
0.0
149
0.0
 93
        0
 94
      127
282
     0
 72
     0
 77
     0
171
     0
175
     0
179
     0
273
     0
  0
XRECORD
  5
24
102
{ACAD_REACTORS
330
22
102
}
330
22
100
AcDbXrecord
280
     1
270
     1
271
     1
  0
XRECORD
  5
23
102
{ACAD_REACTORS
330
22
102
}
330
22
100
AcDbXrecord
280
     1
270
     1
271
     1
  0
XRECORD
  5
27
102
{ACAD_REACTORS
330
22
102
}
330
22
100
AcDbXrecord
280
     1
270
     1
271
     1
  0
XRECORD
  5
26
102
{ACAD_REACTORS
330
22
102
}
330
22
100
AcDbXrecord
280
     1
270
     1
271
     1
  0
XRECORD
  5
28
102
{ACAD_REACTORS
330
22
102
}
330
22
100
AcDbXrecord
280
     1
270
     1
271
     1
  0
XRECORD
  5
25
102
{ACAD_REACTORS
330
22
102
}
330
22
100
AcDbXrecord
280
     1
270
     1
271
     1
  0
CELLSTYLEMAP
  5
309
102
{ACAD_REACTORS
330
308
102
}
330
308
100
AcDbCellStyleMap
 90
        3
300
CELLSTYLE
  1
TABLEFORMAT_BEGIN
 90
        5
170
     1
 91
        0
 92
    32768
 62
   257
 93
        1
300
CONTENTFORMAT
  1
CONTENTFORMAT_BEGIN
 90
        0
 91
        0
 92
      512
 93
        0
300

 40
0.0
140
1.0
 94
        5
 62
     0
340
5D
144
0.25
309
CONTENTFORMAT_END
171
     0
 94
        0
309
TABLEFORMAT_END
  1
CELLSTYLE_BEGIN
 90
        1
 91
        1
300
_TITLE
309
CELLSTYLE_END
300
CELLSTYLE
  1
TABLEFORMAT_BEGIN
 90
        5
170
     1
 91
        0
 92
        0
 62
   257
 93
        1
300
CONTENTFORMAT
  1
CONTENTFORMAT_BEGIN
 90
        0
 91
        0
 92
      512
 93
        0
300

 40
0.0
140
1.0
 94
        5
 62
     0
340
5D
144
0.18
309
CONTENTFORMAT_END
171
     0
 94
        0
309
TABLEFORMAT_END
  1
CELLSTYLE_BEGIN
 90
        2
 91
        1
300
_HEADER
309
CELLSTYLE_END
300
CELLSTYLE
  1
TABLEFORMAT_BEGIN
 90
        5
170
     1
 91
        0
 92
        0
 62
   257
 93
        1
300
CONTENTFORMAT
  1
CONTENTFORMAT_BEGIN
 90
        0
 91
        0
 92
      512
 93
        0
300

 40
0.0
140
1.0
 94
        2
 62
     0
340
5D
144
0.18
309
CONTENTFORMAT_END
171
     0
 94
        0
309
TABLEFORMAT_END
  1
CELLSTYLE_BEGIN
 90
        3
 91
        2
300
_DATA
309
CELLSTYLE_END
  0
XRECORD
  5
30E
102
{ACAD_REACTORS
330
308
102
}
330
308
100
AcDbXrecord
280
     1
102
ACAD_ROUNDTRIP_PRE2007_TABLESTYLE
 90
      512
 91
        0
  1

 92
      512
 93
        0
  2

 94
      512
 95
        0
  3

  0
ENDSEC
  0
EOF
