  0
SECTION
  2
HEADER
  9
$ACADVER
  1
AC1018
  9
$ACADMAINTVER
 70
   104
  9
$DWGCODEPAGE
  3
ANSI_1252
  9
$LASTSAVEDBY
  1
ibasyouni
  9
$INSBASE
 10
0.0
 20
0.0
 30
0.0
  9
$EXTMIN
 10
26.04675645246925
 20
116.1163345399736
 30
-0.0015258207003583
  9
$EXTMAX
 10
1469.604495644574
 20
578.8238539113942
 30
0.0000000349246037
  9
$LIMMIN
 10
0.0
 20
0.0
  9
$LIMMAX
 10
1500.0
 20
600.0
  9
$ORTHOMODE
 70
     1
  9
$REGENMODE
 70
     1
  9
$FILLMODE
 70
     1
  9
$QTEXTMODE
 70
     0
  9
$MIRRTEXT
 70
     1
  9
$LTSCALE
 40
1.0
  9
$ATTMODE
 70
     1
  9
$TEXTSIZE
 40
20.0
  9
$TRACEWID
 40
1.0
  9
$TEXTSTYLE
  7
STANDARD
  9
$CLAYER
  8
0
  9
$CELTYPE
  6
BYLAYER
  9
$CECOLOR
 62
   256
  9
$CELTSCALE
 40
10.0
  9
$DISPSILH
 70
     0
  9
$DIMSCALE
 40
1.0
  9
$DIMASZ
 40
2.5
  9
$DIMEXO
 40
1.0
  9
$DIMDLI
 40
10.0
  9
$DIMRND
 40
0.0
  9
$DIMDLE
 40
0.0
  9
$DIMEXE
 40
1.0
  9
$DIMTP
 40
0.1
  9
$DIMTM
 40
0.1
  9
$DIMTXT
 40
3.5
  9
$DIMCEN
 40
0.0
  9
$DIMTSZ
 40
0.0
  9
$DIMTOL
 70
     0
  9
$DIMLIM
 70
     0
  9
$DIMTIH
 70
     0
  9
$DIMTOH
 70
     0
  9
$DIMSE1
 70
     0
  9
$DIMSE2
 70
     0
  9
$DIMTAD
 70
     1
  9
$DIMZIN
 70
     8
  9
$DIMBLK
  1

  9
$DIMASO
 70
     1
  9
$DIMSHO
 70
     1
  9
$DIMPOST
  1

  9
$DIMAPOST
  1
"
  9
$DIMALT
 70
     0
  9
$DIMALTD
 70
     2
  9
$DIMALTF
 40
0.0393701
  9
$DIMLFAC
 40
1.0
  9
$DIMTOFL
 70
     1
  9
$DIMTVP
 40
0.0
  9
$DIMTIX
 70
     0
  9
$DIMSOXD
 70
     0
  9
$DIMSAH
 70
     0
  9
$DIMBLK1
  1

  9
$DIMBLK2
  1

  9
$DIMSTYLE
  2
AM_DIN
  9
$DIMCLRD
 70
   256
  9
$DIMCLRE
 70
   256
  9
$DIMCLRT
 70
     2
  9
$DIMTFAC
 40
0.71
  9
$DIMGAP
 40
1.5
  9
$DIMJUST
 70
     0
  9
$DIMSD1
 70
     0
  9
$DIMSD2
 70
     0
  9
$DIMTOLJ
 70
     0
  9
$DIMTZIN
 70
     8
  9
$DIMALTZ
 70
     0
  9
$DIMALTTZ
 70
     0
  9
$DIMUPT
 70
     0
  9
$DIMDEC
 70
     2
  9
$DIMTDEC
 70
     3
  9
$DIMALTU
 70
     2
  9
$DIMALTTD
 70
     4
  9
$DIMTXSTY
  7
STANDARD
  9
$DIMAUNIT
 70
     0
  9
$DIMADEC
 70
     0
  9
$DIMALTRND
 40
0.0
  9
$DIMAZIN
 70
     2
  9
$DIMDSEP
 70
    46
  9
$DIMATFIT
 70
     3
  9
$DIMFRAC
 70
     0
  9
$DIMLDRBLK
  1

  9
$DIMLUNIT
 70
     2
  9
$DIMLWD
 70
    -1
  9
$DIMLWE
 70
    -1
  9
$DIMTMOVE
 70
     0
  9
$LUNITS
 70
     2
  9
$LUPREC
 70
     2
  9
$SKETCHINC
 40
1.0
  9
$FILLETRAD
 40
2.5
  9
$AUNITS
 70
     0
  9
$AUPREC
 70
     0
  9
$MENU
  1
.
  9
$ELEVATION
 40
0.0
  9
$PELEVATION
 40
0.0
  9
$THICKNESS
 40
0.0
  9
$LIMCHECK
 70
     0
  9
$CHAMFERA
 40
2.5
  9
$CHAMFERB
 40
2.5
  9
$CHAMFERC
 40
0.0
  9
$CHAMFERD
 40
0.0
  9
$SKPOLY
 70
     0
  9
$TDCREATE
 40
2450382.432057130
  9
$TDUCREATE
 40
2450382.348723796
  9
$TDUPDATE
 40
2455748.645298750
  9
$TDUUPDATE
 40
2455748.561965417
  9
$TDINDWG
 40
0.2922638889
  9
$TDUSRTIMER
 40
0.2922638889
  9
$USRTIMER
 70
     1
  9
$ANGBASE
 50
0.0
  9
$ANGDIR
 70
     0
  9
$PDMODE
 70
     0
  9
$PDSIZE
 40
0.0
  9
$PLINEWID
 40
0.0
  9
$SPLFRAME
 70
     0
  9
$SPLINETYPE
 70
     6
  9
$SPLINESEGS
 70
     8
  9
$HANDSEED
  5
4D81
  9
$SURFTAB1
 70
     6
  9
$SURFTAB2
 70
     6
  9
$SURFTYPE
 70
     6
  9
$SURFU
 70
     6
  9
$SURFV
 70
     6
  9
$UCSBASE
  2

  9
$UCSNAME
  2

  9
$UCSORG
 10
0.0
 20
0.0
 30
0.0
  9
$UCSXDIR
 10
1.0
 20
0.0
 30
0.0
  9
$UCSYDIR
 10
0.0
 20
1.0
 30
0.0
  9
$UCSORTHOREF
  2

  9
$UCSORTHOVIEW
 70
     0
  9
$UCSORGTOP
 10
0.0
 20
0.0
 30
0.0
  9
$UCSORGBOTTOM
 10
0.0
 20
0.0
 30
0.0
  9
$UCSORGLEFT
 10
0.0
 20
0.0
 30
0.0
  9
$UCSORGRIGHT
 10
0.0
 20
0.0
 30
0.0
  9
$UCSORGFRONT
 10
0.0
 20
0.0
 30
0.0
  9
$UCSORGBACK
 10
0.0
 20
0.0
 30
0.0
  9
$PUCSBASE
  2

  9
$PUCSNAME
  2

  9
$PUCSORG
 10
0.0
 20
0.0
 30
0.0
  9
$PUCSXDIR
 10
1.0
 20
0.0
 30
0.0
  9
$PUCSYDIR
 10
0.0
 20
1.0
 30
0.0
  9
$PUCSORTHOREF
  2

  9
$PUCSORTHOVIEW
 70
     0
  9
$PUCSORGTOP
 10
0.0
 20
0.0
 30
0.0
  9
$PUCSORGBOTTOM
 10
0.0
 20
0.0
 30
0.0
  9
$PUCSORGLEFT
 10
0.0
 20
0.0
 30
0.0
  9
$PUCSORGRIGHT
 10
0.0
 20
0.0
 30
0.0
  9
$PUCSORGFRONT
 10
0.0
 20
0.0
 30
0.0
  9
$PUCSORGBACK
 10
0.0
 20
0.0
 30
0.0
  9
$USERI1
 70
     0
  9
$USERI2
 70
     0
  9
$USERI3
 70
     0
  9
$USERI4
 70
     0
  9
$USERI5
 70
     0
  9
$USERR1
 40
0.0
  9
$USERR2
 40
0.0
  9
$USERR3
 40
0.0
  9
$USERR4
 40
0.0
  9
$USERR5
 40
0.0
  9
$WORLDVIEW
 70
     1
  9
$SHADEDGE
 70
     3
  9
$SHADEDIF
 70
    70
  9
$TILEMODE
 70
     1
  9
$MAXACTVP
 70
    16
  9
$PINSBASE
 10
0.0
 20
0.0
 30
0.0
  9
$PLIMCHECK
 70
     0
  9
$PEXTMIN
 10
1.000000000000000E+20
 20
1.000000000000000E+20
 30
1.000000000000000E+20
  9
$PEXTMAX
 10
-1.000000000000000E+20
 20
-1.000000000000000E+20
 30
-1.000000000000000E+20
  9
$PLIMMIN
 10
0.0
 20
0.0
  9
$PLIMMAX
 10
420.0
 20
297.0
  9
$UNITMODE
 70
     0
  9
$VISRETAIN
 70
     0
  9
$PLINEGEN
 70
     0
  9
$PSLTSCALE
 70
     0
  9
$TREEDEPTH
 70
  3020
  9
$CMLSTYLE
  2
STANDARD
  9
$CMLJUST
 70
     0
  9
$CMLSCALE
 40
1.0
  9
$PROXYGRAPHICS
 70
     1
  9
$MEASUREMENT
 70
     1
  9
$CELWEIGHT
370
    -1
  9
$ENDCAPS
280
     0
  9
$JOINSTYLE
280
     0
  9
$LWDISPLAY
290
     0
  9
$INSUNITS
 70
     4
  9
$HYPERLINKBASE
  1

  9
$STYLESHEET
  1
Zeich.ctb
  9
$XEDIT
290
     1
  9
$CEPSNTYPE
380
     0
  9
$PSTYLEMODE
290
     1
  9
$FINGERPRINTGUID
  2
{325BFBD5-B27C-480F-A6FD-52B59258B312}
  9
$VERSIONGUID
  2
{5EBD3F99-150C-43F6-86ED-5F01EEB33487}
  9
$EXTNAMES
290
     1
  9
$PSVPSCALE
 40
0.0
  9
$OLESTARTUP
290
     0
  9
$SORTENTS
280
   127
  9
$INDEXCTL
280
     0
  9
$HIDETEXT
280
     0
  9
$XCLIPFRAME
290
     0
  9
$HALOGAP
280
     0
  9
$OBSCOLOR
 70
   257
  9
$OBSLTYPE
280
     0
  9
$INTERSECTIONDISPLAY
280
     0
  9
$INTERSECTIONCOLOR
 70
   257
  9
$DIMASSOC
280
     1
  9
$PROJECTNAME
  1

  0
ENDSEC
  0
SECTION
  2
CLASSES
  0
CLASS
  1
ACMESTATEMGR
  2
AcMeStateMgr
  3
AcMeServices
 90
     1024
 91
        1
280
     0
281
     0
  0
CLASS
  1
ACMESCOPE
  2
AcMeScope
  3
AcMeServices
 90
     1024
 91
        1
280
     0
281
     0
  0
CLASS
  1
ACMECOMMANDHISTORY
  2
AcMeCommandHistory
  3
AcMeServices
 90
     1024
 91
        1
280
     0
281
     0
  0
CLASS
  1
ACRFINSADJUSTERMGR
  2
AcRfInsAdjusterMgr
  3
AcMeServices
 90
     1024
 91
        1
280
     0
281
     0
  0
CLASS
  1
ACMEDRAWINGMAN
  2
AcMeDrawingMan
  3
AcMeServices
 90
     1024
 91
        1
280
     0
281
     0
  0
CLASS
  1
AMATTR
  2
AcMeAttribute
  3
AcMeServices
 90
     1024
 91
        0
280
     0
281
     0
  0
CLASS
  1
ACMEBOMCOLUMN
  2
AcMeBOMColumn
  3
AcMeServices
 90
     1024
 91
        0
280
     0
281
     0
  0
CLASS
  1
ACMEBOMCONF
  2
AcMeBOMConf
  3
AcMeServices
 90
     1024
 91
        0
280
     0
281
     0
  0
CLASS
  1
ACMEBOMTABLE
  2
AcMeBOMTable
  3
AcMeServices
 90
     1024
 91
        0
280
     0
281
     0
  0
CLASS
  1
ACMEBOMENTRY
  2
AcMeBOMEntry
  3
AcMeServices
 90
     1024
 91
        0
280
     0
281
     0
  0
CLASS
  1
ACMEVIEW
  2
AcMeView
  3
AcMeServices
 90
     1024
 91
        0
280
     0
281
     0
  0
CLASS
  1
DICTIONARYVAR
  2
AcDbDictionaryVar
  3
ObjectDBX Classes
 90
        0
 91
       48
280
     0
281
     0
  0
CLASS
  1
LAYER_INDEX
  2
AcDbLayerIndex
  3
ObjectDBX Classes
 90
        0
 91
        0
280
     0
281
     0
  0
CLASS
  1
IDBUFFER
  2
AcDbIdBuffer
  3
ObjectDBX Classes
 90
        0
 91
        0
280
     0
281
     0
  0
CLASS
  1
ACDBDICTIONARYWDFLT
  2
AcDbDictionaryWithDefault
  3
ObjectDBX Classes
 90
        0
 91
        1
280
     0
281
     0
  0
CLASS
  1
ACME_DOCUMENT
  2
AcMeDbDoc
  3
AcMeServices
 90
     1024
 91
        2
280
     0
281
     0
  0
CLASS
  1
AMGSETTINGSOBJ
  2
AmgSettingsObj
  3
"AcadM|Product Description: AutoCAD Mechanical|Company: Autodesk, Inc."
 90
     1024
 91
        4
280
     0
281
     0
  0
CLASS
  1
ACIMSYSVARMAN
  2
AcImSysVarManager
  3
AcMeServices
 90
     1024
 91
        5
280
     0
281
     0
  0
CLASS
  1
ACIMINTSYSVAR
  2
AcImIntSysVar
  3
AcMeServices
 90
     1024
 91
       27
280
     0
281
     0
  0
CLASS
  1
ACDBENTITYCACHE
  2
AcMeEntityCache
  3
AcMeServices
 90
     1024
 91
        1
280
     0
281
     0
  0
CLASS
  1
GSMANAGER
  2
AcMeGSManager
  3
AcMeServices
 90
     1024
 91
        1
280
     0
281
     0
  0
CLASS
  1
AMDTINTERNALREACTOR
  2
AmdtInternalReactor
  3
AcMeServices
 90
     1024
 91
        2
280
     0
281
     0
  0
CLASS
  1
ACGREFMASTER
  2
AcGrefMaster
  3
AcAttribServices
 90
     1024
 91
        1
280
     0
281
     0
  0
CLASS
  1
AM_DRAWING_MGR
  2
AcDmDwgMgr
  3
AcMechDwgViewMgmt
 90
     1024
 91
        1
280
     0
281
     0
  0
CLASS
  1
AM_DWG_DOCUMENT
  2
AcDmDwgDocument
  3
AcMechDwgViewMgmt
 90
     1024
 91
        1
280
     0
281
     0
  0
CLASS
  1
AM_DWG_SHEET
  2
AcDmSheet
  3
AcMechDwgViewMgmt
 90
     1024
 91
        1
280
     0
281
     0
  0
CLASS
  1
AM_VIEWDIMPARMAP
  2
AcDmViewDimParMap
  3
AcMechDwgViewMgmt
 90
     1024
 91
        1
280
     0
281
     0
  0
CLASS
  1
ACIMREALSYSVAR
  2
AcImRealSysVar
  3
AcMeServices
 90
     1024
 91
        1
280
     0
281
     0
  0
CLASS
  1
AM_DWGMGR_NAME
  2
AcDmDwgMgrName
  3
AcMechDwgViewMgmt
 90
     1024
 91
        1
280
     0
281
     0
  0
CLASS
  1
ACME_DATABASE
  2
AcMeDbDatabase
  3
AcMeServices
 90
     1024
 91
        2
280
     0
281
     0
  0
CLASS
  1
ACGREFACADMASTER
  2
AcGrefacadMaster
  3
AcGrefServices
 90
     1024
 91
        1
280
     0
281
     0
  0
CLASS
  1
AMDTMENUSTATEMGR
  2
AmdtMenuStateMgr
  3
McadcomServices
 90
     1024
 91
        1
280
     0
281
     0
  0
CLASS
  1
AMDTMCOMMENUSTATE
  2
AmdtMcomMenuState
  3
McadcomServices
 90
     1024
 91
        1
280
     0
281
     0
  0
CLASS
  1
AMIMASTER
  2
AmiMaster
  3
AmiServices
 90
     1024
 91
        1
280
     0
281
     0
  0
CLASS
  1
MAPIAMMOUDLE
  2
MApiAmModule
  3
MApiAmServices
 90
     1024
 91
        1
280
     0
281
     0
  0
CLASS
  1
AMDTADMENUSTATE
  2
AmdtAdMenuState
  3
DesignerServices
 90
     1024
 91
        1
280
     0
281
     0
  0
CLASS
  1
ADAPPL
  2
AcAdAppl
  3
DesignerServices
 90
     1024
 91
        1
280
     0
281
     0
  0
CLASS
  1
DEPMGR
  2
AcAdDepMgr
  3
DesignerServices
 90
     1024
 91
        1
280
     0
281
     0
  0
CLASS
  1
PARAMMGR
  2
AcAdParamMgr
  3
DesignerServices
 90
     1024
 91
        1
280
     0
281
     0
  0
CLASS
  1
PARAMSCOPE
  2
AcAdParamScope
  3
DesignerServices
 90
     1024
 91
        1
280
     0
281
     0
  0
CLASS
  1
NAMEDAPPL
  2
AcAdNamedAppl
  3
DesignerServices
 90
     1024
 91
        1
280
     0
281
     0
  0
CLASS
  1
AMDTDMMENUSTATE
  2
AmdtDmMenuState
  3
AcMechDwgViewMgmt
 90
     1024
 91
        1
280
     0
281
     0
  0
CLASS
  1
AMDTAMMENUSTATE
  2
AmdtAmMenuState
  3
DesignerAssemblies
 90
     1024
 91
        1
280
     0
281
     0
  0
CLASS
  1
ACIMSTRSYSVAR
  2
AcImStrSysVar
  3
AcMeServices
 90
     1024
 91
        5
280
     0
281
     0
  0
CLASS
  1
ACAMPROJECT
  2
AcAmProject
  3
DesignerAssemblies
 90
     1024
 91
        1
280
     0
281
     0
  0
CLASS
  1
ACAMGRCOMPDEF
  2
AcAmGrCompDef
  3
DesignerAssemblies
 90
     1024
 91
        1
280
     0
281
     0
  0
CLASS
  1
ACCMCONTEXT
  2
AcCmContext
  3
DesignerAssemblies
 90
     1024
 91
        1
280
     0
281
     0
  0
CLASS
  1
ACAMCOMPDEF
  2
AcAmCompDef
  3
DesignerAssemblies
 90
     1024
 91
        1
280
     0
281
     0
  0
CLASS
  1
ACAMCOMPDEFMGR
  2
AcAmCompDefMgr
  3
DesignerAssemblies
 90
     1024
 91
        1
280
     0
281
     0
  0
CLASS
  1
AMCONTEXTMGR
  2
AcAmContextMgr
  3
DesignerAssemblies
 90
     1024
 91
        1
280
     0
281
     0
  0
CLASS
  1
ACAMCONTEXTMODELER
  2
AcAmContextModeler
  3
DesignerAssemblies
 90
     1024
 91
        1
280
     0
281
     0
  0
CLASS
  1
ACMDATADICTIONARY
  2
AcmDataDictionary
  3
"AcmSymBB|Product Description: AutoCAD Mechanical|Company: Autodesk, Inc."
 90
     1024
 91
        1
280
     0
281
     0
  0
CLASS
  1
CATALOGSTATE
  2
AcAmCatalogState
  3
DesignerAssemblies
 90
     1024
 91
        1
280
     0
281
     0
  0
CLASS
  1
ACAMGRCOMPDEFSET
  2
AcAmGrCompDefSet
  3
DesignerAssemblies
 90
     1024
 91
        1
280
     0
281
     0
  0
CLASS
  1
AMDTBROWSERDBTAB
  2
AmdtBrowserDbTab
  3
McadcomServices
 90
     1024
 91
        1
280
     0
281
     0
  0
CLASS
  1
CBROWSERAPPOBJECT
  2
CBrowserAppObject
  3
McadcomServices
 90
     1024
 91
        3
280
     0
281
     0
  0
CLASS
  1
DM_PLACEHOLDER
  2
AcDmSelsetPlaceholder
  3
AcMechDwgViewMgmt
 90
     1024
 91
        1
280
     0
281
     0
  0
CLASS
  1
ACMSTANDARDANSI
  2
AcmStandardANSI
  3
"Amdt_StdImp|Product Description: AutoCAD Mechanical|Company: Autodesk, Inc."
 90
     1024
 91
        1
280
     0
281
     0
  0
CLASS
  1
AMGOBJPROPCFG
  2
AmgObjPropCfg
  3
"AmgLay|Product Description: AutoCAD Mechanical|Company: Autodesk, Inc."
 90
     1025
 91
        1
280
     0
281
     0
  0
CLASS
  1
ACMSURFSTANDARDANSI
  2
AcmSurfTextStdANSI
  3
"Amdt_StdImp|Product Description: AutoCAD Mechanical|Company: Autodesk, Inc."
 90
     1024
 91
        1
280
     0
281
     0
  0
CLASS
  1
ACMFCFSTANDARDANSI
  2
AcmFCFStdANSI
  3
"Amdt_StdImp|Product Description: AutoCAD Mechanical|Company: Autodesk, Inc."
 90
     1024
 91
        1
280
     0
281
     0
  0
CLASS
  1
ACMWELDSTANDARDANSI
  2
AcmWeldingStdANSI
  3
"Amdt_StdImp|Product Description: AutoCAD Mechanical|Company: Autodesk, Inc."
 90
     1024
 91
        1
280
     0
281
     0
  0
CLASS
  1
ACMIDSTANDARDANSI
  2
AcmIdStdANSI
  3
"Amdt_StdImp|Product Description: AutoCAD Mechanical|Company: Autodesk, Inc."
 90
     1024
 91
        1
280
     0
281
     0
  0
CLASS
  1
ACMDATUMSTANDARDANSI
  2
AcmDatumStdANSI
  3
"Amdt_StdImp|Product Description: AutoCAD Mechanical|Company: Autodesk, Inc."
 90
     1024
 91
        1
280
     0
281
     0
  0
CLASS
  1
ACMBOMSTANDARDANSI
  2
AcmBOMStdANSI
  3
"Amdt_StdImp|Product Description: AutoCAD Mechanical|Company: Autodesk, Inc."
 90
     1024
 91
        1
280
     0
281
     0
  0
CLASS
  1
ACMDETAILSTANDARDANSI
  2
AmdtDetailSymStdANSI
  3
"Amdt_StdImp|Product Description: AutoCAD Mechanical|Company: Autodesk, Inc."
 90
     1024
 91
        1
280
     0
281
     0
  0
CLASS
  1
ACMSECTIONSTANDARDANSI
  2
AmdtSectionSymStdANSI
  3
"Amdt_StdImp|Product Description: AutoCAD Mechanical|Company: Autodesk, Inc."
 90
     1024
 91
        1
280
     0
281
     0
  0
CLASS
  1
ACMCENTERLINESTANDARDANSI
  2
AmdtCenterLineStdANSI
  3
"Amdt_StdImp|Product Description: AutoCAD Mechanical|Company: Autodesk, Inc."
 90
     1024
 91
        1
280
     0
281
     0
  0
CLASS
  1
ACMTHREADLINESTANDARDANSI
  2
AmdtThreadLineStdANSI
  3
"Amdt_StdImp|Product Description: AutoCAD Mechanical|Company: Autodesk, Inc."
 90
     1024
 91
        1
280
     0
281
     0
  0
CLASS
  1
ACMNOTESTANDARDANSI
  2
AmdtNoteStdANSI
  3
"Amdt_StdImp|Product Description: AutoCAD Mechanical|Company: Autodesk, Inc."
 90
     1024
 91
        1
280
     0
281
     0
  0
CLASS
  1
AMDTNOTETEMPLATEDB
  2
AmdtNoteTemplateDB
  3
AcmSymBB|Product Description: AutoCAD Mechanical|Company: Autodesk, Inc.
 90
     1024
 91
       10
280
     0
281
     0
  0
CLASS
  1
ACAMGLAYSTD
  2
AcAmgLayStd
  3
"AmgLay|Product Description: AutoCAD Mechanical|Company: Autodesk, Inc."
 90
     1024
 91
        2
280
     0
281
     0
  0
CLASS
  1
ACAMGDIMSTD
  2
AcAmgDimStd
  3
"AmgDim|Product Description: AutoCAD Mechanical|Company: Autodesk, Inc."
 90
     1024
 91
        2
280
     0
281
     0
  0
CLASS
  1
ACAMGHOLECHARTSTDANSI
  2
AcAmgHoleChartStdANSI
  3
AmgDim|Product Description: AutoCAD Mechanical|Company: Autodesk, Inc.
 90
     1024
 91
        1
280
     0
281
     0
  0
CLASS
  1
ACAMGTITLESTD
  2
AcAmgTitleStd
  3
"AmgTitle|Product Description: AutoCAD Mechanical|Company: Autodesk, Inc."
 90
     4095
 91
        2
280
     0
281
     0
  0
CLASS
  1
ACAMGFILTERDAT
  2
AcAmgFilterDat
  3
"AcadM|Product Description: AutoCAD Mechanical|Company: Autodesk, Inc."
 90
     1024
 91
        6
280
     0
281
     0
  0
CLASS
  1
TABLESTYLE
  2
AcDbTableStyle
  3
ObjectDBX Classes
 90
     4095
 91
        1
280
     0
281
     0
  0
CLASS
  1
VAACXREFPANELOBJECT
  2
VaAcXREFPanelObject
  3
VAAC_ADDIN
 90
        0
 91
        0
280
     0
281
     0
  0
CLASS
  1
VAACIMAGEINVENTORY
  2
VaAcImageInventory
  3
VAAC_ADDIN
 90
        0
 91
        0
280
     0
281
     0
  0
CLASS
  1
ACMDATAENTRYBLOCK
  2
AcmDataEntryBlock
  3
AcmSymBB|Product Description: AutoCAD Mechanical|Company: Autodesk, Inc.
 90
     1024
 91
        1
280
     0
281
     0
  0
CLASS
  1
AC_AM_2D_XREF_MGR
  2
AcAmXrefMgr2d
  3
DesignerAssemblies
 90
     1024
 91
        1
280
     0
281
     0
  0
CLASS
  1
AC_AM_MVD_DEP_MGR
  2
AcAmMVDdepMgr
  3
DesignerAssemblies
 90
     1024
 91
        1
280
     0
281
     0
  0
CLASS
  1
AC_AM_MASTER_VIEW_DEF
  2
AcAmMasterViewDef
  3
DesignerAssemblies
 90
     1024
 91
        1
280
     0
281
     0
  0
CLASS
  1
AC_AM_DIRTY_NODES
  2
AcAmDirtyNodes
  3
DesignerAssemblies
 90
     1024
 91
        1
280
     0
281
     0
  0
CLASS
  1
AC_AM_MAPPER_CACHE
  2
AcAmMapperCache
  3
DesignerAssemblies
 90
     1024
 91
        1
280
     0
281
     0
  0
CLASS
  1
ACAMMVDBACKUPOBJECT
  2
AcAmMVDBackupObject
  3
DesignerAssemblies
 90
     1024
 91
        1
280
     0
281
     0
  0
CLASS
  1
MATERIAL
  2
AcDbMaterial
  3
ObjectDBX Classes
 90
     1153
 91
        3
280
     0
281
     0
  0
CLASS
  1
VISUALSTYLE
  2
AcDbVisualStyle
  3
ObjectDBX Classes
 90
     4095
 91
       16
280
     0
281
     0
  0
CLASS
  1
ACMTAPERSTANDARDANSI
  2
AcmTaperStdANSI
  3
"Amdt_StdImp|Product Description: AutoCAD Mechanical|Company: Autodesk, Inc."
 90
     1024
 91
        1
280
     0
281
     0
  0
CLASS
  1
SORTENTSTABLE
  2
AcDbSortentsTable
  3
ObjectDBX Classes
 90
        0
 91
        2
280
     0
281
     0
  0
CLASS
  1
ACMDIMBREAKPERSREACTOR
  2
AcmDimBreakPersReactor
  3
AmgDim|Product Description: AutoCAD Mechanical|Company: Autodesk, Inc.
 90
     4095
 91
       11
280
     0
281
     0
  0
CLASS
  1
SCALE
  2
AcDbScale
  3
ObjectDBX Classes
 90
     1153
 91
       33
280
     0
281
     0
  0
CLASS
  1
MLEADERSTYLE
  2
AcDbMLeaderStyle
  3
ACDB_MLEADERSTYLE_CLASS
 90
     4095
 91
        1
280
     0
281
     0
  0
CLASS
  1
ACMANOOTATIONVIEWSTANDARDANSI
  2
AmdtAnViewStdANSI
  3
"Amdt_StdImp|Product Description: AutoCAD Mechanical|Company: Autodesk, Inc."
 90
     1024
 91
        1
280
     0
281
     0
  0
CLASS
  1
ACMSTANDARDDIN
  2
AcmStandardDIN
  3
"Amdt_StdImp|Product Description: AutoCAD Mechanical|Company: Autodesk, Inc."
 90
     1024
 91
        1
280
     0
281
     0
  0
CLASS
  1
AMDTEDGESTANDARDDIN13715
  2
AmdtEdgeStdDIN13715
  3
"Amdt_StdImp|Product Description: AutoCAD Mechanical|Company: Autodesk, Inc."
 90
     1024
 91
        1
280
     0
281
     0
  0
CLASS
  1
ACMSURFSTANDARDDIN2002
  2
AcmSurfTextStdDIN2002
  3
"Amdt_StdImp|Product Description: AutoCAD Mechanical|Company: Autodesk, Inc."
 90
     1024
 91
        1
280
     0
281
     0
  0
CLASS
  1
ACMFCFSTANDARDDIN
  2
AcmFCFStdDIN
  3
"Amdt_StdImp|Product Description: AutoCAD Mechanical|Company: Autodesk, Inc."
 90
     1024
 91
        1
280
     0
281
     0
  0
CLASS
  1
ACMWELDSTANDARDDIN
  2
AcmWeldingStdDIN
  3
"Amdt_StdImp|Product Description: AutoCAD Mechanical|Company: Autodesk, Inc."
 90
     1024
 91
        1
280
     0
281
     0
  0
CLASS
  1
ACMIDSTANDARDDIN
  2
AcmIdStdDIN
  3
"Amdt_StdImp|Product Description: AutoCAD Mechanical|Company: Autodesk, Inc."
 90
     1024
 91
        1
280
     0
281
     0
  0
CLASS
  1
ACMDATUMSTANDARDDIN
  2
AcmDatumStdDIN
  3
"Amdt_StdImp|Product Description: AutoCAD Mechanical|Company: Autodesk, Inc."
 90
     1024
 91
        1
280
     0
281
     0
  0
CLASS
  1
ACMBOMSTANDARDDIN
  2
AcmBOMStdDIN
  3
"Amdt_StdImp|Product Description: AutoCAD Mechanical|Company: Autodesk, Inc."
 90
     1024
 91
        1
280
     0
281
     0
  0
CLASS
  1
ACMDETAILSTANDARDDIN
  2
AmdtDetailSymStdDIN
  3
"Amdt_StdImp|Product Description: AutoCAD Mechanical|Company: Autodesk, Inc."
 90
     1024
 91
        1
280
     0
281
     0
  0
CLASS
  1
ACMSECTIONSTANDARDDIN
  2
AmdtSectionSymStdDIN
  3
"Amdt_StdImp|Product Description: AutoCAD Mechanical|Company: Autodesk, Inc."
 90
     1024
 91
        1
280
     0
281
     0
  0
CLASS
  1
ACMCENTERLINESTANDARDDIN
  2
AmdtCenterLineStdDIN
  3
"Amdt_StdImp|Product Description: AutoCAD Mechanical|Company: Autodesk, Inc."
 90
     1024
 91
        1
280
     0
281
     0
  0
CLASS
  1
ACMTHREADLINESTANDARDDIN
  2
AmdtThreadLineStdDIN
  3
"Amdt_StdImp|Product Description: AutoCAD Mechanical|Company: Autodesk, Inc."
 90
     1024
 91
        1
280
     0
281
     0
  0
CLASS
  1
ACMNOTESTANDARDDIN
  2
AmdtNoteStdDIN
  3
"Amdt_StdImp|Product Description: AutoCAD Mechanical|Company: Autodesk, Inc."
 90
     1024
 91
        1
280
     0
281
     0
  0
CLASS
  1
ACMTAPERSTANDARDDIN
  2
AcmTaperStdDIN
  3
"Amdt_StdImp|Product Description: AutoCAD Mechanical|Company: Autodesk, Inc."
 90
     1024
 91
        1
280
     0
281
     0
  0
CLASS
  1
ACMANOOTATIONVIEWSTANDARDDIN
  2
AmdtAnViewStdDIN
  3
"Amdt_StdImp|Product Description: AutoCAD Mechanical|Company: Autodesk, Inc."
 90
     1024
 91
        1
280
     0
281
     0
  0
CLASS
  1
ACAMGHOLECHARTSTDDIN
  2
AcAmgHoleChartStdDIN
  3
AmgDim|Product Description: AutoCAD Mechanical|Company: Autodesk, Inc.
 90
     1024
 91
        1
280
     0
281
     0
  0
CLASS
  1
CELLSTYLEMAP
  2
AcDbCellStyleMap
  3
ObjectDBX Classes
 90
     1152
 91
       12
280
     0
281
     0
  0
ENDSEC
  0
SECTION
  2
TABLES
  0
TABLE
  2
VPORT
  5
13
330
0
100
AcDbSymbolTable
 70
     1
  0
VPORT
  5
5CD
330
13
100
AcDbSymbolTableRecord
100
AcDbViewportTableRecord
  2
*Active
 70
     0
 10
0.0
 20
0.0
 11
1.0
 21
1.0
 12
743.8245143520035
 22
315.6626141385836
 13
0.0
 23
0.0
 14
2.5
 24
2.5
 15
10.0
 25
10.0
 16
0.0
 26
0.0
 36
1.0
 17
0.0
 27
0.0
 37
0.0
 40
392.2762467253851
 41
1.553846153846153
 42
50.0
 43
0.0
 44
0.0
 50
0.0
 51
0.0
 71
     0
 72
   100
 73
     1
 74
     0
 75
     0
 76
     0
 77
     0
 78
     0
281
     0
 65
     1
110
0.0
120
0.0
130
0.0
111
1.0
121
0.0
131
0.0
112
0.0
122
1.0
132
0.0
 79
     0
146
0.0
  0
ENDTAB
  0
TABLE
  2
LTYPE
  5
E
330
0
100
AcDbSymbolTable
 70
    27
  0
LTYPE
  5
F
330
E
100
AcDbSymbolTableRecord
100
AcDbLinetypeTableRecord
  2
BYBLOCK
 70
     0
  3

 72
    65
 73
     0
 40
0.0
  0
LTYPE
  5
10
330
E
100
AcDbSymbolTableRecord
100
AcDbLinetypeTableRecord
  2
BYLAYER
 70
     0
  3

 72
    65
 73
     0
 40
0.0
  0
LTYPE
  5
6
330
E
100
AcDbSymbolTableRecord
100
AcDbLinetypeTableRecord
  2
CONTINUOUS
 70
     0
  3
Solid line
 72
    65
 73
     0
 40
0.0
  0
LTYPE
  5
81
330
E
100
AcDbSymbolTableRecord
100
AcDbLinetypeTableRecord
  2
HIDDEN
 70
     0
  3
Verdeckt
 72
    65
 73
     2
 40
0.375
 49
0.25
 74
     0
 49
-0.125
 74
     0
  0
LTYPE
  5
82
330
E
100
AcDbSymbolTableRecord
100
AcDbLinetypeTableRecord
  2
PHANTOM2
 70
     0
  3
Phantom (.5x) ___ _ _ ___ _ _ ___ _ _ ___ _ _
 72
    65
 73
     6
 40
1.25
 49
0.625
 74
     0
 49
-0.125
 74
     0
 49
0.125
 74
     0
 49
-0.125
 74
     0
 49
0.125
 74
     0
 49
-0.125
 74
     0
  0
LTYPE
  5
83
330
E
100
AcDbSymbolTableRecord
100
AcDbLinetypeTableRecord
  2
CENTER
 70
     0
  3
Mitte ____ _ ____ _ ____ _ ____ _ ____ _ ____
 72
    65
 73
     4
 40
2.0
 49
1.25
 74
     0
 49
-0.25
 74
     0
 49
0.25
 74
     0
 49
-0.25
 74
     0
  0
LTYPE
  5
CD
330
E
100
AcDbSymbolTableRecord
100
AcDbLinetypeTableRecord
  2
Amconstr
 70
     0
  3
_______________________
 72
    65
 73
     2
 40
9999.0
 49
9999.0
 74
     0
 49
0.0
 74
     0
  0
LTYPE
  5
D3
330
E
100
AcDbSymbolTableRecord
100
AcDbLinetypeTableRecord
  2
CENTER2
 70
     0
  3
Center (.5x) ___ _ ___ _ ___ _ ___ _ ___ _ ___
 72
    65
 73
     4
 40
1.125
 49
0.75
 74
     0
 49
-0.125
 74
     0
 49
0.125
 74
     0
 49
-0.125
 74
     0
  0
LTYPE
  5
D4
330
E
100
AcDbSymbolTableRecord
100
AcDbLinetypeTableRecord
  2
HIDDEN2
 70
     0
  3
Hidden (.5x) _ _ _ _ _ _ _ _ _ _ _ _ _ _ _ _ _
 72
    65
 73
     2
 40
0.1875
 49
0.125
 74
     0
 49
-0.0625
 74
     0
  0
LTYPE
  5
D5
330
E
100
AcDbSymbolTableRecord
100
AcDbLinetypeTableRecord
  2
Amzigzag2
 70
     0
  3
/\/-/\/-/\/-/\/-/\/-/\/
 72
    65
 73
     2
 40
0.4401
 49
0.0001
 74
     4
 75
   135
340
D1
 46
0.0016
 50
0.0
 44
0.0
 45
0.0
 49
-0.4400000000000001
 74
     0
  0
LTYPE
  5
E3
330
E
100
AcDbSymbolTableRecord
100
AcDbLinetypeTableRecord
  2
ACANSTGB
 70
     0
  3
__ . . __ . .
 72
    65
 73
     6
 40
0.35433070866
 49
0.15748031496
 74
     0
 49
-0.03937007874
 74
     0
 49
0.03937007874
 74
     0
 49
-0.03937007874
 74
     0
 49
0.03937007874
 74
     0
 49
-0.03937007874
 74
     0
  0
LTYPE
  5
E4
330
E
100
AcDbSymbolTableRecord
100
AcDbLinetypeTableRecord
  2
ACANSTGL
 70
     0
  3
_ _ _ _ _
 72
    65
 73
     2
 40
0.11811023622
 49
0.07874015748
 74
     0
 49
-0.03937007874
 74
     0
  0
LTYPE
  5
AE7
330
E
100
AcDbSymbolTableRecord
100
AcDbLinetypeTableRecord
  2
MITTE
 70
     0
  3
____ _ ____ _ ____ _ ____ _ ____ _ ____ _ ____ 
 72
    65
 73
     4
 40
2.0
 49
1.25
 74
     0
 49
-0.25
 74
     0
 49
0.25
 74
     0
 49
-0.25
 74
     0
  0
LTYPE
  5
3ECF
330
E
100
AcDbSymbolTableRecord
100
AcDbLinetypeTableRecord
  2
ACDINWELD
 70
     0
  3
_ _ _ _ _
 72
    65
 73
     2
 40
2.0
 49
2.0
 74
     0
 49
-1.0
 74
     0
  0
LTYPE
  5
3ED0
330
E
100
AcDbSymbolTableRecord
100
AcDbLinetypeTableRecord
  2
ACDINTGB
 70
     0
  3
__ . . __ . .
 72
    65
 73
     6
 40
9.0
 49
4.0
 74
     0
 49
-1.0
 74
     0
 49
1.0
 74
     0
 49
-1.0
 74
     0
 49
1.0
 74
     0
 49
-1.0
 74
     0
  0
LTYPE
  5
3ED1
330
E
100
AcDbSymbolTableRecord
100
AcDbLinetypeTableRecord
  2
ACDINTGL
 70
     0
  3
_ _ _ _ _
 72
    65
 73
     2
 40
3.0
 49
2.0
 74
     0
 49
-1.0
 74
     0
  0
LTYPE
  5
3EEB
330
E
100
AcDbSymbolTableRecord
100
AcDbLinetypeTableRecord
  2
Amzigzag
 70
     0
  3
/\/-/\/-/\/-/\/-/\/-/\/
 72
    65
 73
     2
 40
11.0001
 49
0.0001
 74
     4
 75
   136
340
3EEA
 46
0.04
 50
0.0
 44
0.0
 45
0.0
 49
-11.0
 74
     0
  0
LTYPE
  5
3EEC
330
E
100
AcDbSymbolTableRecord
100
AcDbLinetypeTableRecord
  2
AM_DIN_F_W050
 70
     0
  3
__ __ __ __ __ __ __ __ __ __ __ __ __ __ __
 72
    65
 73
     2
 40
6.25
 49
4.75
 74
     0
 49
-1.5
 74
     0
  0
LTYPE
  5
3EED
330
E
100
AcDbSymbolTableRecord
100
AcDbLinetypeTableRecord
  2
AM_DIN_G_W050
 70
     0
  3
____ . ____ . ____ . ____ . ____ . ____ . ____
 72
    65
 73
     4
 40
13.75
 49
9.75
 74
     0
 49
-1.5
 74
     0
 49
1.0
 74
     0
 49
-1.5
 74
     0
  0
LTYPE
  5
3EEE
330
E
100
AcDbSymbolTableRecord
100
AcDbLinetypeTableRecord
  2
AM_DIN_K_W050
 70
     0
  3
_____ . . _____ . . _____ . . ____ .. ____
 72
    65
 73
     6
 40
16.25
 49
9.75
 74
     0
 49
-1.5
 74
     0
 49
1.0
 74
     0
 49
-1.5
 74
     0
 49
1.0
 74
     0
 49
-1.5
 74
     0
  0
LTYPE
  5
3EEF
330
E
100
AcDbSymbolTableRecord
100
AcDbLinetypeTableRecord
  2
AM_DIN_G_W050x2
 70
     0
  3
__ . __ . __ . __ . __ . __
 72
    65
 73
     4
 40
6.875
 49
4.75
 74
     0
 49
-0.875
 74
     0
 49
0.375
 74
     0
 49
-0.875
 74
     0
  0
LTYPE
  5
3EF0
330
E
100
AcDbSymbolTableRecord
100
AcDbLinetypeTableRecord
  2
AM_DIN_F_W050x2
 70
     0
  3
 _ _ _ _ _ _ _ _ _ _ _ _
 72
    65
 73
     2
 40
3.125
 49
2.25
 74
     0
 49
-0.875
 74
     0
  0
ENDTAB
  0
TABLE
  2
LAYER
  5
B
330
0
100
AcDbSymbolTable
 70
     9
  0
LAYER
  5
5
102
{ACAD_XDICTIONARY
360
3EF1
102
}
330
B
100
AcDbSymbolTableRecord
100
AcDbLayerTableRecord
  2
0
 70
     0
 62
     7
  6
CONTINUOUS
370
    -3
390
5D
  0
LAYER
  5
89F
330
B
100
AcDbSymbolTableRecord
100
AcDbLayerTableRecord
  2
Defpoints
 70
     0
 62
     7
  6
CONTINUOUS
290
     0
370
    -3
390
5D
  0
LAYER
  5
AE8
102
{ACAD_XDICTIONARY
360
3EF3
102
}
330
B
100
AcDbSymbolTableRecord
100
AcDbLayerTableRecord
  2
MITTE
 70
     0
 62
     4
  6
MITTE
370
    -3
390
5D
  0
LAYER
  5
AE9
102
{ACAD_XDICTIONARY
360
3EF5
102
}
330
B
100
AcDbSymbolTableRecord
100
AcDbLayerTableRecord
  2
SCHRAFF
 70
     0
 62
     1
  6
CONTINUOUS
370
    -3
390
5D
  0
LAYER
  5
AEA
102
{ACAD_XDICTIONARY
360
3EF7
102
}
330
B
100
AcDbSymbolTableRecord
100
AcDbLayerTableRecord
  2
LINIE
 70
     0
 62
     4
  6
CONTINUOUS
370
    -3
390
5D
  0
ENDTAB
  0
TABLE
  2
STYLE
  5
C
330
0
100
AcDbSymbolTable
 70
    10
  0
STYLE
  5
D
330
C
100
AcDbSymbolTableRecord
100
AcDbTextStyleTableRecord
  2
STANDARD
 70
     0
 40
0.0
 41
1.0
 50
0.0
 71
     0
 42
20.0
  3
romans.shx
  4

  0
STYLE
  5
D1
330
C
100
AcDbSymbolTableRecord
100
AcDbTextStyleTableRecord
  2

 70
     1
 40
0.0
 41
1.0
 50
0.0
 71
     0
 42
20.0
  3
ltypeshp.shx
  4

  0
STYLE
  5
D6
330
C
100
AcDbSymbolTableRecord
100
AcDbTextStyleTableRecord
  2
ACANSTS
 70
     0
 40
1.0
 41
1.0
 50
0.0
 71
     0
 42
20.0
  3
romans.shx
  4

  0
STYLE
  5
E2
330
C
100
AcDbSymbolTableRecord
100
AcDbTextStyleTableRecord
  2
ACANSGDT
 70
     0
 40
0.0
 41
1.0
 50
0.0
 71
     0
 42
20.0
  3
amgdtans.shx
  4

  0
STYLE
  5
3EBF
330
C
100
AcDbSymbolTableRecord
100
AcDbTextStyleTableRecord
  2
ACDINTS
 70
     0
 40
1.0
 41
1.0
 50
0.0
 71
     0
 42
20.0
  3
isocp.shx
  4

  0
STYLE
  5
3ECE
330
C
100
AcDbSymbolTableRecord
100
AcDbTextStyleTableRecord
  2
ACDINGDT
 70
     0
 40
0.0
 41
1.0
 50
0.0
 71
     0
 42
20.0
  3
amgdt.shx
  4

  0
STYLE
  5
3EEA
330
C
100
AcDbSymbolTableRecord
100
AcDbTextStyleTableRecord
  2

 70
     1
 40
0.0
 41
1.0
 50
0.0
 71
     0
 42
20.0
  3
genltshp.shx
  4

  0
ENDTAB
  0
TABLE
  2
VIEW
  5
11
330
0
100
AcDbSymbolTable
 70
     0
  0
ENDTAB
  0
TABLE
  2
UCS
  5
12
330
0
100
AcDbSymbolTable
 70
     0
  0
ENDTAB
  0
TABLE
  2
APPID
  5
15
330
0
100
AcDbSymbolTable
 70
    20
  0
APPID
  5
16
330
15
100
AcDbSymbolTableRecord
100
AcDbRegAppTableRecord
  2
ACAD
 70
     0
  0
APPID
  5
30
330
15
100
AcDbSymbolTableRecord
100
AcDbRegAppTableRecord
  2
MCAD_NO_VIS
 70
     0
  0
APPID
  5
6D
330
15
100
AcDbSymbolTableRecord
100
AcDbRegAppTableRecord
  2
ACAD_TEMP_GRAPHIC
 70
     0
  0
APPID
  5
98
330
15
100
AcDbSymbolTableRecord
100
AcDbRegAppTableRecord
  2
AD_DRAW
 70
     0
  0
APPID
  5
9B
330
15
100
AcDbSymbolTableRecord
100
AcDbRegAppTableRecord
  2
ACATTRIBSERVICES
 70
     0
  0
APPID
  5
B9
330
15
100
AcDbSymbolTableRecord
100
AcDbRegAppTableRecord
  2
DESIGNERASSEMBLIES
 70
     0
  0
APPID
  5
C1
330
15
100
AcDbSymbolTableRecord
100
AcDbRegAppTableRecord
  2
ACADM_DIM_EDIT
 70
     0
  0
APPID
  5
C2
330
15
100
AcDbSymbolTableRecord
100
AcDbRegAppTableRecord
  2
AMDT_DM_ADJ
 70
     0
  0
APPID
  5
191
330
15
100
AcDbSymbolTableRecord
100
AcDbRegAppTableRecord
  2
GENIUS_GENOREF_13
 70
     0
  0
APPID
  5
192
330
15
100
AcDbSymbolTableRecord
100
AcDbRegAppTableRecord
  2
ACAD_PSEXT
 70
     0
  0
APPID
  5
5C3
330
15
100
AcDbSymbolTableRecord
100
AcDbRegAppTableRecord
  2
AMG_2DHIDE
 70
     0
  0
APPID
  5
5C4
330
15
100
AcDbSymbolTableRecord
100
AcDbRegAppTableRecord
  2
AMG_2DSTRUCT_BTR
 70
     0
  0
APPID
  5
613
330
15
100
AcDbSymbolTableRecord
100
AcDbRegAppTableRecord
  2
ACAD_EXEMPT_FROM_CAD_STANDARDS
 70
     0
  0
APPID
  5
AED
330
15
100
AcDbSymbolTableRecord
100
AcDbRegAppTableRecord
  2
AcAecLayerStandard
 70
     0
  0
APPID
  5
3E1C
330
15
100
AcDbSymbolTableRecord
100
AcDbRegAppTableRecord
  2
ACAD_MLEADERVER
 70
     0
  0
APPID
  5
3F01
330
15
100
AcDbSymbolTableRecord
100
AcDbRegAppTableRecord
  2
DCO15
 70
     0
  0
APPID
  5
3F0B
330
15
100
AcDbSymbolTableRecord
100
AcDbRegAppTableRecord
  2
AcadAnnoPO
 70
     0
  0
APPID
  5
491A
330
15
100
AcDbSymbolTableRecord
100
AcDbRegAppTableRecord
  2
ACAD_DSTYLE_DIMINSPECT
 70
     0
  0
APPID
  5
4926
330
15
100
AcDbSymbolTableRecord
100
AcDbRegAppTableRecord
  2
GENIUS_GENDTOL_13
 70
     0
  0
APPID
  5
4D7C
330
15
100
AcDbSymbolTableRecord
100
AcDbRegAppTableRecord
  2
ACAD_DSTYLE_DIMJOGGED_JOGANGLE_SYMBOL
 70
     0
  0
ENDTAB
  0
TABLE
  2
DIMSTYLE
  5
17
330
0
100
AcDbSymbolTable
 70
    19
100
AcDbDimStyleTable
 71
     1
340
3EDB
  0
DIMSTYLE
105
EB
330
17
100
AcDbSymbolTableRecord
100
AcDbDimStyleTableRecord
  2
AM_ANSI
 70
     0
  4
mm
 41
0.1
 42
0.05
 43
0.5
 44
0.1
 47
0.1
 48
0.1
 78
     7
 79
     2
140
0.12
141
0.0
146
0.71
147
0.06
176
   256
177
   256
178
     2
274
     4
284
     7
340
D
371
    -1
372
    -1
  0
DIMSTYLE
105
EC
330
17
100
AcDbSymbolTableRecord
100
AcDbDimStyleTableRecord
  2
AM_ANSI$3
 70
     0
  4
mm
 41
0.1
 42
0.05
 43
0.5
 44
0.1
 47
0.1
 48
0.1
 78
     7
 79
     2
140
0.12
141
0.0
146
0.71
147
0.06
176
   256
177
   256
178
     2
274
     4
284
     7
288
     1
289
     0
340
D
371
    -1
372
    -1
  0
DIMSTYLE
105
ED
330
17
100
AcDbSymbolTableRecord
100
AcDbDimStyleTableRecord
  2
AM_ANSI$4
 70
     0
  4
mm
 41
0.1
 42
0.05
 43
0.5
 44
0.1
 47
0.1
 48
0.1
 78
     7
 79
     2
140
0.12
141
0.0
146
0.71
147
0.06
176
   256
177
   256
178
     2
274
     4
284
     7
288
     1
289
     0
340
D
371
    -1
372
    -1
  0
DIMSTYLE
105
EE
330
17
100
AcDbSymbolTableRecord
100
AcDbDimStyleTableRecord
  2
AM_ANSI$7
 70
     0
  4
mm
 41
0.1
 42
0.05
 43
0.5
 44
0.1
 47
0.1
 48
0.1
 78
     7
 79
     2
140
0.24
141
0.0
146
0.71
147
0.06
176
   256
177
   256
178
     2
274
     4
284
     7
340
D
371
    -1
372
    -1
  0
DIMSTYLE
105
EF
330
17
100
AcDbSymbolTableRecord
100
AcDbDimStyleTableRecord
  2
AM_ANSI$SF
 70
     0
  4
mm
 41
0.1
 42
0.05
 43
0.5
 44
0.1
 47
0.1
 48
0.1
 75
     1
 76
     1
 78
     7
 79
     2
140
0.12
141
0.0
146
0.71
147
0.06
176
   256
177
   256
178
     2
274
     4
284
     7
340
D
371
    -1
372
    -1
  0
DIMSTYLE
105
F4
330
17
100
AcDbSymbolTableRecord
100
AcDbDimStyleTableRecord
  2
AM_ANSI$SH
 70
     0
  4
mm
 41
0.1
 42
0.05
 43
0.5
 44
0.1
 47
0.1
 48
0.1
 75
     1
 76
     1
 78
     7
 79
     2
140
0.12
141
0.0
146
0.71
147
0.06
173
     1
176
   256
177
   256
178
     2
274
     4
284
     7
340
D
343
F0
371
    -1
372
    -1
  0
DIMSTYLE
105
190
330
17
100
AcDbSymbolTableRecord
100
AcDbDimStyleTableRecord
  2
STANDARD
 70
     0
 41
3.5
 42
0.0
 43
7.0
 44
1.25
 73
     0
 74
     0
 77
     1
 78
     8
140
3.5
141
0.0
144
0.5
146
0.7142857142857144
147
1.5
172
     1
176
   256
177
   256
178
   256
340
D
  0
DIMSTYLE
105
3EDB
330
17
100
AcDbSymbolTableRecord
100
AcDbDimStyleTableRecord
  2
AM_DIN
 70
     0
  4
"
 41
2.5
 42
1.0
 43
10.0
 44
1.0
 47
0.1
 48
0.1
 73
     0
 74
     0
 77
     1
 78
     8
 79
     2
140
3.5
141
0.0
143
0.0393701
146
0.71
147
1.5
172
     1
176
   256
177
   256
178
     2
271
     2
272
     3
274
     4
283
     0
284
     8
340
D
371
    -1
372
    -1
1001
ACAD_DSTYLE_DIMJOGGED_JOGANGLE_SYMBOL
1070
   384
1040
1.570796326794896
  0
DIMSTYLE
105
3EDC
330
17
100
AcDbSymbolTableRecord
100
AcDbDimStyleTableRecord
  2
AM_DIN$3
 70
     0
  4
"
 41
2.5
 42
1.0
 43
10.0
 44
1.0
 47
0.1
 48
0.1
 73
     0
 77
     1
 78
     8
 79
     2
140
3.5
141
0.0
143
0.0393701
146
0.71
147
1.5
176
   256
177
   256
178
     2
271
     2
272
     3
274
     4
283
     0
284
     8
288
     1
289
     0
340
D
371
    -1
372
    -1
1001
ACAD_DSTYLE_DIMJOGGED_JOGANGLE_SYMBOL
1070
   384
1040
1.570796326794896
  0
DIMSTYLE
105
3EDD
330
17
100
AcDbSymbolTableRecord
100
AcDbDimStyleTableRecord
  2
AM_DIN$4
 70
     0
  4
"
 41
2.5
 42
1.0
 43
10.0
 44
1.0
 47
0.1
 48
0.1
 73
     0
 77
     1
 78
     8
 79
     2
140
3.5
141
0.0
143
0.0393701
146
0.71
147
1.5
176
   256
177
   256
178
     2
271
     2
272
     3
274
     4
283
     0
284
     8
288
     1
289
     0
340
D
371
    -1
372
    -1
1001
ACAD_DSTYLE_DIMJOGGED_JOGANGLE_SYMBOL
1070
   384
1040
1.570796326794896
  0
DIMSTYLE
105
3EDE
330
17
100
AcDbSymbolTableRecord
100
AcDbDimStyleTableRecord
  2
AM_DIN$6
 70
     0
  4
"
 41
2.5
 42
1.0
 43
10.0
 44
1.0
 47
0.1
 48
0.1
 73
     0
 74
     0
 78
     8
 79
     2
140
3.5
141
0.0
143
0.0393701
146
0.71
147
1.5
172
     1
176
   256
177
   256
178
     2
271
     2
272
     3
274
     4
283
     0
284
     8
340
D
371
    -1
372
    -1
1001
ACAD_DSTYLE_DIMJOGGED_JOGANGLE_SYMBOL
1070
   384
1040
1.570796326794896
  0
DIMSTYLE
105
3EDF
330
17
100
AcDbSymbolTableRecord
100
AcDbDimStyleTableRecord
  2
AM_DIN$7
 70
     0
  4
"
 41
2.5
 42
1.0
 43
10.0
 44
1.0
 47
0.1
 48
0.1
 73
     0
 74
     0
 77
     1
 78
     8
 79
     2
140
5.0
141
0.0
143
0.0393701
146
0.71
147
1.5
172
     1
176
   256
177
   256
178
     2
271
     2
272
     3
274
     4
283
     0
284
     8
340
D
371
    -1
372
    -1
1001
ACAD_DSTYLE_DIMJOGGED_JOGANGLE_SYMBOL
1070
   384
1040
1.570796326794896
  0
DIMSTYLE
105
3EE0
330
17
100
AcDbSymbolTableRecord
100
AcDbDimStyleTableRecord
  2
AM_DIN$SF
 70
     0
  4
"
 41
2.5
 42
1.0
 43
10.0
 44
1.0
 47
0.1
 48
0.1
 73
     0
 74
     0
 75
     1
 76
     1
 77
     1
 78
     8
 79
     2
140
3.5
141
0.0
143
0.0393701
146
0.71
147
1.5
172
     1
176
   256
177
   256
178
     2
271
     2
272
     3
274
     4
283
     0
284
     8
340
D
371
    -1
372
    -1
1001
ACAD_DSTYLE_DIMJOGGED_JOGANGLE_SYMBOL
1070
   384
1040
1.570796326794896
  0
DIMSTYLE
105
3EE1
330
17
100
AcDbSymbolTableRecord
100
AcDbDimStyleTableRecord
  2
AM_DIN$SH
 70
     0
  4
"
 41
2.5
 42
1.0
 43
10.0
 44
1.0
 47
0.1
 48
0.1
 73
     0
 74
     0
 75
     1
 76
     1
 77
     1
 78
     8
 79
     2
140
3.5
141
0.0
143
0.0393701
144
2.0
146
0.71
147
1.5
172
     1
173
     1
176
   256
177
   256
178
     2
271
     2
272
     3
274
     4
283
     0
284
     8
340
D
343
F0
371
    -1
372
    -1
1001
ACAD_DSTYLE_DIMJOGGED_JOGANGLE_SYMBOL
1070
   384
1040
1.570796326794896
  0
ENDTAB
  0
TABLE
  2
BLOCK_RECORD
  5
1
330
0
100
AcDbSymbolTable
 70
    45
  0
BLOCK_RECORD
  5
2
102
{ACAD_XDICTIONARY
360
3
102
}
330
1
100
AcDbSymbolTableRecord
100
AcDbBlockTableRecord
  2
*MODEL_SPACE
340
62
  0
BLOCK_RECORD
  5
8
330
1
100
AcDbSymbolTableRecord
100
AcDbBlockTableRecord
  2
*PAPER_SPACE
340
63
  0
BLOCK_RECORD
  5
F0
330
1
100
AcDbSymbolTableRecord
100
AcDbBlockTableRecord
  2
GENAXEH
340
0
  0
ENDTAB
  0
ENDSEC
  0
SECTION
  2
BLOCKS
  0
BLOCK
  5
4
330
2
100
AcDbEntity
  8
0
100
AcDbBlockBegin
  2
*MODEL_SPACE
 70
     0
 10
0.0
 20
0.0
 30
0.0
  3
*MODEL_SPACE
  1

  0
ENDBLK
  5
7
330
2
100
AcDbEntity
  8
0
100
AcDbBlockEnd
  0
BLOCK
  5
9
330
8
100
AcDbEntity
 67
     1
  8
0
100
AcDbBlockBegin
  2
*PAPER_SPACE
 70
     0
 10
0.0
 20
0.0
 30
0.0
  3
*PAPER_SPACE
  1

  0
ENDBLK
  5
A
330
8
100
AcDbEntity
 67
     1
  8
0
100
AcDbBlockEnd
  0
BLOCK
  5
F2
330
F0
100
AcDbEntity
  8
0
 48
10.0
100
AcDbBlockBegin
  2
GENAXEH
 70
     0
 10
0.0
 20
0.0
 30
0.0
  3
GENAXEH
  1

  0
LINE
  5
F1
330
F0
100
AcDbEntity
  8
0
100
AcDbLine
 10
-1.0
 20
0.0
 30
0.0
 11
1.0
 21
0.0
 31
0.0
  0
ENDBLK
  5
F3
330
F0
100
AcDbEntity
  8
0
 48
10.0
100
AcDbBlockEnd
  0
ENDSEC
  0
SECTION
  2
ENTITIES
  0
LINE
  5
1784
330
2
100
AcDbEntity
  8
MITTE
 48
10.0
100
AcDbLine
 10
566.6774424529619
 20
351.3398272286531
 30
0.0
 11
925.8840221655079
 21
351.3398272286531
 31
0.0
  0
LINE
  5
1A3C
330
2
100
AcDbEntity
  8
0
 48
10.0
100
AcDbLine
 10
789.4236465086923
 20
321.3398272286544
 30
0.0
 11
789.4236465086923
 21
326.2598272286544
 31
0.0
  0
LINE
  5
20A0
330
2
100
AcDbEntity
  8
0
 48
10.0
100
AcDbLine
 10
789.4236465086923
 20
381.3398272286531
 30
0.0
 11
769.9236465086921
 21
381.3398272286531
 31
0.0
  0
LINE
  5
20A1
330
2
100
AcDbEntity
  8
0
 48
10.0
100
AcDbLine
 10
767.9236465086922
 20
381.3398272286531
 30
0.0
 11
751.9236465086922
 21
381.3398272286531
 31
0.0
  0
LINE
  5
20A2
330
2
100
AcDbEntity
  8
0
 48
10.0
100
AcDbLine
 10
749.9236465086921
 20
381.3398272286531
 30
0.0
 11
721.9236465086924
 21
381.3398272286531
 31
0.0
  0
LINE
  5
20A9
330
2
100
AcDbEntity
  8
0
 48
10.0
100
AcDbLine
 10
768.9236465086922
 20
380.3398272286531
 30
0.0
 11
769.9236465086921
 21
381.3398272286531
 31
0.0
  0
LINE
  5
20AA
330
2
100
AcDbEntity
  8
0
 48
10.0
100
AcDbLine
 10
768.9236465086922
 20
380.3398272286531
 30
0.0
 11
767.9236465086922
 21
381.3398272286531
 31
0.0
  0
LINE
  5
20AB
330
2
100
AcDbEntity
  8
0
 48
10.0
100
AcDbLine
 10
750.9236465086921
 20
380.3398272286531
 30
0.0
 11
751.9236465086922
 21
381.339827228653
 31
0.0
  0
LINE
  5
20AC
330
2
100
AcDbEntity
  8
0
 48
10.0
100
AcDbLine
 10
750.9236465086921
 20
380.3398272286531
 30
0.0
 11
749.9236465086921
 21
381.3398272286531
 31
0.0
  0
LINE
  5
20B8
330
2
100
AcDbEntity
  8
0
 48
10.0
100
AcDbLine
 10
789.423646508692
 20
321.3398272286531
 30
0.0
 11
789.423646508692
 21
381.3398272286544
 31
0.0
  0
LINE
  5
20C4
330
2
100
AcDbEntity
  8
0
 48
10.0
100
AcDbLine
 10
789.4236465086923
 20
321.3398272286531
 30
0.0
 11
769.9236465086921
 21
321.3398272286531
 31
0.0
  0
LINE
  5
20C5
330
2
100
AcDbEntity
  8
0
 48
10.0
100
AcDbLine
 10
767.9236465086922
 20
321.3398272286531
 30
0.0
 11
751.9236465086922
 21
321.3398272286531
 31
0.0
  0
LINE
  5
20C6
330
2
100
AcDbEntity
  8
0
 48
10.0
100
AcDbLine
 10
749.9236465086921
 20
321.3398272286531
 30
0.0
 11
721.9236465086923
 21
321.339827228653
 31
0.0
  0
LINE
  5
20CA
330
2
100
AcDbEntity
  8
0
 48
10.0
100
AcDbLine
 10
768.9236465086922
 20
322.3398272286531
 30
0.0
 11
769.9236465086921
 21
321.3398272286531
 31
0.0
  0
LINE
  5
20CB
330
2
100
AcDbEntity
  8
0
 48
10.0
100
AcDbLine
 10
768.9236465086922
 20
322.3398272286531
 30
0.0
 11
767.9236465086922
 21
321.3398272286531
 31
0.0
  0
LINE
  5
20CC
330
2
100
AcDbEntity
  8
0
 48
10.0
100
AcDbLine
 10
750.9236465086921
 20
322.3398272286531
 30
0.0
 11
751.9236465086922
 21
321.3398272286531
 31
0.0
  0
LINE
  5
20CD
330
2
100
AcDbEntity
  8
0
 48
10.0
100
AcDbLine
 10
750.9236465086921
 20
322.3398272286531
 30
0.0
 11
749.9236465086921
 21
321.3398272286531
 31
0.0
  0
LINE
  5
2266
330
2
100
AcDbEntity
  8
0
 48
10.0
100
AcDbLine
 10
630.4236465086907
 20
336.3398272286531
 30
0.0
 11
632.4236465086913
 21
336.3398272286531
 31
0.0
  0
LINE
  5
226A
330
2
100
AcDbEntity
  8
0
 48
10.0
100
AcDbLine
 10
630.4236465086907
 20
336.3398272286531
 30
0.0
 11
630.4236465086907
 21
366.3398272286531
 31
0.0
  0
LINE
  5
2273
330
2
100
AcDbEntity
  8
0
 48
10.0
100
AcDbLine
 10
630.4236465086908
 20
366.3398272286531
 30
0.0
 11
632.4236465086913
 21
366.3398272286531
 31
0.0
  0
LINE
  5
256A
330
2
100
AcDbEntity
  8
0
 48
10.0
100
AcDbLine
 10
632.4236465086913
 20
392.8398272286531
 30
0.0
 11
681.4236465086913
 21
392.839827228653
 31
0.0
  0
LINE
  5
256C
330
2
100
AcDbEntity
  8
0
 48
10.0
100
AcDbLine
 10
632.4236465086913
 20
392.839827228653
 30
0.0
 11
632.4236465086913
 21
309.8398272286531
 31
0.0
  0
LINE
  5
258B
330
2
100
AcDbEntity
  8
0
 48
10.0
100
AcDbLine
 10
681.9236465086923
 20
385.4198272286532
 30
0.0
 11
681.4236465086913
 21
385.4198272286532
 31
0.0
  0
LINE
  5
2590
330
2
100
AcDbEntity
  8
0
 48
10.0
100
AcDbLine
 10
632.4236465086913
 20
309.8398272286532
 30
0.0
 11
681.4236465086913
 21
309.8398272286532
 31
0.0
  0
LINE
  5
2592
330
2
100
AcDbEntity
  8
0
 48
10.0
100
AcDbLine
 10
681.4236465086913
 20
309.8398272286531
 30
0.0
 11
681.4236465086913
 21
392.839827228653
 31
0.0
  0
LINE
  5
2594
330
2
100
AcDbEntity
  8
0
 48
10.0
100
AcDbLine
 10
681.9236465086922
 20
317.2598272286531
 30
0.0
 11
681.4236465086913
 21
317.2598272286531
 31
0.0
  0
LINE
  5
25D2
330
2
100
AcDbEntity
  8
0
 48
10.0
100
AcDbLine
 10
681.9236465086922
 20
311.3398272286531
 30
0.0
 11
708.9236465086924
 21
311.3398272286531
 31
0.0
  0
LINE
  5
25D3
330
2
100
AcDbEntity
  8
0
 48
10.0
100
AcDbLine
 10
710.9236465086923
 20
311.3398272286531
 30
0.0
 11
715.9236465086922
 21
311.3398272286531
 31
0.0
  0
LINE
  5
25D4
330
2
100
AcDbEntity
  8
0
 48
10.0
100
AcDbLine
 10
681.9236465086922
 20
391.3398272286531
 30
0.0
 11
708.9236465086923
 21
391.3398272286532
 31
0.0
  0
LINE
  5
25D5
330
2
100
AcDbEntity
  8
0
 48
10.0
100
AcDbLine
 10
710.9236465086926
 20
391.3398272286532
 30
0.0
 11
715.9236465086924
 21
391.3398272286532
 31
0.0
  0
LINE
  5
25D7
330
2
100
AcDbEntity
  8
0
 48
10.0
100
AcDbLine
 10
721.9236465086924
 20
387.8757256135153
 30
0.0
 11
721.9236465086922
 21
314.8039288437908
 31
0.0
  0
LINE
  5
25D9
330
2
100
AcDbEntity
  8
0
 48
10.0
100
AcDbLine
 10
681.9236465086922
 20
391.3398272286531
 30
0.0
 11
681.9236465086922
 21
311.3398272286531
 31
0.0
  0
LINE
  5
25E0
330
2
100
AcDbEntity
  8
0
 48
10.0
100
AcDbLine
 10
715.9236465086924
 20
391.3398272286531
 30
0.0
 11
721.9236465086924
 21
387.8757256135153
 31
0.0
  0
LINE
  5
25E1
330
2
100
AcDbEntity
  8
0
 48
10.0
100
AcDbLine
 10
715.9236465086922
 20
311.3398272286531
 30
0.0
 11
721.9236465086922
 21
314.8039288437908
 31
0.0
  0
LINE
  5
2636
330
2
100
AcDbEntity
  8
0
 48
10.0
100
AcDbLine
 10
709.9236465086923
 20
390.3398272286531
 30
0.0
 11
708.9236465086924
 21
391.3398272286532
 31
0.0
  0
LINE
  5
2637
330
2
100
AcDbEntity
  8
0
 48
10.0
100
AcDbLine
 10
709.9236465086923
 20
390.3398272286531
 30
0.0
 11
710.9236465086925
 21
391.3398272286531
 31
0.0
  0
LINE
  5
2638
330
2
100
AcDbEntity
  8
0
 48
10.0
100
AcDbLine
 10
709.9236465086923
 20
312.3398272286531
 30
0.0
 11
708.9236465086924
 21
311.3398272286531
 31
0.0
  0
LINE
  5
2639
330
2
100
AcDbEntity
  8
0
 48
10.0
100
AcDbLine
 10
709.9236465086923
 20
312.3398272286531
 30
0.0
 11
710.9236465086923
 21
311.3398272286531
 31
0.0
  0
LINE
  5
2792
330
2
100
AcDbEntity
  8
0
 48
10.0
100
AcDbLine
 10
572.4236465086907
 20
365.3398272286531
 30
0.0
 11
575.4236465086908
 21
365.3398272286531
 31
0.0
  0
LINE
  5
2793
330
2
100
AcDbEntity
  8
0
 48
10.0
100
AcDbLine
 10
625.4236465086908
 20
365.339827228653
 30
0.0
 11
630.4236465086908
 21
365.3398272286531
 31
0.0
  0
LINE
  5
2794
330
2
100
AcDbEntity
  8
0
 48
10.0
100
AcDbLine
 10
575.4236465086908
 20
368.3398272286531
 30
0.0
 11
625.4236465086908
 21
368.3398272286531
 31
0.0
  0
LINE
  5
2795
330
2
100
AcDbEntity
  8
0
 48
10.0
100
AcDbLine
 10
572.4236465086909
 20
337.3398272286529
 30
0.0
 11
630.4236465086908
 21
337.339827228653
 31
0.0
  0
LINE
  5
2796
330
2
100
AcDbEntity
  8
0
 48
10.0
100
AcDbLine
 10
575.4236465086908
 20
361.3398272286529
 30
0.0
 11
625.4236465086908
 21
361.3398272286531
 31
0.0
  0
LINE
  5
2797
330
2
100
AcDbEntity
  8
0
 48
10.0
100
AcDbLine
 10
625.4236465086908
 20
368.3398272286531
 30
0.0
 11
625.4236465086908
 21
361.3398272286531
 31
0.0
  0
LINE
  5
2798
330
2
100
AcDbEntity
  8
LINIE
 48
10.0
100
AcDbLine
 10
570.4236465086908
 20
356.339827228653
 30
0.0
 11
594.4236465086908
 21
356.339827228653
 31
0.0
  0
LINE
  5
2799
330
2
100
AcDbEntity
  8
0
 48
10.0
100
AcDbLine
 10
570.4236465086908
 20
355.4198272286531
 30
0.0
 11
604.4236465086908
 21
355.4198272286531
 31
0.0
  0
LINE
  5
279A
330
2
100
AcDbEntity
  8
LINIE
 48
10.0
100
AcDbLine
 10
570.4236465086908
 20
346.3398272286531
 30
0.0
 11
594.4236465086908
 21
346.3398272286531
 31
0.0
  0
LINE
  5
279B
330
2
100
AcDbEntity
  8
0
 48
10.0
100
AcDbLine
 10
570.4236465086908
 20
347.2598272286531
 30
0.0
 11
604.4236465086908
 21
347.2598272286531
 31
0.0
  0
LINE
  5
279C
330
2
100
AcDbEntity
  8
0
 48
10.0
100
AcDbLine
 10
570.4236465086908
 20
339.3398272286531
 30
0.0
 11
570.4236465086908
 21
363.3398272286531
 31
0.0
  0
LINE
  5
279D
330
2
100
AcDbEntity
  8
0
 48
10.0
100
AcDbLine
 10
594.4236465086908
 20
346.3398272286531
 30
0.0
 11
594.4236465086908
 21
356.339827228653
 31
0.0
  0
LINE
  5
279E
330
2
100
AcDbEntity
  8
0
 48
10.0
100
AcDbLine
 10
604.4236465086908
 20
347.2598272286531
 30
0.0
 11
604.4236465086907
 21
355.4198272286531
 31
0.0
  0
LINE
  5
279F
330
2
100
AcDbEntity
  8
0
 48
10.0
100
AcDbLine
 10
570.4236465086908
 20
339.3398272286531
 30
0.0
 11
572.4236465086907
 21
337.339827228653
 31
0.0
  0
LINE
  5
27A0
330
2
100
AcDbEntity
  8
0
 48
10.0
100
AcDbLine
 10
570.4236465086908
 20
363.3398272286531
 30
0.0
 11
572.4236465086907
 21
365.3398272286531
 31
0.0
  0
LINE
  5
27A1
330
2
100
AcDbEntity
  8
0
 48
10.0
100
AcDbLine
 10
604.4236465086908
 20
355.4198272286531
 30
0.0
 11
606.7792356069844
 21
351.3398272286531
 31
0.0
  0
LINE
  5
27A2
330
2
100
AcDbEntity
  8
0
 48
10.0
100
AcDbLine
 10
575.4236465086907
 20
368.3398272286531
 30
0.0
 11
575.4236465086908
 21
361.3398272286531
 31
0.0
  0
LINE
  5
27A3
330
2
100
AcDbEntity
  8
0
 48
10.0
100
AcDbLine
 10
625.4236465086908
 20
365.3398272286531
 30
0.0
 11
625.4236465086908
 21
361.3398272286531
 31
0.0
  0
LINE
  5
27A4
330
2
100
AcDbEntity
  8
0
 48
10.0
100
AcDbLine
 10
604.4236465086908
 20
347.2598272286531
 30
0.0
 11
606.7792356069844
 21
351.3398272286531
 31
0.0
  0
SPLINE
  5
28DA
330
2
100
AcDbEntity
  8
LINIE
 48
10.0
100
AcDbSpline
210
0.0
220
0.0
230
1.0
 70
     8
 71
     3
 72
    10
 73
     6
 74
     4
 42
0.0000000001
 43
0.0000000001
 44
0.0000000001
 40
0.0
 40
0.0
 40
0.0
 40
0.0
 40
18.87642815912262
 40
45.80706849030514
 40
59.03854941500694
 40
59.03854941500694
 40
59.03854941500694
 40
59.03854941500694
 10
627.6368115531791
 20
365.3398272286531
 30
0.0
 10
627.2138227658067
 20
362.1998345240975
 30
0.0
 10
626.1873639362829
 20
354.5800740660194
 30
0.0
 10
621.2783551146014
 20
345.8508384967032
 30
0.0
 10
619.3151246991147
 20
339.4489429025169
 30
0.0
 10
618.6683350131865
 20
337.339827228653
 30
0.0
 11
627.6368115531791
 21
365.3398272286531
 31
0.0
 11
625.8953597867076
 21
356.0636625709574
 31
0.0
 11
620.7580766742673
 21
343.6168489472016
 31
0.0
 11
618.6683350131865
 21
337.339827228653
 31
0.0
  0
LINE
  5
2AFB
330
2
100
AcDbEntity
  8
MITTE
 48
10.0
100
AcDbLine
 10
934.1530275223478
 20
351.3398272286531
 30
0.0
 11
1026.58868717272
 21
351.3398272286531
 31
0.0
  0
LINE
  5
2AFC
330
2
100
AcDbEntity
  8
MITTE
 48
10.0
100
AcDbLine
 10
980.370857347534
 20
397.5576570538392
 30
0.0
 11
980.370857347534
 21
305.121997403467
 31
0.0
  0
LINE
  5
2AFD
330
2
100
AcDbEntity
  8
0
 48
10.0
100
AcDbLine
 10
984.3708573475339
 20
368.3398272286531
 30
0.0
 11
984.3708573475339
 21
364.7562350936519
 31
0.0
  0
LINE
  5
2AFE
330
2
100
AcDbEntity
  8
0
 48
10.0
100
AcDbLine
 10
976.3708573475339
 20
368.3398272286531
 30
0.0
 11
976.3708573475339
 21
364.7562350936519
 31
0.0
  0
LINE
  5
2AFF
330
2
100
AcDbEntity
  8
0
 48
10.0
100
AcDbLine
 10
1017.870857347534
 20
369.1162160632843
 30
0.0
 11
1017.870857347534
 21
333.5634383940219
 31
0.0
  0
LINE
  5
2B00
330
2
100
AcDbEntity
  8
0
 48
10.0
100
AcDbLine
 10
942.870857347534
 20
369.1162160632844
 30
0.0
 11
942.870857347534
 21
333.5634383940219
 31
0.0
  0
CIRCLE
  5
2B01
330
2
100
AcDbEntity
  8
0
 48
10.0
100
AcDbCircle
 10
980.370857347534
 20
351.3398272286531
 30
0.0
 40
41.5
  0
CIRCLE
  5
2B02
330
2
100
AcDbEntity
  8
0
 48
10.0
100
AcDbCircle
 10
980.370857347534
 20
351.3398272286531
 30
0.0
 40
31.0
  0
CIRCLE
  5
2B03
330
2
100
AcDbEntity
  8
MITTE
 48
10.0
100
AcDbCircle
 10
980.370857347534
 20
351.3398272286531
 30
0.0
 40
36.5
  0
LINE
  5
2B04
330
2
100
AcDbEntity
  8
MITTE
 48
10.0
100
AcDbLine
 10
980.370857347534
 20
351.3398272286531
 30
0.0
 11
940.3450426111367
 21
374.4487421412461
 31
0.0
  0
LINE
  5
2B05
330
2
100
AcDbEntity
  8
MITTE
 48
10.0
100
AcDbLine
 10
980.370857347534
 20
351.3398272286531
 30
0.0
 11
1020.396672083931
 21
374.4487421412461
 31
0.0
  0
LINE
  5
2B06
330
2
100
AcDbEntity
  8
MITTE
 48
10.0
100
AcDbLine
 10
980.370857347534
 20
351.3398272286531
 30
0.0
 11
940.3450426111367
 21
328.2309123160601
 31
0.0
  0
LINE
  5
2B07
330
2
100
AcDbEntity
  8
MITTE
 48
10.0
100
AcDbLine
 10
980.370857347534
 20
351.3398272286531
 30
0.0
 11
1020.396672083931
 21
328.2309123160601
 31
0.0
  0
ARC
  5
2B08
330
2
100
AcDbEntity
  8
LINIE
 48
10.0
100
AcDbCircle
 10
980.370857347534
 20
387.8398272286531
 30
0.0
 40
3.0
100
AcDbArc
 50
174.9453636882729
 51
117.2761063251563
  0
CIRCLE
  5
2B09
330
2
100
AcDbEntity
  8
0
 48
10.0
100
AcDbCircle
 10
980.370857347534
 20
387.8398272286531
 30
0.0
 40
2.35
  0
ARC
  5
2B0A
330
2
100
AcDbEntity
  8
LINIE
 48
10.0
100
AcDbCircle
 10
948.7609301094019
 20
369.5898272286531
 30
0.0
 40
3.0
100
AcDbArc
 50
219.0912463645152
 51
180.6971457353703
  0
CIRCLE
  5
2B0B
330
2
100
AcDbEntity
  8
0
 48
10.0
100
AcDbCircle
 10
948.7609301094019
 20
369.5898272286531
 30
0.0
 40
2.35
  0
ARC
  5
2B0C
330
2
100
AcDbEntity
  8
LINIE
 48
10.0
100
AcDbCircle
 10
1011.980784585666
 20
369.5898272286531
 30
0.0
 40
3.0
100
AcDbArc
 50
106.2042382576031
 51
55.56388735104441
  0
CIRCLE
  5
2B0D
330
2
100
AcDbEntity
  8
0
 48
10.0
100
AcDbCircle
 10
1011.980784585666
 20
369.5898272286531
 30
0.0
 40
2.35
  0
ARC
  5
2B0E
330
2
100
AcDbEntity
  8
LINIE
 48
10.0
100
AcDbCircle
 10
980.370857347534
 20
314.8398272286532
 30
0.0
 40
3.0
100
AcDbArc
 50
242.7238936748437
 51
185.0546363117271
  0
CIRCLE
  5
2B0F
330
2
100
AcDbEntity
  8
0
 48
10.0
100
AcDbCircle
 10
980.370857347534
 20
314.8398272286532
 30
0.0
 40
2.35
  0
ARC
  5
2B10
330
2
100
AcDbEntity
  8
LINIE
 48
10.0
100
AcDbCircle
 10
948.7609301094019
 20
333.0898272286532
 30
0.0
 40
3.0
100
AcDbArc
 50
179.3028542646296
 51
140.9087536354847
  0
CIRCLE
  5
2B11
330
2
100
AcDbEntity
  8
0
 48
10.0
100
AcDbCircle
 10
948.7609301094019
 20
333.0898272286532
 30
0.0
 40
2.35
  0
ARC
  5
2B12
330
2
100
AcDbEntity
  8
LINIE
 48
10.0
100
AcDbCircle
 10
1011.980784585666
 20
333.0898272286532
 30
0.0
 40
3.0
100
AcDbArc
 50
304.4361126489556
 51
253.7957617423969
  0
CIRCLE
  5
2B13
330
2
100
AcDbEntity
  8
0
 48
10.0
100
AcDbCircle
 10
1011.980784585666
 20
333.0898272286532
 30
0.0
 40
2.35
  0
LINE
  5
2B1A
330
2
100
AcDbEntity
  8
MITTE
 48
10.0
100
AcDbLine
 10
980.370857347534
 20
351.3398272286531
 30
0.0
 11
959.6208573475339
 21
387.2798814857073
 31
0.0
  0
LINE
  5
2B1B
330
2
100
AcDbEntity
  8
LINIE
  6
HIDDEN
 48
6.0
100
AcDbLine
 10
962.2732214426058
 20
388.6858521128715
 30
0.0
 11
963.9689335588872
 21
385.7487925724618
 31
0.0
  0
LINE
  5
2B1C
330
2
100
AcDbEntity
  8
LINIE
  6
HIDDEN
 48
6.0
100
AcDbLine
 10
957.0770690198992
 20
385.6858521128714
 30
0.0
 11
958.7727811361805
 21
382.7487925724618
 31
0.0
  0
LINE
  5
2B1D
330
2
100
AcDbEntity
  8
LINIE
  6
HIDDEN
 48
6.0
100
AcDbLine
 10
958.7727811361805
 20
382.7487925724618
 30
0.0
 11
963.9689335588872
 21
385.7487925724618
 31
0.0
  0
CIRCLE
  5
2B21
330
2
100
AcDbEntity
  8
0
 48
10.0
100
AcDbCircle
 10
980.370857347534
 20
351.3398272286531
 30
0.0
 40
12.0
  0
CIRCLE
  5
2B22
330
2
100
AcDbEntity
  8
0
 48
10.0
100
AcDbCircle
 10
980.370857347534
 20
351.3398272286531
 30
0.0
 40
14.00000000000004
  0
LINE
  5
2B23
330
2
100
AcDbEntity
  8
0
 48
10.0
100
AcDbLine
 10
976.3708573475339
 20
368.3398272286531
 30
0.0
 11
984.3708573475339
 21
368.3398272286531
 31
0.0
  0
CIRCLE
  5
2B24
330
2
100
AcDbEntity
  8
0
 48
10.0
100
AcDbCircle
 10
980.370857347534
 20
351.3398272286531
 30
0.0
 40
4.079999999999984
  0
ARC
  5
2B25
330
2
100
AcDbEntity
  8
LINIE
 48
10.0
100
AcDbCircle
 10
980.370857347534
 20
351.3398272286531
 30
0.0
 40
5.0
100
AcDbArc
 50
173.4014182417629
 51
110.4717490542393
  0
LINE
  5
2E03
330
2
100
AcDbEntity
  8
0
 48
10.0
100
AcDbLine
 10
647.4236465086914
 20
369.1162160632843
 30
0.0
 11
647.4236465086914
 21
333.5634383940219
 31
0.0
  0
LINE
  5
2E04
330
2
100
AcDbEntity
  8
LINIE
  6
HIDDEN
 48
15.0
100
AcDbLine
 10
634.9236465086914
 20
382.3398272286531
 30
0.0
 11
634.9236465086914
 21
320.3398272286531
 31
0.0
  0
LINE
  5
2E05
330
2
100
AcDbEntity
  8
LINIE
  6
HIDDEN
 48
8.0
100
AcDbLine
 10
632.4236465086913
 20
320.3398272286531
 30
0.0
 11
634.9236465086914
 21
320.3398272286531
 31
0.0
  0
LINE
  5
2E06
330
2
100
AcDbEntity
  8
LINIE
  6
HIDDEN
 48
8.0
100
AcDbLine
 10
632.4236465086913
 20
382.3398272286531
 30
0.0
 11
634.9236465086914
 21
382.3398272286531
 31
0.0
  0
LINE
  5
2E07
330
2
100
AcDbEntity
  8
LINIE
  6
HIDDEN
 48
12.0
100
AcDbLine
 10
640.4251197341185
 20
385.6858521128714
 30
0.0
 11
659.4251197341185
 21
385.6858521128714
 31
0.0
  0
LINE
  5
2E08
330
2
100
AcDbEntity
  8
LINIE
  6
HIDDEN
 48
12.0
100
AcDbLine
 10
640.4251197341185
 20
388.6858521128715
 30
0.0
 11
659.4251197341185
 21
388.6858521128715
 31
0.0
  0
ELLIPSE
  5
2E09
330
2
100
AcDbEntity
  8
LINIE
  6
HIDDEN
 48
12.0
100
AcDbEllipse
 10
659.4221732832643
 20
387.1858521128714
 30
0.0
 11
-3.001473225427125
 21
0.0
 31
0.0
210
0.0
220
0.0
230
1.0
 40
0.4997545829470456
 41
1.570796326794896
 42
4.712388980384689
  0
ELLIPSE
  5
2E0A
330
2
100
AcDbEntity
  8
LINIE
  6
HIDDEN
 48
12.0
100
AcDbEllipse
 10
640.4251197341185
 20
387.1858521128714
 30
0.0
 11
-3.001473225427125
 21
0.0
 31
0.0
210
0.0
220
0.0
230
1.0
 40
0.4997545829470456
 41
4.712388980384689
 42
7.853981633974482
  0
LINE
  5
2E0B
330
2
100
AcDbEntity
  8
0
 48
10.0
100
AcDbLine
 10
647.4236465086914
 20
369.1162160632843
 30
0.0
 11
632.4236465086913
 21
369.1162160632843
 31
0.0
  0
LINE
  5
2E0C
330
2
100
AcDbEntity
  8
0
 48
10.0
100
AcDbLine
 10
647.4236465086914
 20
333.5634383940219
 30
0.0
 11
632.4236465086913
 21
333.5634383940219
 31
0.0
  0
LINE
  5
2E0D
330
2
100
AcDbEntity
  8
LINIE
 48
10.0
100
AcDbLine
 10
647.4236465086914
 20
369.1162160632843
 30
0.0
 11
632.4236465086913
 21
333.5634383940219
 31
0.0
  0
LINE
  5
2E0E
330
2
100
AcDbEntity
  8
LINIE
 48
10.0
100
AcDbLine
 10
632.4236465086913
 20
369.1162160632843
 30
0.0
 11
647.4236465086914
 21
333.5634383940219
 31
0.0
  0
LINE
  5
2E0F
330
2
100
AcDbEntity
  8
0
 48
10.0
100
AcDbLine
 10
709.9236465086924
 20
390.3398272286531
 30
0.0
 11
709.9236465086923
 21
312.3398272286528
 31
0.0
  0
LINE
  5
2E10
330
2
100
AcDbEntity
  8
0
 48
10.0
100
AcDbLine
 10
715.9236465086924
 20
391.3398272286531
 30
0.0
 11
715.9236465086924
 21
370.7047439596901
 31
0.0
  0
LINE
  5
2E11
330
2
100
AcDbEntity
  8
0
 48
10.0
100
AcDbLine
 10
715.9236465086924
 20
331.974910497616
 30
0.0
 11
715.9236465086924
 21
311.3398272286531
 31
0.0
  0
LINE
  5
2E12
330
2
100
AcDbEntity
  8
0
 48
10.0
100
AcDbLine
 10
709.9236465086923
 20
370.7047439596901
 30
0.0
 11
715.9236465086924
 21
370.7047439596901
 31
0.0
  0
LINE
  5
2E13
330
2
100
AcDbEntity
  8
0
 48
10.0
100
AcDbLine
 10
709.9236465086923
 20
331.974910497616
 30
0.0
 11
715.9236465086924
 21
331.974910497616
 31
0.0
  0
ELLIPSE
  5
2E14
330
2
100
AcDbEntity
  8
0
 48
10.0
100
AcDbEllipse
 10
715.9236465086924
 20
351.3398272286531
 30
0.0
 11
0.0
 21
19.36491673103708
 31
0.0
210
0.0
220
0.0
230
1.0
 40
0.3697252777809217
 41
3.141592653589793
 42
4.135244317630075
  0
ELLIPSE
  5
2E15
330
2
100
AcDbEntity
  8
0
 48
10.0
100
AcDbEllipse
 10
715.9236465086924
 20
351.3398272286531
 30
0.0
 11
0.0
 21
19.36491673103708
 31
0.0
210
0.0
220
0.0
230
1.0
 40
0.3697252777809217
 41
5.289533643139293
 42
6.283185307179586
  0
LINE
  5
2E16
330
2
100
AcDbEntity
  8
LINIE
 48
10.0
100
AcDbLine
 10
709.9236465086923
 20
331.974910497616
 30
0.0
 11
721.9236465086924
 21
361.9059710956602
 31
0.0
  0
LINE
  5
2E17
330
2
100
AcDbEntity
  8
LINIE
 48
10.0
100
AcDbLine
 10
709.9236465086923
 20
370.7047439596901
 30
0.0
 11
721.9236465086924
 21
340.7736833616457
 31
0.0
  0
LINE
  5
2E18
330
2
100
AcDbEntity
  8
0
 48
10.0
100
AcDbLine
 10
710.9236465086925
 20
311.339827228653
 30
0.0
 11
710.9236465086925
 21
331.974910497616
 31
0.0
  0
LINE
  5
2E19
330
2
100
AcDbEntity
  8
0
 48
10.0
100
AcDbLine
 10
710.9236465086925
 20
370.7047439596901
 30
0.0
 11
710.9236465086925
 21
391.3398272286531
 31
0.0
  0
LINE
  5
2E1A
330
2
100
AcDbEntity
  8
0
 48
10.0
100
AcDbLine
 10
708.9236465086924
 20
311.339827228653
 30
0.0
 11
708.9236465086924
 21
391.3398272286531
 31
0.0
  0
LINE
  5
2E3C
330
2
100
AcDbEntity
  8
0
 48
10.0
100
AcDbLine
 10
749.9236465086921
 20
321.3398272286531
 30
0.0
 11
749.9236465086921
 21
381.3398272286531
 31
0.0
  0
LINE
  5
2E3D
330
2
100
AcDbEntity
  8
0
 48
10.0
100
AcDbLine
 10
750.9236465086921
 20
322.3398272286529
 30
0.0
 11
750.9236465086921
 21
380.3398272286531
 31
0.0
  0
LINE
  5
2E3E
330
2
100
AcDbEntity
  8
0
 48
10.0
100
AcDbLine
 10
751.9236465086922
 20
321.3398272286529
 30
0.0
 11
751.9236465086922
 21
339.3502484203714
 31
0.0
  0
LINE
  5
2E3F
330
2
100
AcDbEntity
  8
0
 48
10.0
100
AcDbLine
 10
751.9236465086922
 20
363.329406036935
 30
0.0
 11
751.9236465086922
 21
381.3398272286531
 31
0.0
  0
LINE
  5
2E40
330
2
100
AcDbEntity
  8
0
 48
10.0
100
AcDbLine
 10
767.9236465086922
 20
321.3398272286531
 30
0.0
 11
767.9236465086922
 21
339.3502484203714
 31
0.0
  0
LINE
  5
2E41
330
2
100
AcDbEntity
  8
0
 48
10.0
100
AcDbLine
 10
767.9236465086922
 20
363.329406036935
 30
0.0
 11
767.9236465086922
 21
381.3398272286531
 31
0.0
  0
LINE
  5
2E42
330
2
100
AcDbEntity
  8
0
 48
10.0
100
AcDbLine
 10
768.9236465086922
 20
322.3398272286529
 30
0.0
 11
768.9236465086922
 21
380.3398272286531
 31
0.0
  0
LINE
  5
2E43
330
2
100
AcDbEntity
  8
0
 48
10.0
100
AcDbLine
 10
769.9236465086921
 20
321.3398272286529
 30
0.0
 11
769.9236465086921
 21
381.3398272286531
 31
0.0
  0
LINE
  5
2E44
330
2
100
AcDbEntity
  8
0
 48
10.0
100
AcDbLine
 10
768.9236465086922
 20
363.3294060369349
 30
0.0
 11
750.9236465086921
 21
363.3294060369349
 31
0.0
  0
LINE
  5
2E45
330
2
100
AcDbEntity
  8
0
 48
10.0
100
AcDbLine
 10
768.9236465086922
 20
339.3502484203712
 30
0.0
 11
750.9236465086921
 21
339.3502484203712
 31
0.0
  0
LINE
  5
2E46
330
2
100
AcDbEntity
  8
LINIE
 48
10.0
100
AcDbLine
 10
750.9236465086921
 20
339.3502484203712
 30
0.0
 11
768.9236465086922
 21
363.3294060369349
 31
0.0
  0
LINE
  5
2E47
330
2
100
AcDbEntity
  8
LINIE
 48
10.0
100
AcDbLine
 10
750.9236465086921
 20
363.3294060369349
 30
0.0
 11
768.9236465086922
 21
339.3502484203712
 31
0.0
  0
HATCH
  5
3080
330
2
100
AcDbEntity
  8
SCHRAFF
 48
10.0
100
AcDbHatch
 10
0.0
 20
0.0
 30
0.0
210
0.0
220
0.0
230
1.0
  2
ANSI31
 70
     0
 71
     0
 91
        2
 92
        5
 93
       11
 72
     4
 94
        3
 73
     0
 74
     0
 95
        9
 96
        5
 40
0.0
 40
0.0
 40
0.0
 40
0.0
 40
10.12505964714341
 40
29.00148780626603
 40
29.00148780626603
 40
29.00148780626603
 40
29.00148780626603
 10
624.130576208533
 20
351.3398272286531
 10
624.7987804434017
 20
352.8908194983886
 10
626.5639485387675
 20
357.3755923864809
 10
627.2138227658067
 20
362.1998345240975
 10
627.6368115531791
 20
365.3398272286531
 72
     1
 10
627.6368115531791
 20
365.339827228653
 11
625.4236465086908
 21
365.339827228653
 72
     1
 10
625.4236465086908
 20
365.339827228653
 11
625.4236465086908
 21
361.3398272286531
 72
     1
 10
625.4236465086908
 20
361.3398272286531
 11
575.4236465086908
 21
361.3398272286529
 72
     1
 10
575.4236465086908
 20
361.3398272286529
 11
575.4236465086908
 21
365.339827228653
 72
     1
 10
575.4236465086908
 20
365.339827228653
 11
572.4236465086907
 21
365.339827228653
 72
     1
 10
572.4236465086907
 20
365.3398272286531
 11
570.4236465086908
 21
363.339827228653
 72
     1
 10
570.4236465086908
 20
363.339827228653
 11
570.4236465086908
 21
355.4198272286531
 72
     1
 10
570.4236465086908
 20
355.4198272286531
 11
604.4236465086908
 21
355.4198272286531
 72
     1
 10
604.4236465086908
 20
355.4198272286531
 11
606.7792356069845
 21
351.3398272286531
 72
     1
 10
606.7792356069844
 20
351.3398272286531
 11
624.1305762085329
 21
351.3398272286531
 97
        0
 92
        5
 93
        7
 72
     4
 94
        3
 73
     0
 74
     0
 95
        9
 96
        5
 40
29.00148780626603
 40
29.00148780626603
 40
29.00148780626603
 40
29.00148780626603
 40
42.23296873096782
 40
59.03854941500694
 40
59.03854941500694
 40
59.03854941500694
 40
59.03854941500694
 10
618.6683350131865
 20
337.339827228653
 10
619.3151246991147
 20
339.4489429025169
 10
620.7834154939762
 20
344.2368905099189
 10
623.0214903785379
 20
348.7654892358182
 10
624.130576208533
 20
351.3398272286531
 72
     1
 10
624.130576208533
 20
351.3398272286531
 11
606.7792356069847
 21
351.3398272286531
 72
     1
 10
606.7792356069845
 20
351.3398272286531
 11
604.4236465086908
 21
347.2598272286531
 72
     1
 10
604.4236465086908
 20
347.2598272286531
 11
570.4236465086908
 21
347.2598272286531
 72
     1
 10
570.4236465086908
 20
347.2598272286531
 11
570.4236465086908
 21
339.3398272286531
 72
     1
 10
570.4236465086908
 20
339.3398272286531
 11
572.423646508691
 21
337.3398272286529
 72
     1
 10
572.4236465086909
 20
337.3398272286529
 11
618.6683350131865
 21
337.339827228653
 97
        0
 75
     0
 76
     1
 52
90.0
 41
12.5
 77
     0
 78
     1
 53
135.0
 43
522.4236465086916
 44
175.9886301592441
 45
-1.10485434560398
 46
-1.10485434560398
 79
     0
 47
0.2199429360659828
 98
        2
 10
613.16616334014
 20
358.7155349125207
 10
613.3861876882868
 20
347.2785020767276
1001
ACAD
1010
0.0
1020
0.0
1030
0.0
  0
LINE
  5
3311
330
2
100
AcDbEntity
  8
MITTE
 48
10.0
100
AcDbLine
 10
465.1893532906816
 20
351.3398272286531
 30
0.0
 11
555.1146473372827
 21
351.3398272286531
 31
0.0
  0
LINE
  5
3312
330
2
100
AcDbEntity
  8
MITTE
 48
10.0
100
AcDbLine
 10
510.1520003139821
 20
396.3024742519536
 30
0.0
 11
510.1520003139821
 21
306.3771802053526
 31
0.0
  0
LINE
  5
3313
330
2
100
AcDbEntity
  8
0
 48
10.0
100
AcDbLine
 10
475.1520003139821
 20
370.7047439596902
 30
0.0
 11
475.1520003139821
 21
331.9749104976161
 31
0.0
  0
ARC
  5
3331
330
2
100
AcDbEntity
  8
0
 48
10.0
100
AcDbCircle
 10
510.1520003139821
 20
351.3398272286531
 30
0.0
 40
36.23307590279808
100
AcDbArc
 50
14.99061125989432
 51
165.0093887401056
  0
ARC
  5
3332
330
2
100
AcDbEntity
  8
0
 48
10.0
100
AcDbCircle
 10
510.1520003139821
 20
351.3398272286531
 30
0.0
 40
36.23307590279808
100
AcDbArc
 50
194.9906112598943
 51
345.0093887401057
  0
CIRCLE
  5
3333
330
2
100
AcDbEntity
  8
0
 48
10.0
100
AcDbCircle
 10
510.1520003139821
 20
351.3398272286531
 30
0.0
 40
40.0
  0
CIRCLE
  5
3334
330
2
100
AcDbEntity
  8
0
 48
10.0
100
AcDbCircle
 10
510.1520003139821
 20
351.3398272286531
 30
0.0
 40
41.49999999999991
  0
LINE
  5
33E9
330
2
100
AcDbEntity
  8
0
 48
10.0
100
AcDbLine
 10
545.1520003139822
 20
370.7047439596902
 30
0.0
 11
545.1520003139822
 21
331.9749104976161
 31
0.0
  0
LINE
  5
3719
330
2
100
AcDbEntity
  8
0
 48
10.0
100
AcDbLine
 10
789.423646508692
 20
321.3398272286544
 30
0.0
 11
789.423646508692
 21
381.3398272286544
 31
0.0
  0
LINE
  5
371A
330
2
100
AcDbEntity
  8
0
 48
10.0
100
AcDbLine
 10
806.9236465086923
 20
323.6492283054124
 30
0.0
 11
806.9236465086918
 21
379.0304261518962
 31
0.0
  0
LINE
  5
371B
330
2
100
AcDbEntity
  8
0
 48
10.0
100
AcDbLine
 10
789.4236465086922
 20
321.3398272286545
 30
0.0
 11
802.9236465086921
 21
321.3398272286544
 31
0.0
  0
LINE
  5
371C
330
2
100
AcDbEntity
  8
0
 48
10.0
100
AcDbLine
 10
802.9236465086921
 20
381.3398272286545
 30
0.0
 11
806.9236465086918
 21
379.0304261518962
 31
0.0
  0
LINE
  5
371D
330
2
100
AcDbEntity
  8
0
 48
10.0
100
AcDbLine
 10
802.9236465086921
 20
321.3398272286544
 30
0.0
 11
806.9236465086923
 21
323.6492283054124
 31
0.0
  0
LINE
  5
371E
330
2
100
AcDbEntity
  8
0
 48
10.0
100
AcDbLine
 10
802.9236465086921
 20
381.3398272286545
 30
0.0
 11
802.9236465086933
 21
363.3294060369382
 31
0.0
  0
LINE
  5
371F
330
2
100
AcDbEntity
  8
0
 48
10.0
100
AcDbLine
 10
802.9236465086981
 20
339.3502484203722
 30
0.0
 11
802.9236465086993
 21
321.3398272286586
 31
0.0
  0
LINE
  5
3720
330
2
100
AcDbEntity
  8
0
 48
10.0
100
AcDbLine
 10
802.9236465086935
 20
363.3294060369382
 30
0.0
 11
789.423646508692
 21
363.3294060369381
 31
0.0
  0
LINE
  5
3721
330
2
100
AcDbEntity
  8
0
 48
10.0
100
AcDbLine
 10
802.9236465086977
 20
339.3502484203681
 30
0.0
 11
789.423646508692
 21
339.3502484203681
 31
0.0
  0
ELLIPSE
  5
3722
330
2
100
AcDbEntity
  8
0
 48
10.0
100
AcDbEllipse
 10
802.9236465086956
 20
351.3398272286551
 30
0.0
 11
-0.0000000000024869
 21
11.98957880828295
 31
0.0
210
0.0
220
0.0
230
1.0
 40
0.3459304986140034
 41
3.141592653589793
 42
4.444841755327501
  0
ELLIPSE
  5
3723
330
2
100
AcDbEntity
  8
0
 48
10.0
100
AcDbEllipse
 10
802.9236465086956
 20
351.3398272286551
 30
0.0
 11
-0.0000000000024869
 21
11.98957880828295
 31
0.0
210
0.0
220
0.0
230
1.0
 40
0.3459304986140034
 41
4.979936205440731
 42
6.283185307179586
  0
LINE
  5
3724
330
2
100
AcDbEntity
  8
LINIE
 48
10.0
100
AcDbLine
 10
789.423646508692
 20
339.3502484203681
 30
0.0
 11
805.3181414764097
 21
361.1294827098928
 31
0.0
  0
LINE
  5
3725
330
2
100
AcDbEntity
  8
LINIE
 48
10.0
100
AcDbLine
 10
789.423646508692
 20
363.3294060369381
 30
0.0
 11
805.3181414764107
 21
341.5501717474123
 31
0.0
  0
LINE
  5
3726
330
2
100
AcDbEntity
  8
0
 48
10.0
100
AcDbLine
 10
789.4236465086923
 20
381.3398272286544
 30
0.0
 11
802.9236465086921
 21
381.3398272286544
 31
0.0
  0
LINE
  5
3729
330
2
100
AcDbEntity
  8
0
 48
10.0
100
AcDbLine
 10
808.1236465086917
 20
379.3398272286531
 30
0.0
 11
923.6236465086918
 21
379.3398272286531
 31
0.0
  0
LINE
  5
372A
330
2
100
AcDbEntity
  8
0
 48
10.0
100
AcDbLine
 10
808.1236465086922
 20
323.3398272286531
 30
0.0
 11
923.6236465086921
 21
323.3398272286531
 31
0.0
  0
LINE
  5
372B
330
2
100
AcDbEntity
  8
0
 48
10.0
100
AcDbLine
 10
808.1236465086922
 20
323.3398272286531
 30
0.0
 11
808.1236465086918
 21
379.3398272286531
 31
0.0
  0
LINE
  5
372C
330
2
100
AcDbEntity
  8
0
 48
10.0
100
AcDbLine
 10
806.923646508692
 20
375.4198272286532
 30
0.0
 11
808.123646508692
 21
375.4198272286532
 31
0.0
  0
LINE
  5
372D
330
2
100
AcDbEntity
  8
0
 48
10.0
100
AcDbLine
 10
806.9236465086923
 20
327.2598272286531
 30
0.0
 11
808.1236465086922
 21
327.2598272286531
 31
0.0
  0
LINE
  5
372F
330
2
100
AcDbEntity
  8
0
 48
10.0
100
AcDbLine
 10
887.6236465086922
 20
323.3398272286531
 30
0.0
 11
887.6236465086916
 21
379.3398272286531
 31
0.0
  0
LINE
  5
3730
330
2
100
AcDbEntity
  8
0
 48
10.0
100
AcDbLine
 10
923.6236465086921
 20
323.3398272286534
 30
0.0
 11
923.6236465086918
 21
379.3398272286534
 31
0.0
  0
TEXT
  5
3C8F
330
2
100
AcDbEntity
  8
0
 48
10.0
100
AcDbText
 10
530.2815240171786
 20
353.7543051829689
 30
0.0
 40
2.5
  1
R
100
AcDbText
  0
ARC
  5
3C90
330
2
100
AcDbEntity
  8
LINIE
100
AcDbCircle
 10
522.6520003139821
 20
361.828572618369
 30
0.0
 40
6.5785
100
AcDbArc
 50
173.2173685762129
 51
98.43370980862285
  0
LINE
  5
3C91
330
2
100
AcDbEntity
  8
MITTE
 48
10.0
100
AcDbLine
 10
515.3383997059949
 20
361.8398272286531
 30
0.0
 11
530.5658888839499
 21
361.8398272286531
 31
0.0
  0
CIRCLE
  5
3C92
330
2
100
AcDbEntity
  8
0
100
AcDbCircle
 10
522.6520003139821
 20
361.828572618369
 30
0.0
 40
5.7225
  0
LINE
  5
3C93
330
2
100
AcDbEntity
  8
MITTE
 48
10.0
100
AcDbLine
 10
522.6520003139821
 20
369.2892612108998
 30
0.0
 11
522.6520003139821
 21
354.0798037088839
 31
0.0
  0
CIRCLE
  5
3C9E
330
2
100
AcDbEntity
  8
0
 48
10.0
100
AcDbCircle
 10
510.1520003139821
 20
351.3398272286531
 30
0.0
 40
28.0
  0
CIRCLE
  5
3C9F
330
2
100
AcDbEntity
  8
0
 48
10.0
100
AcDbCircle
 10
510.1520003139821
 20
351.3398272286531
 30
0.0
 40
30.0
  0
LINE
  5
3CA0
330
2
100
AcDbEntity
  8
0
 48
10.0
100
AcDbLine
 10
537.6520003139821
 20
363.3294060369349
 30
0.0
 11
537.6520003139821
 21
356.6076541050795
 31
0.0
  0
LINE
  5
3CA1
330
2
100
AcDbEntity
  8
0
 48
10.0
100
AcDbLine
 10
482.6520003139822
 20
363.3294060369349
 30
0.0
 11
482.6520003139822
 21
356.6076541050795
 31
0.0
  0
LINE
  5
3CA2
330
2
100
AcDbEntity
  8
0
 48
10.0
100
AcDbLine
 10
482.6520003139822
 20
346.0720003522268
 30
0.0
 11
482.6520003139822
 21
339.3502484203713
 31
0.0
  0
LINE
  5
3CA3
330
2
100
AcDbEntity
  8
0
 48
10.0
100
AcDbLine
 10
537.6520003139821
 20
346.0720003522267
 30
0.0
 11
537.6520003139821
 21
339.3502484203714
 31
0.0
  0
LINE
  5
3CE5
330
2
100
AcDbEntity
  8
MITTE
 48
10.0
100
AcDbLine
 10
519.7867883563343
 20
335.8398272286531
 30
0.0
 11
500.4742308477683
 21
335.8398272286531
 31
0.0
  0
CIRCLE
  5
3CE6
330
2
100
AcDbEntity
  8
0
100
AcDbCircle
 10
510.1520003139821
 20
335.8398272286531
 30
0.0
 40
7.474999999999999
  0
ARC
  5
3CE7
330
2
100
AcDbEntity
  8
LINIE
100
AcDbCircle
 10
510.1520003139821
 20
335.8398272286531
 30
0.0
 40
8.330999999999999
100
AcDbArc
 50
172.4006678027592
 51
105.3648577620552
  0
ENDSEC
  0
SECTION
  2
OBJECTS
  0
DICTIONARY
  5
1B
330
0
100
AcDbDictionary
281
     1
  3
ACAD_2007HEADERVARS_RT
350
4D73
  3
ACAD_COLOR
350
5F
  3
ACAD_GROUP
350
19
  3
ACAD_LAYOUT
350
60
  3
ACAD_MATERIAL
350
5E
  3
ACAD_MLEADERSTYLE
350
3E1A
  3
ACAD_MLINESTYLE
350
1A
  3
ACAD_PLOTSETTINGS
350
61
  3
ACAD_PLOTSTYLENAME
350
5C
  3
ACAD_SCALELIST
350
3DF8
  3
ACAD_TABLESTYLE
350
141
  3
ACAD_VISUALSTYLE
350
5D2
  3
ACDB_RECOMPOSE_DATA
350
4D72
  3
ACDBVARIABLEDICTIONARY
350
4D
  3
AcmDictionary
350
BC
  3
AMG
350
68
  3
AMGSNAPSETTINGS
350
F9
  3
ASE_INDEX_DICTIONARY
350
3F00
  0
DICTIONARY
  5
3EF1
330
5
100
AcDbDictionary
280
     1
281
     1
  3
ADSK_XREC_LAYER_RECONCILED
360
3EF2
  0
DICTIONARY
  5
3EF3
330
AE8
100
AcDbDictionary
280
     1
281
     1
  3
ADSK_XREC_LAYER_RECONCILED
360
3EF4
  0
DICTIONARY
  5
3EF5
330
AE9
100
AcDbDictionary
280
     1
281
     1
  3
ADSK_XREC_LAYER_RECONCILED
360
3EF6
  0
DICTIONARY
  5
3EF7
330
AEA
100
AcDbDictionary
280
     1
281
     1
  3
ADSK_XREC_LAYER_RECONCILED
360
3EF8
  0
DICTIONARY
  5
3
330
2
100
AcDbDictionary
280
     1
281
     1
  3
ACAD_SORTENTS
360
61C
  0
DICTIONARY
  5
4D73
102
{ACAD_REACTORS
330
1B
102
}
330
1B
100
AcDbDictionary
281
     1
  3
DIMJOGANG
350
4D74
  0
DICTIONARY
  5
5F
102
{ACAD_REACTORS
330
1B
102
}
330
1B
100
AcDbDictionary
281
     1
  0
DICTIONARY
  5
19
102
{ACAD_REACTORS
330
1B
102
}
330
1B
100
AcDbDictionary
281
     1
  0
DICTIONARY
  5
60
102
{ACAD_REACTORS
330
1B
102
}
330
1B
100
AcDbDictionary
281
     1
  3
Layout1
350
63
  3
Model
350
62
  0
DICTIONARY
  5
5E
102
{ACAD_REACTORS
330
1B
102
}
330
1B
100
AcDbDictionary
281
     1
  3
ByBlock
350
5D0
  3
ByLayer
350
5CF
  3
Global
350
5D1
  0
DICTIONARY
  5
3E1A
102
{ACAD_REACTORS
330
1B
102
}
330
1B
100
AcDbDictionary
281
     1
  3
Standard
350
3E1B
  0
DICTIONARY
  5
1A
102
{ACAD_REACTORS
330
1B
102
}
330
1B
100
AcDbDictionary
281
     1
  3
STANDARD
350
1D
  0
DICTIONARY
  5
61
102
{ACAD_REACTORS
330
1B
102
}
330
1B
100
AcDbDictionary
281
     1
  0
ACDBDICTIONARYWDFLT
  5
5C
102
{ACAD_REACTORS
330
1B
102
}
330
1B
100
AcDbDictionary
281
     1
  3
Normal
350
5D
100
AcDbDictionaryWithDefault
340
5D
  0
DICTIONARY
  5
3DF8
102
{ACAD_REACTORS
330
1B
102
}
330
1B
100
AcDbDictionary
281
     1
  3
A0
350
3DF9
  3
A1
350
3DFA
  3
A2
350
3DFB
  3
A3
350
3DFC
  3
A4
350
3DFD
  3
A5
350
3DFE
  3
A6
350
3DFF
  3
A7
350
3E00
  3
A8
350
3E01
  3
A9
350
3E02
  3
B0
350
3E03
  3
B1
350
3E04
  3
B2
350
3E05
  3
B3
350
3E06
  3
B4
350
3E07
  3
B5
350
3E08
  3
B6
350
3E09
  3
B7
350
3E0A
  3
B8
350
3E0B
  3
B9
350
3E0C
  3
C0
350
3E0D
  3
C1
350
3E0E
  3
C2
350
3E0F
  3
C3
350
3E10
  3
C4
350
3E11
  3
C5
350
3E12
  3
C6
350
3E13
  3
C7
350
3E14
  3
C8
350
3E15
  3
C9
350
3E16
  3
D0
350
3E17
  3
D1
350
3E18
  3
D2
350
3E19
  0
DICTIONARY
  5
141
102
{ACAD_REACTORS
330
1B
102
}
330
1B
100
AcDbDictionary
281
     1
  3
Standard
350
142
  0
DICTIONARY
  5
5D2
102
{ACAD_REACTORS
330
1B
102
}
330
1B
100
AcDbDictionary
281
     1
  3
2dWireframe
350
5D8
  3
3D Hidden
350
5DA
  3
3dWireframe
350
5D9
  3
Basic
350
5D7
  3
Brighten
350
5DE
  3
ColorChange
350
5E2
  3
Conceptual
350
5DB
  3
Dim
350
5DD
  3
Facepattern
350
5E1
  3
Flat
350
5D3
  3
FlatWithEdges
350
5D4
  3
Gouraud
350
5D5
  3
GouraudWithEdges
350
5D6
  3
Linepattern
350
5E0
  3
Realistic
350
5DC
  3
Thicken
350
5DF
  0
XRECORD
  5
4D72
102
{ACAD_REACTORS
330
1B
102
}
330
1B
100
AcDbXrecord
280
     1
 90
        1
330
142
  0
DICTIONARY
  5
4D
102
{ACAD_REACTORS
330
1B
102
}
330
1B
100
AcDbDictionary
281
     1
  3
CANNOSCALE
350
4D6F
  3
CMLEADERSTYLE
350
4D6E
  3
CTABLESTYLE
350
161
  3
INDEXCTL
350
4E
  0
DICTIONARY
  5
BC
102
{ACAD_REACTORS
330
1B
102
}
330
1B
100
AcDbDictionary
281
     1
  3
AcmStdDictionary
350
C7
  3
AMDTSECTSYM_ARROWCOLOR
350
14A
  0
DICTIONARY
  5
68
102
{ACAD_REACTORS
330
1B
102
}
330
1B
100
AcDbDictionary
281
     1
  0
DICTIONARY
  5
F9
102
{ACAD_REACTORS
330
1B
102
}
330
1B
100
AcDbDictionary
281
     1
  0
DICTIONARY
  5
3F00
102
{ACAD_REACTORS
330
1B
102
}
330
1B
100
AcDbDictionary
281
     1
  3
ASEBlockHierarchyIndexRecord
350
3F02
1001
DCO15
1040
1723285449.812
  0
XRECORD
  5
3EF2
102
{ACAD_REACTORS
330
3EF1
102
}
330
3EF1
100
AcDbXrecord
280
     1
290
     1
  0
XRECORD
  5
3EF4
102
{ACAD_REACTORS
330
3EF3
102
}
330
3EF3
100
AcDbXrecord
280
     1
290
     1
  0
XRECORD
  5
3EF6
102
{ACAD_REACTORS
330
3EF5
102
}
330
3EF5
100
AcDbXrecord
280
     1
290
     1
  0
XRECORD
  5
3EF8
102
{ACAD_REACTORS
330
3EF7
102
}
330
3EF7
100
AcDbXrecord
280
     1
290
     1
  0
SORTENTSTABLE
  5
61C
102
{ACAD_REACTORS
330
3
102
}
330
3
100
AcDbSortentsTable
330
2
331
20AA
  5
20CF
331
20CA
  5
2572
331
371D
  5
372E
331
2798
  5
27B1
331
2E14
  5
2E40
331
3725
  5
3C9E
331
27A0
  5
2AB0
331
372D
  5
1982
331
2AFF
  5
2B07
331
2E3C
  5
2E47
331
2B07
  5
2B0F
331
2E44
  5
2E4F
331
25D9
  5
279A
331
25E1
  5
279C
331
226A
  5
25D8
331
2639
  5
27A0
331
256A
  5
25DA
331
3080
  5
179A
331
2B0F
  5
2B17
331
2E05
  5
2E0D
331
2E0D
  5
2E18
331
3CE5
  5
4548
331
20AB
  5
20D0
331
2592
  5
25E7
331
25D2
  5
263C
331
20CB
  5
2591
331
371E
  5
372F
331
2799
  5
27B2
331
2E15
  5
2E41
331
3726
  5
3C9F
331
27A1
  5
2AB1
331
2B00
  5
2B08
331
2E3D
  5
2E48
331
2E45
  5
2E50
331
3C9E
  5
3CE6
331
1784
  5
17AC
331
1A3C
  5
20BC
331
2273
  5
25D9
331
2B08
  5
2B10
331
2B10
  5
2B18
331
2792
  5
27A1
331
2E06
  5
2E0E
331
2E0E
  5
2E19
331
3CE6
  5
4549
331
3C8F
  5
3CA0
331
20AC
  5
20D1
331
258B
  5
25DD
331
20C4
  5
226E
331
25D3
  5
263D
331
20CC
  5
2596
331
371F
  5
3730
331
279A
  5
27B3
331
2E16
  5
2E42
331
27A2
  5
2AD6
331
372F
  5
372A
331
28DA
  5
2AD9
331
2B01
  5
2B09
331
2E3E
  5
2E49
331
2E46
  5
2E51
331
3C9F
  5
3CE7
331
256C
  5
25DB
331
2B09
  5
2B11
331
2B11
  5
2B19
331
2B21
  5
2B29
331
2793
  5
27A2
331
2E07
  5
2E0F
331
2E0F
  5
2E1A
331
3CE7
  5
454A
331
2594
  5
25E8
331
20C5
  5
227B
331
25D4
  5
263E
331
20CD
  5
259A
331
3720
  5
3C0B
331
279B
  5
27B4
331
2E17
  5
2E43
331
27A3
  5
2AD7
331
3311
  5
33E9
331
2B02
  5
2B0A
331
2E3F
  5
2E4A
331
2E47
  5
2E52
331
3C90
  5
3CA1
331
3CA0
  5
363C
331
3730
  5
372B
331
3331
  5
371A
331
2B0A
  5
2B12
331
33E9
  5
3726
331
2B12
  5
2B1A
331
2B1A
  5
2B22
331
2B22
  5
2DED
331
2794
  5
27A3
331
2E08
  5
2E10
331
20C6
  5
2570
331
25D5
  5
263F
331
3719
  5
3727
331
2E10
  5
2E3C
331
3721
  5
3C0C
331
279C
  5
27B5
331
2E18
  5
2E44
331
27A4
  5
2AD8
331
2AFB
  5
2B03
331
3729
  5
20B2
331
3312
  5
3627
331
2B03
  5
2B0B
331
2E40
  5
2E4B
331
3C91
  5
3CA2
331
3CA1
  5
363A
331
2266
  5
259C
331
3332
  5
3720
331
2B0B
  5
2B13
331
2B13
  5
2B1B
331
2B1B
  5
2B23
331
2E09
  5
2E14
331
2B23
  5
2E03
331
2795
  5
27A4
331
371A
  5
3728
331
2E11
  5
2E3D
331
3722
  5
3C0D
331
279D
  5
28DA
331
2E19
  5
2E45
331
2AFC
  5
2B04
331
372A
  5
20B0
331
3313
  5
3719
331
2B04
  5
2B0C
331
2E41
  5
2E4C
331
3C92
  5
3CA3
331
3CA2
  5
363B
331
2636
  5
279D
331
20A0
  5
20C8
331
3333
  5
3724
331
2B0C
  5
2B14
331
2B1C
  5
2B24
331
2E0A
  5
2E15
331
2B24
  5
2E06
331
2796
  5
27AF
331
20B8
  5
226B
331
25D7
  5
2799
331
371B
  5
372C
331
2E12
  5
2E3E
331
3723
  5
3C0E
331
279E
  5
2AAE
331
2E1A
  5
2E46
331
372B
  5
3729
331
2AFD
  5
2B05
331
2B05
  5
2B0D
331
2E42
  5
2E4D
331
3C93
  5
3CE5
331
3CA3
  5
3666
331
2637
  5
279E
331
20A1
  5
20C9
331
3334
  5
3725
331
2B0D
  5
2B15
331
2B1D
  5
2B25
331
2E03
  5
2E0B
331
2E0B
  5
2E16
331
2B25
  5
2E07
331
2797
  5
27B0
331
20A9
  5
20CE
331
2590
  5
25DF
331
371C
  5
372D
331
2E13
  5
2E3F
331
3724
  5
3C93
331
279F
  5
2AAF
331
372C
  5
1A53
331
2AFE
  5
2B06
331
2B06
  5
2B0E
331
2E43
  5
2E4E
331
25E0
  5
279B
331
2638
  5
279F
331
20A2
  5
20CA
331
2B0E
  5
2B16
331
2E04
  5
2E0C
331
2E0C
  5
2E17
  0
XRECORD
  5
4D74
102
{ACAD_REACTORS
330
4D73
102
}
330
4D73
100
AcDbXrecord
280
     1
 40
1.570796326794896
  0
LAYOUT
  5
63
102
{ACAD_REACTORS
330
60
102
}
330
60
100
AcDbPlotSettings
  1

  2
HP LaserJet 5000 Series PCL6
  4

  6

 40
0.0
 41
0.0
 42
0.0
 43
0.0
 44
0.0
 45
0.0
 46
0.0
 47
0.0
 48
0.0
 49
0.0
140
0.0
141
0.0
142
1.0
143
1.0
 70
   688
 72
     0
 73
     0
 74
     5
  7
Zeich.ctb
 75
    16
147
1.0
 76
     0
 77
     2
 78
   300
148
0.0
149
0.0
100
AcDbLayout
  1
Layout1
 70
     0
 71
     1
 10
0.0
 20
0.0
 11
420.0
 21
297.0
 12
0.0
 22
0.0
 32
0.0
 14
1.000000000000000E+20
 24
1.000000000000000E+20
 34
1.000000000000000E+20
 15
-1.000000000000000E+20
 25
-1.000000000000000E+20
 35
-1.000000000000000E+20
146
0.0
 13
0.0
 23
0.0
 33
0.0
 16
1.0
 26
0.0
 36
0.0
 17
0.0
 27
1.0
 37
0.0
 76
     0
330
8
  0
LAYOUT
  5
62
102
{ACAD_REACTORS
330
60
102
}
330
60
100
AcDbPlotSettings
  1

  2
Konstruktion
  4
A4
  6

 40
7.143749713897705
 41
7.186082363128662
 42
7.059066772460937
 43
5.027069091796875
 44
209.9733276367187
 45
296.9683227539062
 46
48.46045035912668
 47
0.0
 48
0.0
 49
0.0
140
0.0
141
0.0
142
1.0
143
5.069881924031674
 70
 11956
 72
     1
 73
     1
 74
     1
  7
Zeich.ctb
 75
     0
147
0.1972432524039493
 76
     0
 77
     2
 78
   300
148
283.453697135641
149
-76.99012910829629
100
AcDbLayout
  1
Model
 70
     1
 71
     0
 10
0.0
 20
0.0
 11
12.0
 21
9.0
 12
0.0
 22
0.0
 32
0.0
 14
0.0
 24
0.0
 34
0.0
 15
0.0
 25
0.0
 35
0.0
146
0.0
 13
0.0
 23
0.0
 33
0.0
 16
1.0
 26
0.0
 36
0.0
 17
0.0
 27
1.0
 37
0.0
 76
     0
330
2
331
5CD
1001
ACAD_PSEXT
1000
Konstruktion
1000
Kyocera FS-1030D
1000
IP_192.168.10.181
1000

1070
     0
  0
MATERIAL
  5
5D0
102
{ACAD_XDICTIONARY
360
4D78
102
}
102
{ACAD_REACTORS
330
5E
102
}
330
5E
100
AcDbMaterial
  1
ByBlock
 73
     1
 78
     1
172
     1
176
     1
270
     1
274
     1
  0
MATERIAL
  5
5CF
102
{ACAD_XDICTIONARY
360
4D76
102
}
102
{ACAD_REACTORS
330
5E
102
}
330
5E
100
AcDbMaterial
  1
ByLayer
 73
     1
 78
     1
172
     1
176
     1
270
     1
274
     1
  0
MATERIAL
  5
5D1
102
{ACAD_XDICTIONARY
360
4D7A
102
}
102
{ACAD_REACTORS
330
5E
102
}
330
5E
100
AcDbMaterial
  1
Global
 73
     1
 78
     1
172
     1
176
     1
270
     1
274
     1
  0
MLEADERSTYLE
  5
3E1B
102
{ACAD_REACTORS
330
3E1A
102
}
330
3E1A
100
AcDbMLeaderStyle
170
     2
171
     1
172
     0
 90
        2
 40
0.0
 41
0.0
173
     1
 91
-1056964608
340
F
 92
       -2
290
     1
 42
0.09
291
     1
 43
0.36
  3
Standard
 44
0.18
300

342
D
174
     1
178
     6
175
     1
176
     0
 93
-1056964608
 45
0.18
292
     0
297
     0
 46
0.18
 94
-1056964608
 47
1.0
 49
1.0
140
1.0
293
     1
141
0.0
294
     1
177
     0
142
1.0
295
     0
296
     0
143
0.125
1001
ACAD_MLEADERVER
1070
     2
  0
MLINESTYLE
  5
1D
102
{ACAD_REACTORS
330
1A
102
}
330
1A
100
AcDbMlineStyle
  2
STANDARD
 70
     0
  3

 62
     0
 51
90.0
 52
90.0
 71
     2
 49
0.5
 62
   256
  6
BYLAYER
 49
-0.5
 62
   256
  6
BYLAYER
  0
ACDBPLACEHOLDER
  5
5D
102
{ACAD_REACTORS
330
5C
102
}
330
5C
  0
SCALE
  5
3DF9
102
{ACAD_REACTORS
330
3DF8
102
}
330
3DF8
100
AcDbScale
 70
     0
300
1:1
140
1.0
141
1.0
290
     1
  0
SCALE
  5
3DFA
102
{ACAD_REACTORS
330
3DF8
102
}
330
3DF8
100
AcDbScale
 70
     0
300
1:2
140
1.0
141
2.0
290
     0
  0
SCALE
  5
3DFB
102
{ACAD_REACTORS
330
3DF8
102
}
330
3DF8
100
AcDbScale
 70
     0
300
1:4
140
1.0
141
4.0
290
     0
  0
SCALE
  5
3DFC
102
{ACAD_REACTORS
330
3DF8
102
}
330
3DF8
100
AcDbScale
 70
     0
300
1:5
140
1.0
141
5.0
290
     0
  0
SCALE
  5
3DFD
102
{ACAD_REACTORS
330
3DF8
102
}
330
3DF8
100
AcDbScale
 70
     0
300
1:8
140
1.0
141
8.0
290
     0
  0
SCALE
  5
3DFE
102
{ACAD_REACTORS
330
3DF8
102
}
330
3DF8
100
AcDbScale
 70
     0
300
1:10
140
1.0
141
10.0
290
     0
  0
SCALE
  5
3DFF
102
{ACAD_REACTORS
330
3DF8
102
}
330
3DF8
100
AcDbScale
 70
     0
300
1:16
140
1.0
141
16.0
290
     0
  0
SCALE
  5
3E00
102
{ACAD_REACTORS
330
3DF8
102
}
330
3DF8
100
AcDbScale
 70
     0
300
1:20
140
1.0
141
20.0
290
     0
  0
SCALE
  5
3E01
102
{ACAD_REACTORS
330
3DF8
102
}
330
3DF8
100
AcDbScale
 70
     0
300
1:30
140
1.0
141
30.0
290
     0
  0
SCALE
  5
3E02
102
{ACAD_REACTORS
330
3DF8
102
}
330
3DF8
100
AcDbScale
 70
     0
300
1:40
140
1.0
141
40.0
290
     0
  0
SCALE
  5
3E03
102
{ACAD_REACTORS
330
3DF8
102
}
330
3DF8
100
AcDbScale
 70
     0
300
1:50
140
1.0
141
50.0
290
     0
  0
SCALE
  5
3E04
102
{ACAD_REACTORS
330
3DF8
102
}
330
3DF8
100
AcDbScale
 70
     0
300
1:100
140
1.0
141
100.0
290
     0
  0
SCALE
  5
3E05
102
{ACAD_REACTORS
330
3DF8
102
}
330
3DF8
100
AcDbScale
 70
     0
300
2:1
140
2.0
141
1.0
290
     0
  0
SCALE
  5
3E06
102
{ACAD_REACTORS
330
3DF8
102
}
330
3DF8
100
AcDbScale
 70
     0
300
4:1
140
4.0
141
1.0
290
     0
  0
SCALE
  5
3E07
102
{ACAD_REACTORS
330
3DF8
102
}
330
3DF8
100
AcDbScale
 70
     0
300
8:1
140
8.0
141
1.0
290
     0
  0
SCALE
  5
3E08
102
{ACAD_REACTORS
330
3DF8
102
}
330
3DF8
100
AcDbScale
 70
     0
300
10:1
140
10.0
141
1.0
290
     0
  0
SCALE
  5
3E09
102
{ACAD_REACTORS
330
3DF8
102
}
330
3DF8
100
AcDbScale
 70
     0
300
100:1
140
100.0
141
1.0
290
     0
  0
SCALE
  5
3E0A
102
{ACAD_REACTORS
330
3DF8
102
}
330
3DF8
100
AcDbScale
 70
     0
300
1/128" = 1'-0"
140
0.0078125
141
12.0
290
     0
  0
SCALE
  5
3E0B
102
{ACAD_REACTORS
330
3DF8
102
}
330
3DF8
100
AcDbScale
 70
     0
300
1/64" = 1'-0"
140
0.015625
141
12.0
290
     0
  0
SCALE
  5
3E0C
102
{ACAD_REACTORS
330
3DF8
102
}
330
3DF8
100
AcDbScale
 70
     0
300
1/32" = 1'-0"
140
0.03125
141
12.0
290
     0
  0
SCALE
  5
3E0D
102
{ACAD_REACTORS
330
3DF8
102
}
330
3DF8
100
AcDbScale
 70
     0
300
1/16" = 1'-0"
140
0.0625
141
12.0
290
     0
  0
SCALE
  5
3E0E
102
{ACAD_REACTORS
330
3DF8
102
}
330
3DF8
100
AcDbScale
 70
     0
300
3/32" = 1'-0"
140
0.09375
141
12.0
290
     0
  0
SCALE
  5
3E0F
102
{ACAD_REACTORS
330
3DF8
102
}
330
3DF8
100
AcDbScale
 70
     0
300
1/8" = 1'-0"
140
0.125
141
12.0
290
     0
  0
SCALE
  5
3E10
102
{ACAD_REACTORS
330
3DF8
102
}
330
3DF8
100
AcDbScale
 70
     0
300
3/16" = 1'-0"
140
0.1875
141
12.0
290
     0
  0
SCALE
  5
3E11
102
{ACAD_REACTORS
330
3DF8
102
}
330
3DF8
100
AcDbScale
 70
     0
300
1/4" = 1'-0"
140
0.25
141
12.0
290
     0
  0
SCALE
  5
3E12
102
{ACAD_REACTORS
330
3DF8
102
}
330
3DF8
100
AcDbScale
 70
     0
300
3/8" = 1'-0"
140
0.375
141
12.0
290
     0
  0
SCALE
  5
3E13
102
{ACAD_REACTORS
330
3DF8
102
}
330
3DF8
100
AcDbScale
 70
     0
300
1/2" = 1'-0"
140
0.5
141
12.0
290
     0
  0
SCALE
  5
3E14
102
{ACAD_REACTORS
330
3DF8
102
}
330
3DF8
100
AcDbScale
 70
     0
300
3/4" = 1'-0"
140
0.75
141
12.0
290
     0
  0
SCALE
  5
3E15
102
{ACAD_REACTORS
330
3DF8
102
}
330
3DF8
100
AcDbScale
 70
     0
300
1" = 1'-0"
140
1.0
141
12.0
290
     0
  0
SCALE
  5
3E16
102
{ACAD_REACTORS
330
3DF8
102
}
330
3DF8
100
AcDbScale
 70
     0
300
1-1/2" = 1'-0"
140
1.5
141
12.0
290
     0
  0
SCALE
  5
3E17
102
{ACAD_REACTORS
330
3DF8
102
}
330
3DF8
100
AcDbScale
 70
     0
300
3" = 1'-0"
140
3.0
141
12.0
290
     0
  0
SCALE
  5
3E18
102
{ACAD_REACTORS
330
3DF8
102
}
330
3DF8
100
AcDbScale
 70
     0
300
6" = 1'-0"
140
6.0
141
12.0
290
     0
  0
SCALE
  5
3E19
102
{ACAD_REACTORS
330
3DF8
102
}
330
3DF8
100
AcDbScale
 70
     0
300
1'-0" = 1'-0"
140
12.0
141
12.0
290
     0
  0
TABLESTYLE
  5
142
102
{ACAD_XDICTIONARY
360
4D70
102
}
102
{ACAD_REACTORS
330
141
102
}
330
141
100
AcDbTableStyle
  3
Standard
 70
     0
 71
     0
 40
0.06
 41
0.06
280
     0
281
     0
  7
STANDARD
140
0.18
170
     2
 62
     0
 63
     7
283
     0
274
    -2
284
     1
 64
     0
275
    -2
285
     1
 65
     0
276
    -2
286
     1
 66
     0
277
    -2
287
     1
 67
     0
278
    -2
288
     1
 68
     0
279
    -2
289
     1
 69
     0
  7
STANDARD
140
0.25
170
     5
 62
     0
 63
     7
283
     0
274
    -2
284
     1
 64
     0
275
    -2
285
     1
 65
     0
276
    -2
286
     1
 66
     0
277
    -2
287
     1
 67
     0
278
    -2
288
     1
 68
     0
279
    -2
289
     1
 69
     0
  7
STANDARD
140
0.18
170
     5
 62
     0
 63
     7
283
     0
274
    -2
284
     1
 64
     0
275
    -2
285
     1
 65
     0
276
    -2
286
     1
 66
     0
277
    -2
287
     1
 67
     0
278
    -2
288
     1
 68
     0
279
    -2
289
     1
 69
     0
  0
VISUALSTYLE
  5
5D8
102
{ACAD_REACTORS
330
5D2
102
}
330
5D2
100
AcDbVisualStyle
  2
2dWireframe
 70
     4
 71
     0
 72
     2
 73
     0
 90
        0
 40
-0.6
 41
-30.0
 62
     5
 63
     7
421
 16777215
 74
     1
 91
        4
 64
     7
 65
   257
 75
     1
175
     1
 42
1.0
 92
        0
 66
   257
 43
1.0
 76
     1
 77
     6
 78
     2
 67
     7
 79
     5
170
     0
171
     0
290
     0
174
     0
 93
        1
 44
0.0
173
     0
291
     0
 45
0.0
1001
ACAD
1000
AcDbSavedByObjectVersion
1070
     0
  0
VISUALSTYLE
  5
5DA
102
{ACAD_REACTORS
330
5D2
102
}
330
5D2
100
AcDbVisualStyle
  2
3D Hidden
 70
     6
 71
     1
 72
     2
 73
     2
 90
        0
 40
-0.6
 41
-30.0
 62
     5
 63
     7
421
 16777215
 74
     2
 91
        2
 64
     7
 65
   257
 75
     2
175
     1
 42
40.0
 92
        0
 66
   257
 43
1.0
 76
     1
 77
     6
 78
     2
 67
     7
 79
     3
170
     0
171
     0
290
     0
174
     0
 93
        1
 44
0.0
173
     0
291
     0
 45
0.0
1001
ACAD
1000
AcDbSavedByObjectVersion
1070
     0
  0
VISUALSTYLE
  5
5D9
102
{ACAD_REACTORS
330
5D2
102
}
330
5D2
100
AcDbVisualStyle
  2
3dWireframe
 70
     5
 71
     0
 72
     2
 73
     0
 90
        0
 40
-0.6
 41
-30.0
 62
     5
 63
     7
421
 16777215
 74
     1
 91
        4
 64
     7
 65
   257
 75
     1
175
     1
 42
1.0
 92
        0
 66
   257
 43
1.0
 76
     1
 77
     6
 78
     2
 67
     7
 79
     5
170
     0
171
     0
290
     0
174
     0
 93
        1
 44
0.0
173
     0
291
     0
 45
0.0
1001
ACAD
1000
AcDbSavedByObjectVersion
1070
     0
  0
VISUALSTYLE
  5
5D7
102
{ACAD_REACTORS
330
5D2
102
}
330
5D2
100
AcDbVisualStyle
  2
Basic
 70
     7
 71
     1
 72
     0
 73
     1
 90
        0
 40
-0.6
 41
-30.0
 62
     5
 63
     7
421
 16777215
 74
     0
 91
        4
 64
     7
 65
   257
 75
     1
175
     1
 42
1.0
 92
        8
 66
     7
 43
1.0
 76
     1
 77
     6
 78
     2
 67
     7
 79
     5
170
     0
171
     0
290
     0
174
     0
 93
        1
 44
0.0
173
     0
291
     1
 45
0.0
1001
ACAD
1000
AcDbSavedByObjectVersion
1070
     0
  0
VISUALSTYLE
  5
5DE
102
{ACAD_REACTORS
330
5D2
102
}
330
5D2
100
AcDbVisualStyle
  2
Brighten
 70
    12
 71
     2
 72
     2
 73
     0
 90
        0
 40
-0.6
 41
-30.0
 62
     5
 63
     7
421
 16777215
 74
     1
 91
        4
 64
     7
 65
   257
 75
     1
175
     1
 42
1.0
 92
        8
 66
     7
 43
1.0
 76
     1
 77
     6
 78
     2
 67
     7
 79
     5
170
     0
171
     0
290
     0
174
     0
 93
        1
 44
50.0
173
     0
291
     1
 45
0.0
1001
ACAD
1000
AcDbSavedByObjectVersion
1070
     0
  0
VISUALSTYLE
  5
5E2
102
{ACAD_REACTORS
330
5D2
102
}
330
5D2
100
AcDbVisualStyle
  2
ColorChange
 70
    16
 71
     2
 72
     2
 73
     3
 90
        0
 40
-0.6
 41
-30.0
 62
     5
 63
     8
421
  8421504
 74
     1
 91
        4
 64
     7
 65
   257
 75
     1
175
     1
 42
1.0
 92
        8
 66
     8
424
  8421504
 43
1.0
 76
     1
 77
     6
 78
     2
 67
     7
 79
     5
170
     0
171
     0
290
     0
174
     0
 93
        1
 44
0.0
173
     0
291
     1
 45
0.0
1001
ACAD
1000
AcDbSavedByObjectVersion
1070
     0
  0
VISUALSTYLE
  5
5DB
102
{ACAD_REACTORS
330
5D2
102
}
330
5D2
100
AcDbVisualStyle
  2
Conceptual
 70
     9
 71
     3
 72
     2
 73
     0
 90
        0
 40
-0.6
 41
-30.0
 62
     5
 63
     7
421
 16777215
 74
     2
 91
        2
 64
     7
 65
   257
 75
     1
175
     1
 42
40.0
 92
        8
 66
     7
 43
1.0
 76
     1
 77
     6
 78
     2
 67
     7
 79
     3
170
     0
171
     0
290
     0
174
     0
 93
        1
 44
0.0
173
     0
291
     0
 45
0.0
1001
ACAD
1000
AcDbSavedByObjectVersion
1070
     0
  0
VISUALSTYLE
  5
5DD
102
{ACAD_REACTORS
330
5D2
102
}
330
5D2
100
AcDbVisualStyle
  2
Dim
 70
    11
 71
     2
 72
     2
 73
     0
 90
        0
 40
-0.6
 41
-30.0
 62
     5
 63
     7
421
 16777215
 74
     1
 91
        4
 64
     7
 65
   257
 75
     1
175
     1
 42
1.0
 92
        8
 66
     7
 43
1.0
 76
     1
 77
     6
 78
     2
 67
     7
 79
     5
170
     0
171
     0
290
     0
174
     0
 93
        1
 44
-50.0
173
     0
291
     1
 45
0.0
1001
ACAD
1000
AcDbSavedByObjectVersion
1070
     0
  0
VISUALSTYLE
  5
5E1
102
{ACAD_REACTORS
330
5D2
102
}
330
5D2
100
AcDbVisualStyle
  2
Facepattern
 70
    15
 71
     2
 72
     2
 73
     0
 90
        0
 40
-0.6
 41
-30.0
 62
     5
 63
     7
421
 16777215
 74
     1
 91
        4
 64
     7
 65
   257
 75
     1
175
     1
 42
1.0
 92
        8
 66
     7
 43
1.0
 76
     1
 77
     6
 78
     2
 67
     7
 79
     5
170
     0
171
     0
290
     0
174
     0
 93
        1
 44
0.0
173
     0
291
     1
 45
0.0
1001
ACAD
1000
AcDbSavedByObjectVersion
1070
     0
  0
VISUALSTYLE
  5
5D3
102
{ACAD_REACTORS
330
5D2
102
}
330
5D2
100
AcDbVisualStyle
  2
Flat
 70
     0
 71
     2
 72
     1
 73
     1
 90
        2
 40
-0.6
 41
30.0
 62
     5
 63
     7
421
 16777215
 74
     0
 91
        4
 64
     7
 65
   257
 75
     1
175
     1
 42
1.0
 92
        8
 66
     7
 43
1.0
 76
     1
 77
     6
 78
     2
 67
     7
 79
     5
170
     0
171
     0
290
     0
174
     0
 93
       13
 44
0.0
173
     0
291
     1
 45
0.0
1001
ACAD
1000
AcDbSavedByObjectVersion
1070
     0
  0
VISUALSTYLE
  5
5D4
102
{ACAD_REACTORS
330
5D2
102
}
330
5D2
100
AcDbVisualStyle
  2
FlatWithEdges
 70
     1
 71
     2
 72
     1
 73
     1
 90
        2
 40
-0.6
 41
30.0
 62
     5
 63
     7
421
 16777215
 74
     1
 91
        4
 64
     7
 65
   257
 75
     1
175
     1
 42
1.0
 92
        0
 66
   257
 43
1.0
 76
     1
 77
     6
 78
     2
 67
     7
 79
     5
170
     0
171
     0
290
     0
174
     0
 93
       13
 44
0.0
173
     0
291
     1
 45
0.0
1001
ACAD
1000
AcDbSavedByObjectVersion
1070
     0
  0
VISUALSTYLE
  5
5D5
102
{ACAD_REACTORS
330
5D2
102
}
330
5D2
100
AcDbVisualStyle
  2
Gouraud
 70
     2
 71
     2
 72
     2
 73
     1
 90
        2
 40
-0.6
 41
30.0
 62
     5
 63
     7
421
 16777215
 74
     0
 91
        4
 64
     7
 65
   257
 75
     1
175
     1
 42
1.0
 92
        0
 66
     7
 43
1.0
 76
     1
 77
     6
 78
     2
 67
     7
 79
     5
170
     0
171
     0
290
     0
174
     0
 93
       13
 44
0.0
173
     0
291
     1
 45
0.0
1001
ACAD
1000
AcDbSavedByObjectVersion
1070
     0
  0
VISUALSTYLE
  5
5D6
102
{ACAD_REACTORS
330
5D2
102
}
330
5D2
100
AcDbVisualStyle
  2
GouraudWithEdges
 70
     3
 71
     2
 72
     2
 73
     1
 90
        2
 40
-0.6
 41
30.0
 62
     5
 63
     7
421
 16777215
 74
     1
 91
        4
 64
     7
 65
   257
 75
     1
175
     1
 42
1.0
 92
        0
 66
   257
 43
1.0
 76
     1
 77
     6
 78
     2
 67
     7
 79
     5
170
     0
171
     0
290
     0
174
     0
 93
       13
 44
0.0
173
     0
291
     1
 45
0.0
1001
ACAD
1000
AcDbSavedByObjectVersion
1070
     0
  0
VISUALSTYLE
  5
5E0
102
{ACAD_REACTORS
330
5D2
102
}
330
5D2
100
AcDbVisualStyle
  2
Linepattern
 70
    14
 71
     2
 72
     2
 73
     0
 90
        0
 40
-0.6
 41
-30.0
 62
     5
 63
     7
421
 16777215
 74
     1
 91
        4
 64
     7
 65
   257
 75
     7
175
     7
 42
1.0
 92
        8
 66
     7
 43
1.0
 76
     1
 77
     6
 78
     2
 67
     7
 79
     5
170
     0
171
     0
290
     0
174
     0
 93
        1
 44
0.0
173
     0
291
     1
 45
0.0
1001
ACAD
1000
AcDbSavedByObjectVersion
1070
     0
  0
VISUALSTYLE
  5
5DC
102
{ACAD_REACTORS
330
5D2
102
}
330
5D2
100
AcDbVisualStyle
  2
Realistic
 70
     8
 71
     2
 72
     2
 73
     0
 90
        0
 40
-0.6
 41
-30.0
 62
     5
 63
     7
421
 16777215
 74
     1
 91
        0
 64
     7
 65
   257
 75
     1
175
     1
 42
1.0
 92
        8
 66
     8
424
  7895160
 43
1.0
 76
     1
 77
     6
 78
     2
 67
     7
 79
     5
170
     0
171
     0
290
     0
174
     0
 93
       13
 44
0.0
173
     0
291
     0
 45
0.0
1001
ACAD
1000
AcDbSavedByObjectVersion
1070
     0
  0
VISUALSTYLE
  5
5DF
102
{ACAD_REACTORS
330
5D2
102
}
330
5D2
100
AcDbVisualStyle
  2
Thicken
 70
    13
 71
     2
 72
     2
 73
     0
 90
        0
 40
-0.6
 41
-30.0
 62
     5
 63
     7
421
 16777215
 74
     1
 91
        4
 64
     7
 65
   257
 75
     1
175
     1
 42
1.0
 92
       12
 66
     7
 43
1.0
 76
     1
 77
     6
 78
     2
 67
     7
 79
     5
170
     0
171
     0
290
     0
174
     0
 93
        1
 44
0.0
173
     0
291
     1
 45
0.0
1001
ACAD
1000
AcDbSavedByObjectVersion
1070
     0
  0
DICTIONARYVAR
  5
4D6F
102
{ACAD_REACTORS
330
4D
102
}
330
4D
100
DictionaryVariables
280
     0
  1
1:1
  0
DICTIONARYVAR
  5
4D6E
102
{ACAD_REACTORS
330
4D
102
}
330
4D
100
DictionaryVariables
280
     0
  1
STANDARD
  0
DICTIONARYVAR
  5
161
102
{ACAD_REACTORS
330
4D
102
}
330
4D
100
DictionaryVariables
280
     0
  1
STANDARD
  0
DICTIONARYVAR
  5
4E
102
{ACAD_REACTORS
330
4D
102
}
330
4D
100
DictionaryVariables
280
     0
  1
1
  0
DICTIONARY
  5
C7
102
{ACAD_REACTORS
330
BC
102
}
330
BC
100
AcDbDictionary
281
     1
  0
XRECORD
  5
14A
102
{ACAD_REACTORS
330
BC
102
}
330
BC
100
AcDbXrecord
280
     1
 90
-1023410169
  0
XRECORD
  5
3F02
102
{ACAD_REACTORS
330
3F00
102
}
330
3F00
100
AcDbXrecord
280
     1
330
2AD2
  0
DICTIONARY
  5
4D78
330
5D0
100
AcDbDictionary
280
     1
281
     1
  3
ACAD_XREC_ROUNDTRIP
360
4D79
  0
DICTIONARY
  5
4D76
330
5CF
100
AcDbDictionary
280
     1
281
     1
  3
ACAD_XREC_ROUNDTRIP
360
4D77
  0
DICTIONARY
  5
4D7A
330
5D1
100
AcDbDictionary
280
     1
281
     1
  3
ACAD_XREC_ROUNDTRIP
360
4D7B
  0
DICTIONARY
  5
4D70
330
142
100
AcDbDictionary
280
     1
281
     1
  3
ACAD_ROUNDTRIP_2008_TABLESTYLE_CELLSTYLEMAP
360
4D71
  3
ACAD_XREC_ROUNDTRIP
360
4D75
  0
XRECORD
  5
4D79
102
{ACAD_REACTORS
330
4D78
102
}
330
4D78
100
AcDbXrecord
280
     1
102
MATERIAL
148
0.0
149
0.0
149
0.0
 93
        0
 94
       63
282
     0
 72
     1
 77
     1
171
     1
175
     1
179
     1
273
     0
  0
XRECORD
  5
4D77
102
{ACAD_REACTORS
330
4D76
102
}
330
4D76
100
AcDbXrecord
280
     1
102
MATERIAL
148
0.0
149
0.0
149
0.0
 93
        0
 94
       63
282
     0
 72
     1
 77
     1
171
     1
175
     1
179
     1
273
     0
  0
XRECORD
  5
4D7B
102
{ACAD_REACTORS
330
4D7A
102
}
330
4D7A
100
AcDbXrecord
280
     1
102
MATERIAL
148
0.0
149
0.0
149
0.0
 93
        0
 94
       63
282
     0
 72
     1
 77
     1
171
     1
175
     1
179
     1
273
     0
  0
CELLSTYLEMAP
  5
4D71
102
{ACAD_REACTORS
330
4D70
102
}
330
4D70
100
AcDbCellStyleMap
 90
        3
300
CELLSTYLE
  1
TABLEFORMAT_BEGIN
 90
        5
170
     1
 91
        0
 92
    32768
 62
   257
 93
        1
300
CONTENTFORMAT
  1
CONTENTFORMAT_BEGIN
 90
        0
 91
        0
 92
        4
 93
        0
300

 40
0.0
140
1.0
 94
        5
 62
     0
340
D
144
0.25
309
CONTENTFORMAT_END
171
     0
 94
        6
 95
        1
302
GRIDFORMAT
  1
GRIDFORMAT_BEGIN
 90
        0
 91
        1
 62
     0
 92
       -2
340
0
 93
        0
 40
0.045
309
GRIDFORMAT_END
 95
        2
302
GRIDFORMAT
  1
GRIDFORMAT_BEGIN
 90
        0
 91
        1
 62
     0
 92
       -2
340
0
 93
        0
 40
0.045
309
GRIDFORMAT_END
 95
        4
302
GRIDFORMAT
  1
GRIDFORMAT_BEGIN
 90
        0
 91
        1
 62
     0
 92
       -2
340
0
 93
        0
 40
0.045
309
GRIDFORMAT_END
 95
        8
302
GRIDFORMAT
  1
GRIDFORMAT_BEGIN
 90
        0
 91
        1
 62
     0
 92
       -2
340
0
 93
        0
 40
0.045
309
GRIDFORMAT_END
 95
       16
302
GRIDFORMAT
  1
GRIDFORMAT_BEGIN
 90
        0
 91
        1
 62
     0
 92
       -2
340
0
 93
        0
 40
0.045
309
GRIDFORMAT_END
 95
       32
302
GRIDFORMAT
  1
GRIDFORMAT_BEGIN
 90
        0
 91
        1
 62
     0
 92
       -2
340
0
 93
        0
 40
0.045
309
GRIDFORMAT_END
309
TABLEFORMAT_END
  1
CELLSTYLE_BEGIN
 90
        1
 91
        1
300
_TITLE
309
CELLSTYLE_END
300
CELLSTYLE
  1
TABLEFORMAT_BEGIN
 90
        5
170
     1
 91
        0
 92
        0
 62
   257
 93
        1
300
CONTENTFORMAT
  1
CONTENTFORMAT_BEGIN
 90
        0
 91
        0
 92
        4
 93
        0
300

 40
0.0
140
1.0
 94
        5
 62
     0
340
D
144
0.18
309
CONTENTFORMAT_END
171
     0
 94
        6
 95
        1
302
GRIDFORMAT
  1
GRIDFORMAT_BEGIN
 90
        0
 91
        1
 62
     0
 92
       -2
340
0
 93
        0
 40
0.045
309
GRIDFORMAT_END
 95
        2
302
GRIDFORMAT
  1
GRIDFORMAT_BEGIN
 90
        0
 91
        1
 62
     0
 92
       -2
340
0
 93
        0
 40
0.045
309
GRIDFORMAT_END
 95
        4
302
GRIDFORMAT
  1
GRIDFORMAT_BEGIN
 90
        0
 91
        1
 62
     0
 92
       -2
340
0
 93
        0
 40
0.045
309
GRIDFORMAT_END
 95
        8
302
GRIDFORMAT
  1
GRIDFORMAT_BEGIN
 90
        0
 91
        1
 62
     0
 92
       -2
340
0
 93
        0
 40
0.045
309
GRIDFORMAT_END
 95
       16
302
GRIDFORMAT
  1
GRIDFORMAT_BEGIN
 90
        0
 91
        1
 62
     0
 92
       -2
340
0
 93
        0
 40
0.045
309
GRIDFORMAT_END
 95
       32
302
GRIDFORMAT
  1
GRIDFORMAT_BEGIN
 90
        0
 91
        1
 62
     0
 92
       -2
340
0
 93
        0
 40
0.045
309
GRIDFORMAT_END
309
TABLEFORMAT_END
  1
CELLSTYLE_BEGIN
 90
        2
 91
        1
300
_HEADER
309
CELLSTYLE_END
300
CELLSTYLE
  1
TABLEFORMAT_BEGIN
 90
        5
170
     1
 91
        0
 92
        0
 62
   257
 93
        1
300
CONTENTFORMAT
  1
CONTENTFORMAT_BEGIN
 90
        0
 91
        0
 92
        4
 93
        0
300

 40
0.0
140
1.0
 94
        2
 62
     0
340
D
144
0.18
309
CONTENTFORMAT_END
171
     0
 94
        6
 95
        1
302
GRIDFORMAT
  1
GRIDFORMAT_BEGIN
 90
        0
 91
        1
 62
     0
 92
       -2
340
0
 93
        0
 40
0.045
309
GRIDFORMAT_END
 95
        2
302
GRIDFORMAT
  1
GRIDFORMAT_BEGIN
 90
        0
 91
        1
 62
     0
 92
       -2
340
0
 93
        0
 40
0.045
309
GRIDFORMAT_END
 95
        4
302
GRIDFORMAT
  1
GRIDFORMAT_BEGIN
 90
        0
 91
        1
 62
     0
 92
       -2
340
0
 93
        0
 40
0.045
309
GRIDFORMAT_END
 95
        8
302
GRIDFORMAT
  1
GRIDFORMAT_BEGIN
 90
        0
 91
        1
 62
     0
 92
       -2
340
0
 93
        0
 40
0.045
309
GRIDFORMAT_END
 95
       16
302
GRIDFORMAT
  1
GRIDFORMAT_BEGIN
 90
        0
 91
        1
 62
     0
 92
       -2
340
0
 93
        0
 40
0.045
309
GRIDFORMAT_END
 95
       32
302
GRIDFORMAT
  1
GRIDFORMAT_BEGIN
 90
        0
 91
        1
 62
     0
 92
       -2
340
0
 93
        0
 40
0.045
309
GRIDFORMAT_END
309
TABLEFORMAT_END
  1
CELLSTYLE_BEGIN
 90
        3
 91
        2
300
_DATA
309
CELLSTYLE_END
  0
XRECORD
  5
4D75
102
{ACAD_REACTORS
330
4D70
102
}
330
4D70
100
AcDbXrecord
280
     1
102
ACAD_ROUNDTRIP_PRE2007_TABLESTYLE
 90
        4
 91
        0
  1

 92
        4
 93
        0
  2

 94
        4
 95
        0
  3

  0
ENDSEC
  0
EOF
