  0
SECTION
  2
HEADER
  9
$ACADVER
  1
AC1018
  9
$ACADMAINTVER
 70
   104
  9
$DWGCODEPAGE
  3
ANSI_1252
  9
$LASTSAVEDBY
  1
ibasyouni
  9
$INSBASE
 10
0.0
 20
0.0
 30
0.0
  9
$EXTMIN
 10
26.04675645246925
 20
139.8742691379441
 30
-0.0015258207003583
  9
$EXTMAX
 10
1469.604495644574
 20
578.8238539113942
 30
0.0000000349246037
  9
$LIMMIN
 10
0.0
 20
0.0
  9
$LIMMAX
 10
1500.0
 20
600.0
  9
$ORTHOMODE
 70
     1
  9
$REGENMODE
 70
     1
  9
$FILLMODE
 70
     1
  9
$QTEXTMODE
 70
     0
  9
$MIRRTEXT
 70
     1
  9
$LTSCALE
 40
1.0
  9
$ATTMODE
 70
     1
  9
$TEXTSIZE
 40
20.0
  9
$TRACEWID
 40
1.0
  9
$TEXTSTYLE
  7
STANDARD
  9
$CLAYER
  8
0
  9
$CELTYPE
  6
BYLAYER
  9
$CECOLOR
 62
   256
  9
$CELTSCALE
 40
10.0
  9
$DISPSILH
 70
     0
  9
$DIMSCALE
 40
1.0
  9
$DIMASZ
 40
2.5
  9
$DIMEXO
 40
1.0
  9
$DIMDLI
 40
10.0
  9
$DIMRND
 40
0.0
  9
$DIMDLE
 40
0.0
  9
$DIMEXE
 40
1.0
  9
$DIMTP
 40
0.1
  9
$DIMTM
 40
0.1
  9
$DIMTXT
 40
3.5
  9
$DIMCEN
 40
0.0
  9
$DIMTSZ
 40
0.0
  9
$DIMTOL
 70
     0
  9
$DIMLIM
 70
     0
  9
$DIMTIH
 70
     0
  9
$DIMTOH
 70
     0
  9
$DIMSE1
 70
     0
  9
$DIMSE2
 70
     0
  9
$DIMTAD
 70
     1
  9
$DIMZIN
 70
     8
  9
$DIMBLK
  1

  9
$DIMASO
 70
     1
  9
$DIMSHO
 70
     1
  9
$DIMPOST
  1

  9
$DIMAPOST
  1
"
  9
$DIMALT
 70
     0
  9
$DIMALTD
 70
     2
  9
$DIMALTF
 40
0.0393701
  9
$DIMLFAC
 40
1.0
  9
$DIMTOFL
 70
     1
  9
$DIMTVP
 40
0.0
  9
$DIMTIX
 70
     0
  9
$DIMSOXD
 70
     0
  9
$DIMSAH
 70
     0
  9
$DIMBLK1
  1

  9
$DIMBLK2
  1

  9
$DIMSTYLE
  2
AM_DIN
  9
$DIMCLRD
 70
   256
  9
$DIMCLRE
 70
   256
  9
$DIMCLRT
 70
     2
  9
$DIMTFAC
 40
0.71
  9
$DIMGAP
 40
1.5
  9
$DIMJUST
 70
     0
  9
$DIMSD1
 70
     0
  9
$DIMSD2
 70
     0
  9
$DIMTOLJ
 70
     0
  9
$DIMTZIN
 70
     8
  9
$DIMALTZ
 70
     0
  9
$DIMALTTZ
 70
     0
  9
$DIMUPT
 70
     0
  9
$DIMDEC
 70
     2
  9
$DIMTDEC
 70
     3
  9
$DIMALTU
 70
     2
  9
$DIMALTTD
 70
     4
  9
$DIMTXSTY
  7
STANDARD
  9
$DIMAUNIT
 70
     0
  9
$DIMADEC
 70
     0
  9
$DIMALTRND
 40
0.0
  9
$DIMAZIN
 70
     2
  9
$DIMDSEP
 70
    46
  9
$DIMATFIT
 70
     3
  9
$DIMFRAC
 70
     0
  9
$DIMLDRBLK
  1

  9
$DIMLUNIT
 70
     2
  9
$DIMLWD
 70
    -1
  9
$DIMLWE
 70
    -1
  9
$DIMTMOVE
 70
     0
  9
$LUNITS
 70
     2
  9
$LUPREC
 70
     2
  9
$SKETCHINC
 40
1.0
  9
$FILLETRAD
 40
2.5
  9
$AUNITS
 70
     0
  9
$AUPREC
 70
     0
  9
$MENU
  1
.
  9
$ELEVATION
 40
0.0
  9
$PELEVATION
 40
0.0
  9
$THICKNESS
 40
0.0
  9
$LIMCHECK
 70
     0
  9
$CHAMFERA
 40
2.5
  9
$CHAMFERB
 40
2.5
  9
$CHAMFERC
 40
0.0
  9
$CHAMFERD
 40
0.0
  9
$SKPOLY
 70
     0
  9
$TDCREATE
 40
2450382.432057130
  9
$TDUCREATE
 40
2450382.348723796
  9
$TDUPDATE
 40
2455748.669021771
  9
$TDUUPDATE
 40
2455748.585688438
  9
$TDINDWG
 40
0.3114455093
  9
$TDUSRTIMER
 40
0.3114455093
  9
$USRTIMER
 70
     1
  9
$ANGBASE
 50
0.0
  9
$ANGDIR
 70
     0
  9
$PDMODE
 70
     0
  9
$PDSIZE
 40
0.0
  9
$PLINEWID
 40
0.0
  9
$SPLFRAME
 70
     0
  9
$SPLINETYPE
 70
     6
  9
$SPLINESEGS
 70
     8
  9
$HANDSEED
  5
4E0C
  9
$SURFTAB1
 70
     6
  9
$SURFTAB2
 70
     6
  9
$SURFTYPE
 70
     6
  9
$SURFU
 70
     6
  9
$SURFV
 70
     6
  9
$UCSBASE
  2

  9
$UCSNAME
  2

  9
$UCSORG
 10
0.0
 20
0.0
 30
0.0
  9
$UCSXDIR
 10
1.0
 20
0.0
 30
0.0
  9
$UCSYDIR
 10
0.0
 20
1.0
 30
0.0
  9
$UCSORTHOREF
  2

  9
$UCSORTHOVIEW
 70
     0
  9
$UCSORGTOP
 10
0.0
 20
0.0
 30
0.0
  9
$UCSORGBOTTOM
 10
0.0
 20
0.0
 30
0.0
  9
$UCSORGLEFT
 10
0.0
 20
0.0
 30
0.0
  9
$UCSORGRIGHT
 10
0.0
 20
0.0
 30
0.0
  9
$UCSORGFRONT
 10
0.0
 20
0.0
 30
0.0
  9
$UCSORGBACK
 10
0.0
 20
0.0
 30
0.0
  9
$PUCSBASE
  2

  9
$PUCSNAME
  2

  9
$PUCSORG
 10
0.0
 20
0.0
 30
0.0
  9
$PUCSXDIR
 10
1.0
 20
0.0
 30
0.0
  9
$PUCSYDIR
 10
0.0
 20
1.0
 30
0.0
  9
$PUCSORTHOREF
  2

  9
$PUCSORTHOVIEW
 70
     0
  9
$PUCSORGTOP
 10
0.0
 20
0.0
 30
0.0
  9
$PUCSORGBOTTOM
 10
0.0
 20
0.0
 30
0.0
  9
$PUCSORGLEFT
 10
0.0
 20
0.0
 30
0.0
  9
$PUCSORGRIGHT
 10
0.0
 20
0.0
 30
0.0
  9
$PUCSORGFRONT
 10
0.0
 20
0.0
 30
0.0
  9
$PUCSORGBACK
 10
0.0
 20
0.0
 30
0.0
  9
$USERI1
 70
     0
  9
$USERI2
 70
     0
  9
$USERI3
 70
     0
  9
$USERI4
 70
     0
  9
$USERI5
 70
     0
  9
$USERR1
 40
0.0
  9
$USERR2
 40
0.0
  9
$USERR3
 40
0.0
  9
$USERR4
 40
0.0
  9
$USERR5
 40
0.0
  9
$WORLDVIEW
 70
     1
  9
$SHADEDGE
 70
     3
  9
$SHADEDIF
 70
    70
  9
$TILEMODE
 70
     1
  9
$MAXACTVP
 70
    16
  9
$PINSBASE
 10
0.0
 20
0.0
 30
0.0
  9
$PLIMCHECK
 70
     0
  9
$PEXTMIN
 10
1.000000000000000E+20
 20
1.000000000000000E+20
 30
1.000000000000000E+20
  9
$PEXTMAX
 10
-1.000000000000000E+20
 20
-1.000000000000000E+20
 30
-1.000000000000000E+20
  9
$PLIMMIN
 10
0.0
 20
0.0
  9
$PLIMMAX
 10
420.0
 20
297.0
  9
$UNITMODE
 70
     0
  9
$VISRETAIN
 70
     0
  9
$PLINEGEN
 70
     0
  9
$PSLTSCALE
 70
     0
  9
$TREEDEPTH
 70
  3020
  9
$CMLSTYLE
  2
STANDARD
  9
$CMLJUST
 70
     0
  9
$CMLSCALE
 40
1.0
  9
$PROXYGRAPHICS
 70
     1
  9
$MEASUREMENT
 70
     1
  9
$CELWEIGHT
370
    -1
  9
$ENDCAPS
280
     0
  9
$JOINSTYLE
280
     0
  9
$LWDISPLAY
290
     0
  9
$INSUNITS
 70
     4
  9
$HYPERLINKBASE
  1

  9
$STYLESHEET
  1
Zeich.ctb
  9
$XEDIT
290
     1
  9
$CEPSNTYPE
380
     0
  9
$PSTYLEMODE
290
     1
  9
$FINGERPRINTGUID
  2
{325BFBD5-B27C-480F-A6FD-52B59258B312}
  9
$VERSIONGUID
  2
{492A8577-6D2E-44E1-95C6-6AC3678ADABF}
  9
$EXTNAMES
290
     1
  9
$PSVPSCALE
 40
0.0
  9
$OLESTARTUP
290
     0
  9
$SORTENTS
280
   127
  9
$INDEXCTL
280
     0
  9
$HIDETEXT
280
     0
  9
$XCLIPFRAME
290
     0
  9
$HALOGAP
280
     0
  9
$OBSCOLOR
 70
   257
  9
$OBSLTYPE
280
     0
  9
$INTERSECTIONDISPLAY
280
     0
  9
$INTERSECTIONCOLOR
 70
   257
  9
$DIMASSOC
280
     1
  9
$PROJECTNAME
  1

  0
ENDSEC
  0
SECTION
  2
CLASSES
  0
CLASS
  1
ACMESTATEMGR
  2
AcMeStateMgr
  3
AcMeServices
 90
     1024
 91
        1
280
     0
281
     0
  0
CLASS
  1
ACMESCOPE
  2
AcMeScope
  3
AcMeServices
 90
     1024
 91
        1
280
     0
281
     0
  0
CLASS
  1
ACMECOMMANDHISTORY
  2
AcMeCommandHistory
  3
AcMeServices
 90
     1024
 91
        1
280
     0
281
     0
  0
CLASS
  1
ACRFINSADJUSTERMGR
  2
AcRfInsAdjusterMgr
  3
AcMeServices
 90
     1024
 91
        1
280
     0
281
     0
  0
CLASS
  1
ACMEDRAWINGMAN
  2
AcMeDrawingMan
  3
AcMeServices
 90
     1024
 91
        1
280
     0
281
     0
  0
CLASS
  1
AMATTR
  2
AcMeAttribute
  3
AcMeServices
 90
     1024
 91
        0
280
     0
281
     0
  0
CLASS
  1
ACMEBOMCOLUMN
  2
AcMeBOMColumn
  3
AcMeServices
 90
     1024
 91
        0
280
     0
281
     0
  0
CLASS
  1
ACMEBOMCONF
  2
AcMeBOMConf
  3
AcMeServices
 90
     1024
 91
        0
280
     0
281
     0
  0
CLASS
  1
ACMEBOMTABLE
  2
AcMeBOMTable
  3
AcMeServices
 90
     1024
 91
        0
280
     0
281
     0
  0
CLASS
  1
ACMEBOMENTRY
  2
AcMeBOMEntry
  3
AcMeServices
 90
     1024
 91
        0
280
     0
281
     0
  0
CLASS
  1
ACMEVIEW
  2
AcMeView
  3
AcMeServices
 90
     1024
 91
        0
280
     0
281
     0
  0
CLASS
  1
DICTIONARYVAR
  2
AcDbDictionaryVar
  3
ObjectDBX Classes
 90
        0
 91
        6
280
     0
281
     0
  0
CLASS
  1
LAYER_INDEX
  2
AcDbLayerIndex
  3
ObjectDBX Classes
 90
        0
 91
        0
280
     0
281
     0
  0
CLASS
  1
IDBUFFER
  2
AcDbIdBuffer
  3
ObjectDBX Classes
 90
        0
 91
        0
280
     0
281
     0
  0
CLASS
  1
ACDBDICTIONARYWDFLT
  2
AcDbDictionaryWithDefault
  3
ObjectDBX Classes
 90
        0
 91
        1
280
     0
281
     0
  0
CLASS
  1
ACME_DOCUMENT
  2
AcMeDbDoc
  3
AcMeServices
 90
     1024
 91
        2
280
     0
281
     0
  0
CLASS
  1
AMGSETTINGSOBJ
  2
AmgSettingsObj
  3
"AcadM|Product Description: AutoCAD Mechanical|Company: Autodesk, Inc."
 90
     1024
 91
        4
280
     0
281
     0
  0
CLASS
  1
ACIMSYSVARMAN
  2
AcImSysVarManager
  3
AcMeServices
 90
     1024
 91
        5
280
     0
281
     0
  0
CLASS
  1
ACIMINTSYSVAR
  2
AcImIntSysVar
  3
AcMeServices
 90
     1024
 91
       27
280
     0
281
     0
  0
CLASS
  1
ACDBENTITYCACHE
  2
AcMeEntityCache
  3
AcMeServices
 90
     1024
 91
        1
280
     0
281
     0
  0
CLASS
  1
GSMANAGER
  2
AcMeGSManager
  3
AcMeServices
 90
     1024
 91
        1
280
     0
281
     0
  0
CLASS
  1
AMDTINTERNALREACTOR
  2
AmdtInternalReactor
  3
AcMeServices
 90
     1024
 91
        2
280
     0
281
     0
  0
CLASS
  1
ACGREFMASTER
  2
AcGrefMaster
  3
AcAttribServices
 90
     1024
 91
        1
280
     0
281
     0
  0
CLASS
  1
AM_DRAWING_MGR
  2
AcDmDwgMgr
  3
AcMechDwgViewMgmt
 90
     1024
 91
        1
280
     0
281
     0
  0
CLASS
  1
AM_DWG_DOCUMENT
  2
AcDmDwgDocument
  3
AcMechDwgViewMgmt
 90
     1024
 91
        1
280
     0
281
     0
  0
CLASS
  1
AM_DWG_SHEET
  2
AcDmSheet
  3
AcMechDwgViewMgmt
 90
     1024
 91
        1
280
     0
281
     0
  0
CLASS
  1
AM_VIEWDIMPARMAP
  2
AcDmViewDimParMap
  3
AcMechDwgViewMgmt
 90
     1024
 91
        1
280
     0
281
     0
  0
CLASS
  1
ACIMREALSYSVAR
  2
AcImRealSysVar
  3
AcMeServices
 90
     1024
 91
        1
280
     0
281
     0
  0
CLASS
  1
AM_DWGMGR_NAME
  2
AcDmDwgMgrName
  3
AcMechDwgViewMgmt
 90
     1024
 91
        1
280
     0
281
     0
  0
CLASS
  1
ACME_DATABASE
  2
AcMeDbDatabase
  3
AcMeServices
 90
     1024
 91
        1
280
     0
281
     0
  0
CLASS
  1
ACGREFACADMASTER
  2
AcGrefacadMaster
  3
AcGrefServices
 90
     1024
 91
        1
280
     0
281
     0
  0
CLASS
  1
AMDTMENUSTATEMGR
  2
AmdtMenuStateMgr
  3
McadcomServices
 90
     1024
 91
        1
280
     0
281
     0
  0
CLASS
  1
AMDTMCOMMENUSTATE
  2
AmdtMcomMenuState
  3
McadcomServices
 90
     1024
 91
        1
280
     0
281
     0
  0
CLASS
  1
AMIMASTER
  2
AmiMaster
  3
AmiServices
 90
     1024
 91
        1
280
     0
281
     0
  0
CLASS
  1
MAPIAMMOUDLE
  2
MApiAmModule
  3
MApiAmServices
 90
     1024
 91
        1
280
     0
281
     0
  0
CLASS
  1
AMDTADMENUSTATE
  2
AmdtAdMenuState
  3
DesignerServices
 90
     1024
 91
        1
280
     0
281
     0
  0
CLASS
  1
ADAPPL
  2
AcAdAppl
  3
DesignerServices
 90
     1024
 91
        1
280
     0
281
     0
  0
CLASS
  1
DEPMGR
  2
AcAdDepMgr
  3
DesignerServices
 90
     1024
 91
        1
280
     0
281
     0
  0
CLASS
  1
PARAMMGR
  2
AcAdParamMgr
  3
DesignerServices
 90
     1024
 91
        1
280
     0
281
     0
  0
CLASS
  1
PARAMSCOPE
  2
AcAdParamScope
  3
DesignerServices
 90
     1024
 91
        1
280
     0
281
     0
  0
CLASS
  1
NAMEDAPPL
  2
AcAdNamedAppl
  3
DesignerServices
 90
     1024
 91
        1
280
     0
281
     0
  0
CLASS
  1
AMDTDMMENUSTATE
  2
AmdtDmMenuState
  3
AcMechDwgViewMgmt
 90
     1024
 91
        1
280
     0
281
     0
  0
CLASS
  1
AMDTAMMENUSTATE
  2
AmdtAmMenuState
  3
DesignerAssemblies
 90
     1024
 91
        1
280
     0
281
     0
  0
CLASS
  1
ACIMSTRSYSVAR
  2
AcImStrSysVar
  3
AcMeServices
 90
     1024
 91
        5
280
     0
281
     0
  0
CLASS
  1
ACAMPROJECT
  2
AcAmProject
  3
DesignerAssemblies
 90
     1024
 91
        1
280
     0
281
     0
  0
CLASS
  1
ACAMGRCOMPDEF
  2
AcAmGrCompDef
  3
DesignerAssemblies
 90
     1024
 91
        1
280
     0
281
     0
  0
CLASS
  1
ACCMCONTEXT
  2
AcCmContext
  3
DesignerAssemblies
 90
     1024
 91
        1
280
     0
281
     0
  0
CLASS
  1
ACAMCOMPDEF
  2
AcAmCompDef
  3
DesignerAssemblies
 90
     1024
 91
        1
280
     0
281
     0
  0
CLASS
  1
ACAMCOMPDEFMGR
  2
AcAmCompDefMgr
  3
DesignerAssemblies
 90
     1024
 91
        1
280
     0
281
     0
  0
CLASS
  1
AMCONTEXTMGR
  2
AcAmContextMgr
  3
DesignerAssemblies
 90
     1024
 91
        1
280
     0
281
     0
  0
CLASS
  1
ACAMCONTEXTMODELER
  2
AcAmContextModeler
  3
DesignerAssemblies
 90
     1024
 91
        1
280
     0
281
     0
  0
CLASS
  1
ACMDATADICTIONARY
  2
AcmDataDictionary
  3
"AcmSymBB|Product Description: AutoCAD Mechanical|Company: Autodesk, Inc."
 90
     1024
 91
        1
280
     0
281
     0
  0
CLASS
  1
CATALOGSTATE
  2
AcAmCatalogState
  3
DesignerAssemblies
 90
     1024
 91
        1
280
     0
281
     0
  0
CLASS
  1
ACAMGRCOMPDEFSET
  2
AcAmGrCompDefSet
  3
DesignerAssemblies
 90
     1024
 91
        1
280
     0
281
     0
  0
CLASS
  1
AMDTBROWSERDBTAB
  2
AmdtBrowserDbTab
  3
McadcomServices
 90
     1024
 91
        1
280
     0
281
     0
  0
CLASS
  1
CBROWSERAPPOBJECT
  2
CBrowserAppObject
  3
McadcomServices
 90
     1024
 91
        3
280
     0
281
     0
  0
CLASS
  1
DM_PLACEHOLDER
  2
AcDmSelsetPlaceholder
  3
AcMechDwgViewMgmt
 90
     1024
 91
        1
280
     0
281
     0
  0
CLASS
  1
ACMSTANDARDANSI
  2
AcmStandardANSI
  3
"Amdt_StdImp|Product Description: AutoCAD Mechanical|Company: Autodesk, Inc."
 90
     1024
 91
        1
280
     0
281
     0
  0
CLASS
  1
AMGOBJPROPCFG
  2
AmgObjPropCfg
  3
"AmgLay|Product Description: AutoCAD Mechanical|Company: Autodesk, Inc."
 90
     1025
 91
        1
280
     0
281
     0
  0
CLASS
  1
ACMSURFSTANDARDANSI
  2
AcmSurfTextStdANSI
  3
"Amdt_StdImp|Product Description: AutoCAD Mechanical|Company: Autodesk, Inc."
 90
     1024
 91
        1
280
     0
281
     0
  0
CLASS
  1
ACMFCFSTANDARDANSI
  2
AcmFCFStdANSI
  3
"Amdt_StdImp|Product Description: AutoCAD Mechanical|Company: Autodesk, Inc."
 90
     1024
 91
        1
280
     0
281
     0
  0
CLASS
  1
ACMWELDSTANDARDANSI
  2
AcmWeldingStdANSI
  3
"Amdt_StdImp|Product Description: AutoCAD Mechanical|Company: Autodesk, Inc."
 90
     1024
 91
        1
280
     0
281
     0
  0
CLASS
  1
ACMIDSTANDARDANSI
  2
AcmIdStdANSI
  3
"Amdt_StdImp|Product Description: AutoCAD Mechanical|Company: Autodesk, Inc."
 90
     1024
 91
        1
280
     0
281
     0
  0
CLASS
  1
ACMDATUMSTANDARDANSI
  2
AcmDatumStdANSI
  3
"Amdt_StdImp|Product Description: AutoCAD Mechanical|Company: Autodesk, Inc."
 90
     1024
 91
        1
280
     0
281
     0
  0
CLASS
  1
ACMBOMSTANDARDANSI
  2
AcmBOMStdANSI
  3
"Amdt_StdImp|Product Description: AutoCAD Mechanical|Company: Autodesk, Inc."
 90
     1024
 91
        1
280
     0
281
     0
  0
CLASS
  1
ACMDETAILSTANDARDANSI
  2
AmdtDetailSymStdANSI
  3
"Amdt_StdImp|Product Description: AutoCAD Mechanical|Company: Autodesk, Inc."
 90
     1024
 91
        1
280
     0
281
     0
  0
CLASS
  1
ACMSECTIONSTANDARDANSI
  2
AmdtSectionSymStdANSI
  3
"Amdt_StdImp|Product Description: AutoCAD Mechanical|Company: Autodesk, Inc."
 90
     1024
 91
        1
280
     0
281
     0
  0
CLASS
  1
ACMCENTERLINESTANDARDANSI
  2
AmdtCenterLineStdANSI
  3
"Amdt_StdImp|Product Description: AutoCAD Mechanical|Company: Autodesk, Inc."
 90
     1024
 91
        1
280
     0
281
     0
  0
CLASS
  1
ACMTHREADLINESTANDARDANSI
  2
AmdtThreadLineStdANSI
  3
"Amdt_StdImp|Product Description: AutoCAD Mechanical|Company: Autodesk, Inc."
 90
     1024
 91
        1
280
     0
281
     0
  0
CLASS
  1
ACMNOTESTANDARDANSI
  2
AmdtNoteStdANSI
  3
"Amdt_StdImp|Product Description: AutoCAD Mechanical|Company: Autodesk, Inc."
 90
     1024
 91
        1
280
     0
281
     0
  0
CLASS
  1
AMDTNOTETEMPLATEDB
  2
AmdtNoteTemplateDB
  3
AcmSymBB|Product Description: AutoCAD Mechanical|Company: Autodesk, Inc.
 90
     1024
 91
       10
280
     0
281
     0
  0
CLASS
  1
ACAMGLAYSTD
  2
AcAmgLayStd
  3
"AmgLay|Product Description: AutoCAD Mechanical|Company: Autodesk, Inc."
 90
     1024
 91
        2
280
     0
281
     0
  0
CLASS
  1
ACAMGDIMSTD
  2
AcAmgDimStd
  3
"AmgDim|Product Description: AutoCAD Mechanical|Company: Autodesk, Inc."
 90
     1024
 91
        2
280
     0
281
     0
  0
CLASS
  1
ACAMGHOLECHARTSTDANSI
  2
AcAmgHoleChartStdANSI
  3
AmgDim|Product Description: AutoCAD Mechanical|Company: Autodesk, Inc.
 90
     1024
 91
        1
280
     0
281
     0
  0
CLASS
  1
ACAMGTITLESTD
  2
AcAmgTitleStd
  3
"AmgTitle|Product Description: AutoCAD Mechanical|Company: Autodesk, Inc."
 90
     4095
 91
        2
280
     0
281
     0
  0
CLASS
  1
ACAMGFILTERDAT
  2
AcAmgFilterDat
  3
"AcadM|Product Description: AutoCAD Mechanical|Company: Autodesk, Inc."
 90
     1024
 91
        6
280
     0
281
     0
  0
CLASS
  1
TABLESTYLE
  2
AcDbTableStyle
  3
ObjectDBX Classes
 90
     4095
 91
        1
280
     0
281
     0
  0
CLASS
  1
VAACXREFPANELOBJECT
  2
VaAcXREFPanelObject
  3
VAAC_ADDIN
 90
        0
 91
        0
280
     0
281
     0
  0
CLASS
  1
VAACIMAGEINVENTORY
  2
VaAcImageInventory
  3
VAAC_ADDIN
 90
        0
 91
        0
280
     0
281
     0
  0
CLASS
  1
ACMDATAENTRYBLOCK
  2
AcmDataEntryBlock
  3
AcmSymBB|Product Description: AutoCAD Mechanical|Company: Autodesk, Inc.
 90
     1024
 91
        1
280
     0
281
     0
  0
CLASS
  1
AC_AM_2D_XREF_MGR
  2
AcAmXrefMgr2d
  3
DesignerAssemblies
 90
     1024
 91
        1
280
     0
281
     0
  0
CLASS
  1
AC_AM_MVD_DEP_MGR
  2
AcAmMVDdepMgr
  3
DesignerAssemblies
 90
     1024
 91
        1
280
     0
281
     0
  0
CLASS
  1
AC_AM_MASTER_VIEW_DEF
  2
AcAmMasterViewDef
  3
DesignerAssemblies
 90
     1024
 91
        1
280
     0
281
     0
  0
CLASS
  1
AC_AM_DIRTY_NODES
  2
AcAmDirtyNodes
  3
DesignerAssemblies
 90
     1024
 91
        1
280
     0
281
     0
  0
CLASS
  1
AC_AM_MAPPER_CACHE
  2
AcAmMapperCache
  3
DesignerAssemblies
 90
     1024
 91
        1
280
     0
281
     0
  0
CLASS
  1
ACAMMVDBACKUPOBJECT
  2
AcAmMVDBackupObject
  3
DesignerAssemblies
 90
     1024
 91
        1
280
     0
281
     0
  0
CLASS
  1
MATERIAL
  2
AcDbMaterial
  3
ObjectDBX Classes
 90
     1153
 91
        3
280
     0
281
     0
  0
CLASS
  1
VISUALSTYLE
  2
AcDbVisualStyle
  3
ObjectDBX Classes
 90
     4095
 91
       16
280
     0
281
     0
  0
CLASS
  1
ACMTAPERSTANDARDANSI
  2
AcmTaperStdANSI
  3
"Amdt_StdImp|Product Description: AutoCAD Mechanical|Company: Autodesk, Inc."
 90
     1024
 91
        1
280
     0
281
     0
  0
CLASS
  1
SORTENTSTABLE
  2
AcDbSortentsTable
  3
ObjectDBX Classes
 90
        0
 91
        1
280
     0
281
     0
  0
CLASS
  1
ACMDIMBREAKPERSREACTOR
  2
AcmDimBreakPersReactor
  3
AmgDim|Product Description: AutoCAD Mechanical|Company: Autodesk, Inc.
 90
     4095
 91
       11
280
     0
281
     0
  0
CLASS
  1
SCALE
  2
AcDbScale
  3
ObjectDBX Classes
 90
     1153
 91
       33
280
     0
281
     0
  0
CLASS
  1
MLEADERSTYLE
  2
AcDbMLeaderStyle
  3
ACDB_MLEADERSTYLE_CLASS
 90
     4095
 91
        1
280
     0
281
     0
  0
CLASS
  1
ACMANOOTATIONVIEWSTANDARDANSI
  2
AmdtAnViewStdANSI
  3
"Amdt_StdImp|Product Description: AutoCAD Mechanical|Company: Autodesk, Inc."
 90
     1024
 91
        1
280
     0
281
     0
  0
CLASS
  1
ACMSTANDARDDIN
  2
AcmStandardDIN
  3
"Amdt_StdImp|Product Description: AutoCAD Mechanical|Company: Autodesk, Inc."
 90
     1024
 91
        1
280
     0
281
     0
  0
CLASS
  1
AMDTEDGESTANDARDDIN13715
  2
AmdtEdgeStdDIN13715
  3
"Amdt_StdImp|Product Description: AutoCAD Mechanical|Company: Autodesk, Inc."
 90
     1024
 91
        1
280
     0
281
     0
  0
CLASS
  1
ACMSURFSTANDARDDIN2002
  2
AcmSurfTextStdDIN2002
  3
"Amdt_StdImp|Product Description: AutoCAD Mechanical|Company: Autodesk, Inc."
 90
     1024
 91
        1
280
     0
281
     0
  0
CLASS
  1
ACMFCFSTANDARDDIN
  2
AcmFCFStdDIN
  3
"Amdt_StdImp|Product Description: AutoCAD Mechanical|Company: Autodesk, Inc."
 90
     1024
 91
        1
280
     0
281
     0
  0
CLASS
  1
ACMWELDSTANDARDDIN
  2
AcmWeldingStdDIN
  3
"Amdt_StdImp|Product Description: AutoCAD Mechanical|Company: Autodesk, Inc."
 90
     1024
 91
        1
280
     0
281
     0
  0
CLASS
  1
ACMIDSTANDARDDIN
  2
AcmIdStdDIN
  3
"Amdt_StdImp|Product Description: AutoCAD Mechanical|Company: Autodesk, Inc."
 90
     1024
 91
        1
280
     0
281
     0
  0
CLASS
  1
ACMDATUMSTANDARDDIN
  2
AcmDatumStdDIN
  3
"Amdt_StdImp|Product Description: AutoCAD Mechanical|Company: Autodesk, Inc."
 90
     1024
 91
        1
280
     0
281
     0
  0
CLASS
  1
ACMBOMSTANDARDDIN
  2
AcmBOMStdDIN
  3
"Amdt_StdImp|Product Description: AutoCAD Mechanical|Company: Autodesk, Inc."
 90
     1024
 91
        1
280
     0
281
     0
  0
CLASS
  1
ACMDETAILSTANDARDDIN
  2
AmdtDetailSymStdDIN
  3
"Amdt_StdImp|Product Description: AutoCAD Mechanical|Company: Autodesk, Inc."
 90
     1024
 91
        1
280
     0
281
     0
  0
CLASS
  1
ACMSECTIONSTANDARDDIN
  2
AmdtSectionSymStdDIN
  3
"Amdt_StdImp|Product Description: AutoCAD Mechanical|Company: Autodesk, Inc."
 90
     1024
 91
        1
280
     0
281
     0
  0
CLASS
  1
ACMCENTERLINESTANDARDDIN
  2
AmdtCenterLineStdDIN
  3
"Amdt_StdImp|Product Description: AutoCAD Mechanical|Company: Autodesk, Inc."
 90
     1024
 91
        1
280
     0
281
     0
  0
CLASS
  1
ACMTHREADLINESTANDARDDIN
  2
AmdtThreadLineStdDIN
  3
"Amdt_StdImp|Product Description: AutoCAD Mechanical|Company: Autodesk, Inc."
 90
     1024
 91
        1
280
     0
281
     0
  0
CLASS
  1
ACMNOTESTANDARDDIN
  2
AmdtNoteStdDIN
  3
"Amdt_StdImp|Product Description: AutoCAD Mechanical|Company: Autodesk, Inc."
 90
     1024
 91
        1
280
     0
281
     0
  0
CLASS
  1
ACMTAPERSTANDARDDIN
  2
AcmTaperStdDIN
  3
"Amdt_StdImp|Product Description: AutoCAD Mechanical|Company: Autodesk, Inc."
 90
     1024
 91
        1
280
     0
281
     0
  0
CLASS
  1
ACMANOOTATIONVIEWSTANDARDDIN
  2
AmdtAnViewStdDIN
  3
"Amdt_StdImp|Product Description: AutoCAD Mechanical|Company: Autodesk, Inc."
 90
     1024
 91
        1
280
     0
281
     0
  0
CLASS
  1
ACAMGHOLECHARTSTDDIN
  2
AcAmgHoleChartStdDIN
  3
AmgDim|Product Description: AutoCAD Mechanical|Company: Autodesk, Inc.
 90
     1024
 91
        1
280
     0
281
     0
  0
CLASS
  1
CELLSTYLEMAP
  2
AcDbCellStyleMap
  3
ObjectDBX Classes
 90
     1152
 91
        2
280
     0
281
     0
  0
ENDSEC
  0
SECTION
  2
TABLES
  0
TABLE
  2
VPORT
  5
13
330
0
100
AcDbSymbolTable
 70
     1
  0
VPORT
  5
5CD
330
13
100
AcDbSymbolTableRecord
100
AcDbViewportTableRecord
  2
*Active
 70
     0
 10
0.0
 20
0.0
 11
1.0
 21
1.0
 12
770.9018138270582
 22
350.820713122806
 13
0.0
 23
0.0
 14
2.5
 24
2.5
 15
10.0
 25
10.0
 16
0.0
 26
0.0
 36
1.0
 17
0.0
 27
0.0
 37
0.0
 40
909.1384670089574
 41
1.553846153846153
 42
50.0
 43
0.0
 44
0.0
 50
0.0
 51
0.0
 71
     0
 72
   100
 73
     1
 74
     0
 75
     0
 76
     0
 77
     0
 78
     0
281
     0
 65
     1
110
0.0
120
0.0
130
0.0
111
1.0
121
0.0
131
0.0
112
0.0
122
1.0
132
0.0
 79
     0
146
0.0
  0
ENDTAB
  0
TABLE
  2
LTYPE
  5
E
330
0
100
AcDbSymbolTable
 70
    21
  0
LTYPE
  5
F
330
E
100
AcDbSymbolTableRecord
100
AcDbLinetypeTableRecord
  2
BYBLOCK
 70
     0
  3

 72
    65
 73
     0
 40
0.0
  0
LTYPE
  5
10
330
E
100
AcDbSymbolTableRecord
100
AcDbLinetypeTableRecord
  2
BYLAYER
 70
     0
  3

 72
    65
 73
     0
 40
0.0
  0
LTYPE
  5
6
330
E
100
AcDbSymbolTableRecord
100
AcDbLinetypeTableRecord
  2
CONTINUOUS
 70
     0
  3
Solid line
 72
    65
 73
     0
 40
0.0
  0
LTYPE
  5
81
330
E
100
AcDbSymbolTableRecord
100
AcDbLinetypeTableRecord
  2
HIDDEN
 70
     0
  3
Verdeckt
 72
    65
 73
     2
 40
0.375
 49
0.25
 74
     0
 49
-0.125
 74
     0
  0
LTYPE
  5
82
330
E
100
AcDbSymbolTableRecord
100
AcDbLinetypeTableRecord
  2
PHANTOM2
 70
     0
  3
Phantom (.5x) ___ _ _ ___ _ _ ___ _ _ ___ _ _
 72
    65
 73
     6
 40
1.25
 49
0.625
 74
     0
 49
-0.125
 74
     0
 49
0.125
 74
     0
 49
-0.125
 74
     0
 49
0.125
 74
     0
 49
-0.125
 74
     0
  0
LTYPE
  5
83
330
E
100
AcDbSymbolTableRecord
100
AcDbLinetypeTableRecord
  2
CENTER
 70
     0
  3
Mitte ____ _ ____ _ ____ _ ____ _ ____ _ ____
 72
    65
 73
     4
 40
2.0
 49
1.25
 74
     0
 49
-0.25
 74
     0
 49
0.25
 74
     0
 49
-0.25
 74
     0
  0
LTYPE
  5
CD
330
E
100
AcDbSymbolTableRecord
100
AcDbLinetypeTableRecord
  2
Amconstr
 70
     0
  3
_______________________
 72
    65
 73
     2
 40
9999.0
 49
9999.0
 74
     0
 49
0.0
 74
     0
  0
LTYPE
  5
D3
330
E
100
AcDbSymbolTableRecord
100
AcDbLinetypeTableRecord
  2
CENTER2
 70
     0
  3
Center (.5x) ___ _ ___ _ ___ _ ___ _ ___ _ ___
 72
    65
 73
     4
 40
1.125
 49
0.75
 74
     0
 49
-0.125
 74
     0
 49
0.125
 74
     0
 49
-0.125
 74
     0
  0
LTYPE
  5
D4
330
E
100
AcDbSymbolTableRecord
100
AcDbLinetypeTableRecord
  2
HIDDEN2
 70
     0
  3
Hidden (.5x) _ _ _ _ _ _ _ _ _ _ _ _ _ _ _ _ _
 72
    65
 73
     2
 40
0.1875
 49
0.125
 74
     0
 49
-0.0625
 74
     0
  0
LTYPE
  5
D5
330
E
100
AcDbSymbolTableRecord
100
AcDbLinetypeTableRecord
  2
Amzigzag2
 70
     0
  3
/\/-/\/-/\/-/\/-/\/-/\/
 72
    65
 73
     2
 40
0.4401
 49
0.0001
 74
     4
 75
   135
340
D1
 46
0.0016
 50
0.0
 44
0.0
 45
0.0
 49
-0.4400000000000001
 74
     0
  0
LTYPE
  5
E3
330
E
100
AcDbSymbolTableRecord
100
AcDbLinetypeTableRecord
  2
ACANSTGB
 70
     0
  3
__ . . __ . .
 72
    65
 73
     6
 40
0.35433070866
 49
0.15748031496
 74
     0
 49
-0.03937007874
 74
     0
 49
0.03937007874
 74
     0
 49
-0.03937007874
 74
     0
 49
0.03937007874
 74
     0
 49
-0.03937007874
 74
     0
  0
LTYPE
  5
E4
330
E
100
AcDbSymbolTableRecord
100
AcDbLinetypeTableRecord
  2
ACANSTGL
 70
     0
  3
_ _ _ _ _
 72
    65
 73
     2
 40
0.11811023622
 49
0.07874015748
 74
     0
 49
-0.03937007874
 74
     0
  0
LTYPE
  5
AE7
330
E
100
AcDbSymbolTableRecord
100
AcDbLinetypeTableRecord
  2
MITTE
 70
     0
  3
____ _ ____ _ ____ _ ____ _ ____ _ ____ _ ____ 
 72
    65
 73
     4
 40
2.0
 49
1.25
 74
     0
 49
-0.25
 74
     0
 49
0.25
 74
     0
 49
-0.25
 74
     0
  0
LTYPE
  5
3ECF
330
E
100
AcDbSymbolTableRecord
100
AcDbLinetypeTableRecord
  2
ACDINWELD
 70
     0
  3
_ _ _ _ _
 72
    65
 73
     2
 40
2.0
 49
2.0
 74
     0
 49
-1.0
 74
     0
  0
LTYPE
  5
3ED0
330
E
100
AcDbSymbolTableRecord
100
AcDbLinetypeTableRecord
  2
ACDINTGB
 70
     0
  3
__ . . __ . .
 72
    65
 73
     6
 40
9.0
 49
4.0
 74
     0
 49
-1.0
 74
     0
 49
1.0
 74
     0
 49
-1.0
 74
     0
 49
1.0
 74
     0
 49
-1.0
 74
     0
  0
LTYPE
  5
3ED1
330
E
100
AcDbSymbolTableRecord
100
AcDbLinetypeTableRecord
  2
ACDINTGL
 70
     0
  3
_ _ _ _ _
 72
    65
 73
     2
 40
3.0
 49
2.0
 74
     0
 49
-1.0
 74
     0
  0
LTYPE
  5
3EEB
330
E
100
AcDbSymbolTableRecord
100
AcDbLinetypeTableRecord
  2
Amzigzag
 70
     0
  3
/\/-/\/-/\/-/\/-/\/-/\/
 72
    65
 73
     2
 40
11.0001
 49
0.0001
 74
     4
 75
   136
340
3EEA
 46
0.04
 50
0.0
 44
0.0
 45
0.0
 49
-11.0
 74
     0
  0
LTYPE
  5
3EEC
330
E
100
AcDbSymbolTableRecord
100
AcDbLinetypeTableRecord
  2
AM_DIN_F_W050
 70
     0
  3
__ __ __ __ __ __ __ __ __ __ __ __ __ __ __
 72
    65
 73
     2
 40
6.25
 49
4.75
 74
     0
 49
-1.5
 74
     0
  0
LTYPE
  5
3EED
330
E
100
AcDbSymbolTableRecord
100
AcDbLinetypeTableRecord
  2
AM_DIN_G_W050
 70
     0
  3
____ . ____ . ____ . ____ . ____ . ____ . ____
 72
    65
 73
     4
 40
13.75
 49
9.75
 74
     0
 49
-1.5
 74
     0
 49
1.0
 74
     0
 49
-1.5
 74
     0
  0
LTYPE
  5
3EEE
330
E
100
AcDbSymbolTableRecord
100
AcDbLinetypeTableRecord
  2
AM_DIN_K_W050
 70
     0
  3
_____ . . _____ . . _____ . . ____ .. ____
 72
    65
 73
     6
 40
16.25
 49
9.75
 74
     0
 49
-1.5
 74
     0
 49
1.0
 74
     0
 49
-1.5
 74
     0
 49
1.0
 74
     0
 49
-1.5
 74
     0
  0
LTYPE
  5
3EEF
330
E
100
AcDbSymbolTableRecord
100
AcDbLinetypeTableRecord
  2
AM_DIN_G_W050x2
 70
     0
  3
__ . __ . __ . __ . __ . __
 72
    65
 73
     4
 40
6.875
 49
4.75
 74
     0
 49
-0.875
 74
     0
 49
0.375
 74
     0
 49
-0.875
 74
     0
  0
LTYPE
  5
3EF0
330
E
100
AcDbSymbolTableRecord
100
AcDbLinetypeTableRecord
  2
AM_DIN_F_W050x2
 70
     0
  3
 _ _ _ _ _ _ _ _ _ _ _ _
 72
    65
 73
     2
 40
3.125
 49
2.25
 74
     0
 49
-0.875
 74
     0
  0
ENDTAB
  0
TABLE
  2
LAYER
  5
B
330
0
100
AcDbSymbolTable
 70
     7
  0
LAYER
  5
5
102
{ACAD_XDICTIONARY
360
3EF1
102
}
330
B
100
AcDbSymbolTableRecord
100
AcDbLayerTableRecord
  2
0
 70
     0
 62
     7
  6
CONTINUOUS
370
    -3
390
5D
  0
LAYER
  5
89F
330
B
100
AcDbSymbolTableRecord
100
AcDbLayerTableRecord
  2
Defpoints
 70
     0
 62
     7
  6
CONTINUOUS
290
     0
370
    -3
390
5D
  0
LAYER
  5
AE8
102
{ACAD_XDICTIONARY
360
3EF3
102
}
330
B
100
AcDbSymbolTableRecord
100
AcDbLayerTableRecord
  2
MITTE
 70
     0
 62
     4
  6
MITTE
370
    -3
390
5D
  0
LAYER
  5
AE9
102
{ACAD_XDICTIONARY
360
3EF5
102
}
330
B
100
AcDbSymbolTableRecord
100
AcDbLayerTableRecord
  2
SCHRAFF
 70
     0
 62
     1
  6
CONTINUOUS
370
    -3
390
5D
  0
LAYER
  5
AEA
102
{ACAD_XDICTIONARY
360
3EF7
102
}
330
B
100
AcDbSymbolTableRecord
100
AcDbLayerTableRecord
  2
LINIE
 70
     0
 62
     4
  6
CONTINUOUS
370
    -3
390
5D
  0
ENDTAB
  0
TABLE
  2
STYLE
  5
C
330
0
100
AcDbSymbolTable
 70
     8
  0
STYLE
  5
D
330
C
100
AcDbSymbolTableRecord
100
AcDbTextStyleTableRecord
  2
STANDARD
 70
     0
 40
0.0
 41
1.0
 50
0.0
 71
     0
 42
20.0
  3
romans.shx
  4

  0
STYLE
  5
D1
330
C
100
AcDbSymbolTableRecord
100
AcDbTextStyleTableRecord
  2

 70
     1
 40
0.0
 41
1.0
 50
0.0
 71
     0
 42
20.0
  3
ltypeshp.shx
  4

  0
STYLE
  5
D6
330
C
100
AcDbSymbolTableRecord
100
AcDbTextStyleTableRecord
  2
ACANSTS
 70
     0
 40
1.0
 41
1.0
 50
0.0
 71
     0
 42
20.0
  3
romans.shx
  4

  0
STYLE
  5
E2
330
C
100
AcDbSymbolTableRecord
100
AcDbTextStyleTableRecord
  2
ACANSGDT
 70
     0
 40
0.0
 41
1.0
 50
0.0
 71
     0
 42
20.0
  3
amgdtans.shx
  4

  0
STYLE
  5
3EBF
330
C
100
AcDbSymbolTableRecord
100
AcDbTextStyleTableRecord
  2
ACDINTS
 70
     0
 40
1.0
 41
1.0
 50
0.0
 71
     0
 42
20.0
  3
isocp.shx
  4

  0
STYLE
  5
3ECE
330
C
100
AcDbSymbolTableRecord
100
AcDbTextStyleTableRecord
  2
ACDINGDT
 70
     0
 40
0.0
 41
1.0
 50
0.0
 71
     0
 42
20.0
  3
amgdt.shx
  4

  0
STYLE
  5
3EEA
330
C
100
AcDbSymbolTableRecord
100
AcDbTextStyleTableRecord
  2

 70
     1
 40
0.0
 41
1.0
 50
0.0
 71
     0
 42
20.0
  3
genltshp.shx
  4

  0
ENDTAB
  0
TABLE
  2
VIEW
  5
11
330
0
100
AcDbSymbolTable
 70
     0
  0
ENDTAB
  0
TABLE
  2
UCS
  5
12
330
0
100
AcDbSymbolTable
 70
     0
  0
ENDTAB
  0
TABLE
  2
APPID
  5
15
330
0
100
AcDbSymbolTable
 70
    20
  0
APPID
  5
16
330
15
100
AcDbSymbolTableRecord
100
AcDbRegAppTableRecord
  2
ACAD
 70
     0
  0
APPID
  5
30
330
15
100
AcDbSymbolTableRecord
100
AcDbRegAppTableRecord
  2
MCAD_NO_VIS
 70
     0
  0
APPID
  5
6D
330
15
100
AcDbSymbolTableRecord
100
AcDbRegAppTableRecord
  2
ACAD_TEMP_GRAPHIC
 70
     0
  0
APPID
  5
98
330
15
100
AcDbSymbolTableRecord
100
AcDbRegAppTableRecord
  2
AD_DRAW
 70
     0
  0
APPID
  5
9B
330
15
100
AcDbSymbolTableRecord
100
AcDbRegAppTableRecord
  2
ACATTRIBSERVICES
 70
     0
  0
APPID
  5
B9
330
15
100
AcDbSymbolTableRecord
100
AcDbRegAppTableRecord
  2
DESIGNERASSEMBLIES
 70
     0
  0
APPID
  5
C1
330
15
100
AcDbSymbolTableRecord
100
AcDbRegAppTableRecord
  2
ACADM_DIM_EDIT
 70
     0
  0
APPID
  5
C2
330
15
100
AcDbSymbolTableRecord
100
AcDbRegAppTableRecord
  2
AMDT_DM_ADJ
 70
     0
  0
APPID
  5
191
330
15
100
AcDbSymbolTableRecord
100
AcDbRegAppTableRecord
  2
GENIUS_GENOREF_13
 70
     0
  0
APPID
  5
192
330
15
100
AcDbSymbolTableRecord
100
AcDbRegAppTableRecord
  2
ACAD_PSEXT
 70
     0
  0
APPID
  5
5C3
330
15
100
AcDbSymbolTableRecord
100
AcDbRegAppTableRecord
  2
AMG_2DHIDE
 70
     0
  0
APPID
  5
5C4
330
15
100
AcDbSymbolTableRecord
100
AcDbRegAppTableRecord
  2
AMG_2DSTRUCT_BTR
 70
     0
  0
APPID
  5
613
330
15
100
AcDbSymbolTableRecord
100
AcDbRegAppTableRecord
  2
ACAD_EXEMPT_FROM_CAD_STANDARDS
 70
     0
  0
APPID
  5
AED
330
15
100
AcDbSymbolTableRecord
100
AcDbRegAppTableRecord
  2
AcAecLayerStandard
 70
     0
  0
APPID
  5
3E1C
330
15
100
AcDbSymbolTableRecord
100
AcDbRegAppTableRecord
  2
ACAD_MLEADERVER
 70
     0
  0
APPID
  5
3F01
330
15
100
AcDbSymbolTableRecord
100
AcDbRegAppTableRecord
  2
DCO15
 70
     0
  0
APPID
  5
3F0B
330
15
100
AcDbSymbolTableRecord
100
AcDbRegAppTableRecord
  2
AcadAnnoPO
 70
     0
  0
APPID
  5
491A
330
15
100
AcDbSymbolTableRecord
100
AcDbRegAppTableRecord
  2
ACAD_DSTYLE_DIMINSPECT
 70
     0
  0
APPID
  5
4926
330
15
100
AcDbSymbolTableRecord
100
AcDbRegAppTableRecord
  2
GENIUS_GENDTOL_13
 70
     0
  0
APPID
  5
4E0B
330
15
100
AcDbSymbolTableRecord
100
AcDbRegAppTableRecord
  2
ACAD_DSTYLE_DIMJOGGED_JOGANGLE_SYMBOL
 70
     0
  0
ENDTAB
  0
TABLE
  2
DIMSTYLE
  5
17
330
0
100
AcDbSymbolTable
 70
    17
100
AcDbDimStyleTable
 71
     1
340
3EDB
  0
DIMSTYLE
105
EB
330
17
100
AcDbSymbolTableRecord
100
AcDbDimStyleTableRecord
  2
AM_ANSI
 70
     0
  4
mm
 41
0.1
 42
0.05
 43
0.5
 44
0.1
 47
0.1
 48
0.1
 78
     7
 79
     2
140
0.12
141
0.0
146
0.71
147
0.06
176
   256
177
   256
178
     2
274
     4
284
     7
340
D
371
    -1
372
    -1
  0
DIMSTYLE
105
EC
330
17
100
AcDbSymbolTableRecord
100
AcDbDimStyleTableRecord
  2
AM_ANSI$3
 70
     0
  4
mm
 41
0.1
 42
0.05
 43
0.5
 44
0.1
 47
0.1
 48
0.1
 78
     7
 79
     2
140
0.12
141
0.0
146
0.71
147
0.06
176
   256
177
   256
178
     2
274
     4
284
     7
288
     1
289
     0
340
D
371
    -1
372
    -1
  0
DIMSTYLE
105
ED
330
17
100
AcDbSymbolTableRecord
100
AcDbDimStyleTableRecord
  2
AM_ANSI$4
 70
     0
  4
mm
 41
0.1
 42
0.05
 43
0.5
 44
0.1
 47
0.1
 48
0.1
 78
     7
 79
     2
140
0.12
141
0.0
146
0.71
147
0.06
176
   256
177
   256
178
     2
274
     4
284
     7
288
     1
289
     0
340
D
371
    -1
372
    -1
  0
DIMSTYLE
105
EE
330
17
100
AcDbSymbolTableRecord
100
AcDbDimStyleTableRecord
  2
AM_ANSI$7
 70
     0
  4
mm
 41
0.1
 42
0.05
 43
0.5
 44
0.1
 47
0.1
 48
0.1
 78
     7
 79
     2
140
0.24
141
0.0
146
0.71
147
0.06
176
   256
177
   256
178
     2
274
     4
284
     7
340
D
371
    -1
372
    -1
  0
DIMSTYLE
105
EF
330
17
100
AcDbSymbolTableRecord
100
AcDbDimStyleTableRecord
  2
AM_ANSI$SF
 70
     0
  4
mm
 41
0.1
 42
0.05
 43
0.5
 44
0.1
 47
0.1
 48
0.1
 75
     1
 76
     1
 78
     7
 79
     2
140
0.12
141
0.0
146
0.71
147
0.06
176
   256
177
   256
178
     2
274
     4
284
     7
340
D
371
    -1
372
    -1
  0
DIMSTYLE
105
F4
330
17
100
AcDbSymbolTableRecord
100
AcDbDimStyleTableRecord
  2
AM_ANSI$SH
 70
     0
  4
mm
 41
0.1
 42
0.05
 43
0.5
 44
0.1
 47
0.1
 48
0.1
 75
     1
 76
     1
 78
     7
 79
     2
140
0.12
141
0.0
146
0.71
147
0.06
173
     1
176
   256
177
   256
178
     2
274
     4
284
     7
340
D
343
F0
371
    -1
372
    -1
  0
DIMSTYLE
105
190
330
17
100
AcDbSymbolTableRecord
100
AcDbDimStyleTableRecord
  2
STANDARD
 70
     0
 41
3.5
 42
0.0
 43
7.0
 44
1.25
 73
     0
 74
     0
 77
     1
 78
     8
140
3.5
141
0.0
144
0.5
146
0.7142857142857144
147
1.5
172
     1
176
   256
177
   256
178
   256
340
D
  0
DIMSTYLE
105
3EDB
330
17
100
AcDbSymbolTableRecord
100
AcDbDimStyleTableRecord
  2
AM_DIN
 70
     0
  4
"
 41
2.5
 42
1.0
 43
10.0
 44
1.0
 47
0.1
 48
0.1
 73
     0
 74
     0
 77
     1
 78
     8
 79
     2
140
3.5
141
0.0
143
0.0393701
146
0.71
147
1.5
172
     1
176
   256
177
   256
178
     2
271
     2
272
     3
274
     4
283
     0
284
     8
340
D
371
    -1
372
    -1
1001
ACAD_DSTYLE_DIMJOGGED_JOGANGLE_SYMBOL
1070
   384
1040
1.570796326794896
  0
DIMSTYLE
105
3EDC
330
17
100
AcDbSymbolTableRecord
100
AcDbDimStyleTableRecord
  2
AM_DIN$3
 70
     0
  4
"
 41
2.5
 42
1.0
 43
10.0
 44
1.0
 47
0.1
 48
0.1
 73
     0
 77
     1
 78
     8
 79
     2
140
3.5
141
0.0
143
0.0393701
146
0.71
147
1.5
176
   256
177
   256
178
     2
271
     2
272
     3
274
     4
283
     0
284
     8
288
     1
289
     0
340
D
371
    -1
372
    -1
1001
ACAD_DSTYLE_DIMJOGGED_JOGANGLE_SYMBOL
1070
   384
1040
1.570796326794896
  0
DIMSTYLE
105
3EDD
330
17
100
AcDbSymbolTableRecord
100
AcDbDimStyleTableRecord
  2
AM_DIN$4
 70
     0
  4
"
 41
2.5
 42
1.0
 43
10.0
 44
1.0
 47
0.1
 48
0.1
 73
     0
 77
     1
 78
     8
 79
     2
140
3.5
141
0.0
143
0.0393701
146
0.71
147
1.5
176
   256
177
   256
178
     2
271
     2
272
     3
274
     4
283
     0
284
     8
288
     1
289
     0
340
D
371
    -1
372
    -1
1001
ACAD_DSTYLE_DIMJOGGED_JOGANGLE_SYMBOL
1070
   384
1040
1.570796326794896
  0
DIMSTYLE
105
3EDE
330
17
100
AcDbSymbolTableRecord
100
AcDbDimStyleTableRecord
  2
AM_DIN$6
 70
     0
  4
"
 41
2.5
 42
1.0
 43
10.0
 44
1.0
 47
0.1
 48
0.1
 73
     0
 74
     0
 78
     8
 79
     2
140
3.5
141
0.0
143
0.0393701
146
0.71
147
1.5
172
     1
176
   256
177
   256
178
     2
271
     2
272
     3
274
     4
283
     0
284
     8
340
D
371
    -1
372
    -1
1001
ACAD_DSTYLE_DIMJOGGED_JOGANGLE_SYMBOL
1070
   384
1040
1.570796326794896
  0
DIMSTYLE
105
3EDF
330
17
100
AcDbSymbolTableRecord
100
AcDbDimStyleTableRecord
  2
AM_DIN$7
 70
     0
  4
"
 41
2.5
 42
1.0
 43
10.0
 44
1.0
 47
0.1
 48
0.1
 73
     0
 74
     0
 77
     1
 78
     8
 79
     2
140
5.0
141
0.0
143
0.0393701
146
0.71
147
1.5
172
     1
176
   256
177
   256
178
     2
271
     2
272
     3
274
     4
283
     0
284
     8
340
D
371
    -1
372
    -1
1001
ACAD_DSTYLE_DIMJOGGED_JOGANGLE_SYMBOL
1070
   384
1040
1.570796326794896
  0
DIMSTYLE
105
3EE0
330
17
100
AcDbSymbolTableRecord
100
AcDbDimStyleTableRecord
  2
AM_DIN$SF
 70
     0
  4
"
 41
2.5
 42
1.0
 43
10.0
 44
1.0
 47
0.1
 48
0.1
 73
     0
 74
     0
 75
     1
 76
     1
 77
     1
 78
     8
 79
     2
140
3.5
141
0.0
143
0.0393701
146
0.71
147
1.5
172
     1
176
   256
177
   256
178
     2
271
     2
272
     3
274
     4
283
     0
284
     8
340
D
371
    -1
372
    -1
1001
ACAD_DSTYLE_DIMJOGGED_JOGANGLE_SYMBOL
1070
   384
1040
1.570796326794896
  0
DIMSTYLE
105
3EE1
330
17
100
AcDbSymbolTableRecord
100
AcDbDimStyleTableRecord
  2
AM_DIN$SH
 70
     0
  4
"
 41
2.5
 42
1.0
 43
10.0
 44
1.0
 47
0.1
 48
0.1
 73
     0
 74
     0
 75
     1
 76
     1
 77
     1
 78
     8
 79
     2
140
3.5
141
0.0
143
0.0393701
144
2.0
146
0.71
147
1.5
172
     1
173
     1
176
   256
177
   256
178
     2
271
     2
272
     3
274
     4
283
     0
284
     8
340
D
343
F0
371
    -1
372
    -1
1001
ACAD_DSTYLE_DIMJOGGED_JOGANGLE_SYMBOL
1070
   384
1040
1.570796326794896
  0
ENDTAB
  0
TABLE
  2
BLOCK_RECORD
  5
1
330
0
100
AcDbSymbolTable
 70
    39
  0
BLOCK_RECORD
  5
2
102
{ACAD_XDICTIONARY
360
3
102
}
330
1
100
AcDbSymbolTableRecord
100
AcDbBlockTableRecord
  2
*MODEL_SPACE
340
62
  0
BLOCK_RECORD
  5
8
330
1
100
AcDbSymbolTableRecord
100
AcDbBlockTableRecord
  2
*PAPER_SPACE
340
63
  0
BLOCK_RECORD
  5
F0
330
1
100
AcDbSymbolTableRecord
100
AcDbBlockTableRecord
  2
GENAXEH
340
0
  0
ENDTAB
  0
ENDSEC
  0
SECTION
  2
BLOCKS
  0
BLOCK
  5
4
330
2
100
AcDbEntity
  8
0
100
AcDbBlockBegin
  2
*MODEL_SPACE
 70
     0
 10
0.0
 20
0.0
 30
0.0
  3
*MODEL_SPACE
  1

  0
ENDBLK
  5
7
330
2
100
AcDbEntity
  8
0
100
AcDbBlockEnd
  0
BLOCK
  5
9
330
8
100
AcDbEntity
 67
     1
  8
0
100
AcDbBlockBegin
  2
*PAPER_SPACE
 70
     0
 10
0.0
 20
0.0
 30
0.0
  3
*PAPER_SPACE
  1

  0
ENDBLK
  5
A
330
8
100
AcDbEntity
 67
     1
  8
0
100
AcDbBlockEnd
  0
BLOCK
  5
F2
330
F0
100
AcDbEntity
  8
0
 48
10.0
100
AcDbBlockBegin
  2
GENAXEH
 70
     0
 10
0.0
 20
0.0
 30
0.0
  3
GENAXEH
  1

  0
LINE
  5
F1
330
F0
100
AcDbEntity
  8
0
100
AcDbLine
 10
-1.0
 20
0.0
 30
0.0
 11
1.0
 21
0.0
 31
0.0
  0
ENDBLK
  5
F3
330
F0
100
AcDbEntity
  8
0
 48
10.0
100
AcDbBlockEnd
  0
ENDSEC
  0
SECTION
  2
ENTITIES
  0
LINE
  5
1784
330
2
100
AcDbEntity
  8
MITTE
 48
10.0
100
AcDbLine
 10
397.96347800591
 20
351.3398272286531
 30
0.0
 11
1116.415934594155
 21
351.3398272286531
 31
0.0
  0
LINE
  5
1A3C
330
2
100
AcDbEntity
  8
0
 48
10.0
100
AcDbLine
 10
843.4558861173707
 20
291.3398272286556
 30
0.0
 11
843.4558861173707
 21
301.1798272286558
 31
0.0
  0
LINE
  5
20A0
330
2
100
AcDbEntity
  8
0
 48
10.0
100
AcDbLine
 10
843.4558861173707
 20
411.339827228653
 30
0.0
 11
804.4558861173705
 21
411.339827228653
 31
0.0
  0
LINE
  5
20A1
330
2
100
AcDbEntity
  8
0
 48
10.0
100
AcDbLine
 10
800.4558861173704
 20
411.339827228653
 30
0.0
 11
768.4558861173703
 21
411.339827228653
 31
0.0
  0
LINE
  5
20A2
330
2
100
AcDbEntity
  8
0
 48
10.0
100
AcDbLine
 10
764.4558861173703
 20
411.339827228653
 30
0.0
 11
708.4558861173711
 21
411.3398272286531
 31
0.0
  0
LINE
  5
20A9
330
2
100
AcDbEntity
  8
0
 48
10.0
100
AcDbLine
 10
802.4558861173705
 20
409.339827228653
 30
0.0
 11
804.4558861173705
 21
411.339827228653
 31
0.0
  0
LINE
  5
20AA
330
2
100
AcDbEntity
  8
0
 48
10.0
100
AcDbLine
 10
802.4558861173705
 20
409.339827228653
 30
0.0
 11
800.4558861173704
 21
411.339827228653
 31
0.0
  0
LINE
  5
20AB
330
2
100
AcDbEntity
  8
0
 48
10.0
100
AcDbLine
 10
766.4558861173703
 20
409.339827228653
 30
0.0
 11
768.4558861173703
 21
411.339827228653
 31
0.0
  0
LINE
  5
20AC
330
2
100
AcDbEntity
  8
0
 48
10.0
100
AcDbLine
 10
766.4558861173703
 20
409.339827228653
 30
0.0
 11
764.4558861173703
 21
411.339827228653
 31
0.0
  0
LINE
  5
20B8
330
2
100
AcDbEntity
  8
0
 48
10.0
100
AcDbLine
 10
843.4558861173702
 20
291.339827228653
 30
0.0
 11
843.4558861173702
 21
411.3398272286556
 31
0.0
  0
LINE
  5
20C4
330
2
100
AcDbEntity
  8
0
 48
10.0
100
AcDbLine
 10
843.4558861173707
 20
291.3398272286531
 30
0.0
 11
804.4558861173705
 21
291.3398272286531
 31
0.0
  0
LINE
  5
20C5
330
2
100
AcDbEntity
  8
0
 48
10.0
100
AcDbLine
 10
800.4558861173704
 20
291.3398272286531
 30
0.0
 11
768.4558861173703
 21
291.3398272286531
 31
0.0
  0
LINE
  5
20C6
330
2
100
AcDbEntity
  8
0
 48
10.0
100
AcDbLine
 10
764.4558861173703
 20
291.3398272286531
 30
0.0
 11
708.4558861173706
 21
291.339827228653
 31
0.0
  0
LINE
  5
20CA
330
2
100
AcDbEntity
  8
0
 48
10.0
100
AcDbLine
 10
802.4558861173705
 20
293.3398272286531
 30
0.0
 11
804.4558861173705
 21
291.3398272286531
 31
0.0
  0
LINE
  5
20CB
330
2
100
AcDbEntity
  8
0
 48
10.0
100
AcDbLine
 10
802.4558861173705
 20
293.3398272286531
 30
0.0
 11
800.4558861173704
 21
291.3398272286531
 31
0.0
  0
LINE
  5
20CC
330
2
100
AcDbEntity
  8
0
 48
10.0
100
AcDbLine
 10
766.4558861173703
 20
293.3398272286531
 30
0.0
 11
768.4558861173703
 21
291.3398272286531
 31
0.0
  0
LINE
  5
20CD
330
2
100
AcDbEntity
  8
0
 48
10.0
100
AcDbLine
 10
766.4558861173703
 20
293.3398272286531
 30
0.0
 11
764.4558861173703
 21
291.3398272286531
 31
0.0
  0
LINE
  5
2266
330
2
100
AcDbEntity
  8
0
 48
10.0
100
AcDbLine
 10
525.4558861173675
 20
321.3398272286531
 30
0.0
 11
529.4558861173689
 21
321.3398272286531
 31
0.0
  0
LINE
  5
226A
330
2
100
AcDbEntity
  8
0
 48
10.0
100
AcDbLine
 10
525.4558861173675
 20
321.3398272286531
 30
0.0
 11
525.4558861173675
 21
381.3398272286531
 31
0.0
  0
LINE
  5
2273
330
2
100
AcDbEntity
  8
0
 48
10.0
100
AcDbLine
 10
525.4558861173676
 20
381.3398272286531
 30
0.0
 11
529.4558861173689
 21
381.3398272286531
 31
0.0
  0
LINE
  5
256A
330
2
100
AcDbEntity
  8
0
 48
10.0
100
AcDbLine
 10
529.4558861173689
 20
434.3398272286529
 30
0.0
 11
627.4558861173686
 21
434.3398272286528
 31
0.0
  0
LINE
  5
256C
330
2
100
AcDbEntity
  8
0
 48
10.0
100
AcDbLine
 10
529.4558861173689
 20
434.3398272286529
 30
0.0
 11
529.4558861173689
 21
268.3398272286531
 31
0.0
  0
LINE
  5
258B
330
2
100
AcDbEntity
  8
0
 48
10.0
100
AcDbLine
 10
628.4558861173707
 20
419.4998272286531
 30
0.0
 11
627.4558861173687
 21
419.4998272286531
 31
0.0
  0
LINE
  5
2590
330
2
100
AcDbEntity
  8
0
 48
10.0
100
AcDbLine
 10
529.4558861173689
 20
268.3398272286532
 30
0.0
 11
627.4558861173686
 21
268.3398272286534
 31
0.0
  0
LINE
  5
2592
330
2
100
AcDbEntity
  8
0
 48
10.0
100
AcDbLine
 10
627.4558861173687
 20
268.3398272286531
 30
0.0
 11
627.4558861173687
 21
434.3398272286528
 31
0.0
  0
LINE
  5
2594
330
2
100
AcDbEntity
  8
0
 48
10.0
100
AcDbLine
 10
628.4558861173707
 20
283.179827228653
 30
0.0
 11
627.4558861173687
 21
283.179827228653
 31
0.0
  0
LINE
  5
25D2
330
2
100
AcDbEntity
  8
0
 48
10.0
100
AcDbLine
 10
628.4558861173707
 20
271.3398272286531
 30
0.0
 11
682.4558861173709
 21
271.3398272286531
 31
0.0
  0
LINE
  5
25D3
330
2
100
AcDbEntity
  8
0
 48
10.0
100
AcDbLine
 10
686.4558861173709
 20
271.3398272286531
 30
0.0
 11
696.4558861173706
 21
271.3398272286531
 31
0.0
  0
LINE
  5
25D4
330
2
100
AcDbEntity
  8
0
 48
10.0
100
AcDbLine
 10
628.4558861173707
 20
431.3398272286531
 30
0.0
 11
682.4558861173707
 21
431.3398272286532
 31
0.0
  0
LINE
  5
25D5
330
2
100
AcDbEntity
  8
0
 48
10.0
100
AcDbLine
 10
686.4558861173712
 20
431.3398272286533
 30
0.0
 11
696.4558861173708
 21
431.3398272286532
 31
0.0
  0
LINE
  5
25D7
330
2
100
AcDbEntity
  8
0
 48
10.0
100
AcDbLine
 10
708.4558861173711
 20
424.4116239983774
 30
0.0
 11
708.4558861173706
 21
278.2680304589286
 31
0.0
  0
LINE
  5
25D9
330
2
100
AcDbEntity
  8
0
 48
10.0
100
AcDbLine
 10
628.4558861173707
 20
431.3398272286531
 30
0.0
 11
628.4558861173707
 21
271.3398272286531
 31
0.0
  0
LINE
  5
25E0
330
2
100
AcDbEntity
  8
0
 48
10.0
100
AcDbLine
 10
696.4558861173709
 20
431.3398272286531
 30
0.0
 11
708.4558861173709
 21
424.4116239983775
 31
0.0
  0
LINE
  5
25E1
330
2
100
AcDbEntity
  8
0
 48
10.0
100
AcDbLine
 10
696.4558861173706
 20
271.3398272286531
 30
0.0
 11
708.4558861173706
 21
278.2680304589285
 31
0.0
  0
LINE
  5
2636
330
2
100
AcDbEntity
  8
0
 48
10.0
100
AcDbLine
 10
684.4558861173709
 20
429.339827228653
 30
0.0
 11
682.4558861173708
 21
431.3398272286532
 31
0.0
  0
LINE
  5
2637
330
2
100
AcDbEntity
  8
0
 48
10.0
100
AcDbLine
 10
684.4558861173709
 20
429.339827228653
 30
0.0
 11
686.4558861173711
 21
431.3398272286532
 31
0.0
  0
LINE
  5
2638
330
2
100
AcDbEntity
  8
0
 48
10.0
100
AcDbLine
 10
684.4558861173709
 20
273.3398272286531
 30
0.0
 11
682.4558861173709
 21
271.3398272286531
 31
0.0
  0
LINE
  5
2639
330
2
100
AcDbEntity
  8
0
 48
10.0
100
AcDbLine
 10
684.4558861173709
 20
273.3398272286531
 30
0.0
 11
686.4558861173709
 21
271.3398272286531
 31
0.0
  0
LINE
  5
2792
330
2
100
AcDbEntity
  8
0
 48
10.0
100
AcDbLine
 10
409.4558861173676
 20
379.339827228653
 30
0.0
 11
415.4558861173676
 21
379.339827228653
 31
0.0
  0
LINE
  5
2793
330
2
100
AcDbEntity
  8
0
 48
10.0
100
AcDbLine
 10
515.4558861173676
 20
379.339827228653
 30
0.0
 11
525.4558861173677
 21
379.339827228653
 31
0.0
  0
LINE
  5
2794
330
2
100
AcDbEntity
  8
0
 48
10.0
100
AcDbLine
 10
415.4558861173676
 20
385.339827228653
 30
0.0
 11
515.4558861173676
 21
385.339827228653
 31
0.0
  0
LINE
  5
2795
330
2
100
AcDbEntity
  8
0
 48
10.0
100
AcDbLine
 10
409.4558861173679
 20
323.3398272286527
 30
0.0
 11
525.4558861173676
 21
323.339827228653
 31
0.0
  0
LINE
  5
2796
330
2
100
AcDbEntity
  8
0
 48
10.0
100
AcDbLine
 10
415.4558861173676
 20
371.3398272286527
 30
0.0
 11
515.4558861173676
 21
371.339827228653
 31
0.0
  0
LINE
  5
2797
330
2
100
AcDbEntity
  8
0
 48
10.0
100
AcDbLine
 10
515.4558861173676
 20
385.339827228653
 30
0.0
 11
515.4558861173676
 21
371.339827228653
 31
0.0
  0
LINE
  5
2798
330
2
100
AcDbEntity
  8
LINIE
 48
10.0
100
AcDbLine
 10
405.4558861173676
 20
361.339827228653
 30
0.0
 11
453.4558861173676
 21
361.339827228653
 31
0.0
  0
LINE
  5
2799
330
2
100
AcDbEntity
  8
0
 48
10.0
100
AcDbLine
 10
405.4558861173676
 20
359.499827228653
 30
0.0
 11
473.4558861173676
 21
359.499827228653
 31
0.0
  0
LINE
  5
279A
330
2
100
AcDbEntity
  8
LINIE
 48
10.0
100
AcDbLine
 10
405.4558861173676
 20
341.339827228653
 30
0.0
 11
453.4558861173676
 21
341.339827228653
 31
0.0
  0
LINE
  5
279B
330
2
100
AcDbEntity
  8
0
 48
10.0
100
AcDbLine
 10
405.4558861173676
 20
343.179827228653
 30
0.0
 11
473.4558861173676
 21
343.179827228653
 31
0.0
  0
LINE
  5
279C
330
2
100
AcDbEntity
  8
0
 48
10.0
100
AcDbLine
 10
405.4558861173676
 20
327.339827228653
 30
0.0
 11
405.4558861173676
 21
375.339827228653
 31
0.0
  0
LINE
  5
279D
330
2
100
AcDbEntity
  8
0
 48
10.0
100
AcDbLine
 10
453.4558861173676
 20
341.339827228653
 30
0.0
 11
453.4558861173676
 21
361.339827228653
 31
0.0
  0
LINE
  5
279E
330
2
100
AcDbEntity
  8
0
 48
10.0
100
AcDbLine
 10
473.4558861173676
 20
343.179827228653
 30
0.0
 11
473.4558861173675
 21
359.499827228653
 31
0.0
  0
LINE
  5
279F
330
2
100
AcDbEntity
  8
0
 48
10.0
100
AcDbLine
 10
405.4558861173676
 20
327.339827228653
 30
0.0
 11
409.4558861173676
 21
323.339827228653
 31
0.0
  0
LINE
  5
27A0
330
2
100
AcDbEntity
  8
0
 48
10.0
100
AcDbLine
 10
405.4558861173676
 20
375.339827228653
 30
0.0
 11
409.4558861173676
 21
379.339827228653
 31
0.0
  0
LINE
  5
27A1
330
2
100
AcDbEntity
  8
0
 48
10.0
100
AcDbLine
 10
473.4558861173676
 20
359.499827228653
 30
0.0
 11
478.1670643139551
 21
351.339827228653
 31
0.0
  0
LINE
  5
27A2
330
2
100
AcDbEntity
  8
0
 48
10.0
100
AcDbLine
 10
415.4558861173676
 20
385.339827228653
 30
0.0
 11
415.4558861173676
 21
371.3398272286531
 31
0.0
  0
LINE
  5
27A3
330
2
100
AcDbEntity
  8
0
 48
10.0
100
AcDbLine
 10
515.4558861173676
 20
379.3398272286531
 30
0.0
 11
515.4558861173676
 21
371.3398272286531
 31
0.0
  0
LINE
  5
27A4
330
2
100
AcDbEntity
  8
0
 48
10.0
100
AcDbLine
 10
473.4558861173676
 20
343.179827228653
 30
0.0
 11
478.1670643139551
 21
351.339827228653
 31
0.0
  0
SPLINE
  5
28DA
330
2
100
AcDbEntity
  8
LINIE
 48
10.0
100
AcDbSpline
210
0.0
220
0.0
230
1.0
 70
     8
 71
     3
 72
    10
 73
     6
 74
     4
 42
0.0000000001
 43
0.0000000001
 44
0.0000000001
 40
0.0
 40
0.0
 40
0.0
 40
0.0
 40
18.87642815912262
 40
45.80706849030514
 40
59.03854941500694
 40
59.03854941500694
 40
59.03854941500694
 40
59.03854941500694
 10
519.8822162063445
 20
379.339827228653
 30
0.0
 10
519.0362386315995
 20
373.0598418195419
 30
0.0
 10
516.9833209725519
 20
357.8203209033858
 30
0.0
 10
507.1653033291887
 20
340.3618497647533
 30
0.0
 10
503.2388424982157
 20
327.5580585763808
 30
0.0
 10
501.945263126359
 20
323.3398272286529
 30
0.0
 11
519.8822162063445
 21
379.339827228653
 31
0.0
 11
516.3993126734014
 21
360.7874979132617
 31
0.0
 11
506.1247464485206
 21
335.89387066575
 31
0.0
 11
501.945263126359
 21
323.3398272286529
 31
0.0
  0
LINE
  5
2AFB
330
2
100
AcDbEntity
  8
MITTE
 48
10.0
100
AcDbLine
 10
1148.082418872473
 20
351.3398272286531
 30
0.0
 11
1332.953738173217
 21
351.3398272286531
 31
0.0
  0
LINE
  5
2AFC
330
2
100
AcDbEntity
  8
MITTE
 48
10.0
100
AcDbLine
 10
1240.518078522845
 20
443.7754868790253
 30
0.0
 11
1240.518078522845
 21
258.904167578281
 31
0.0
  0
LINE
  5
2AFD
330
2
100
AcDbEntity
  8
0
 48
10.0
100
AcDbLine
 10
1248.518078522845
 20
385.3398272286531
 30
0.0
 11
1248.518078522845
 21
378.1726429586507
 31
0.0
  0
LINE
  5
2AFE
330
2
100
AcDbEntity
  8
0
 48
10.0
100
AcDbLine
 10
1232.518078522845
 20
385.3398272286531
 30
0.0
 11
1232.518078522845
 21
378.1726429586506
 31
0.0
  0
LINE
  5
2AFF
330
2
100
AcDbEntity
  8
0
 48
10.0
100
AcDbLine
 10
1315.518078522845
 20
386.8926048979155
 30
0.0
 11
1315.518078522845
 21
315.7870495593907
 31
0.0
  0
LINE
  5
2B00
330
2
100
AcDbEntity
  8
0
 48
10.0
100
AcDbLine
 10
1165.518078522845
 20
386.8926048979156
 30
0.0
 11
1165.518078522845
 21
315.7870495593908
 31
0.0
  0
CIRCLE
  5
2B01
330
2
100
AcDbEntity
  8
0
 48
10.0
100
AcDbCircle
 10
1240.518078522845
 20
351.3398272286531
 30
0.0
 40
83.0
  0
CIRCLE
  5
2B02
330
2
100
AcDbEntity
  8
0
 48
10.0
100
AcDbCircle
 10
1240.518078522845
 20
351.3398272286531
 30
0.0
 40
62.0
  0
CIRCLE
  5
2B03
330
2
100
AcDbEntity
  8
MITTE
 48
10.0
100
AcDbCircle
 10
1240.518078522845
 20
351.3398272286531
 30
0.0
 40
73.0
  0
LINE
  5
2B04
330
2
100
AcDbEntity
  8
MITTE
 48
10.0
100
AcDbLine
 10
1240.518078522845
 20
351.3398272286531
 30
0.0
 11
1160.466449050051
 21
397.5576570538391
 31
0.0
  0
LINE
  5
2B05
330
2
100
AcDbEntity
  8
MITTE
 48
10.0
100
AcDbLine
 10
1240.518078522845
 20
351.3398272286531
 30
0.0
 11
1320.56970799564
 21
397.5576570538391
 31
0.0
  0
LINE
  5
2B06
330
2
100
AcDbEntity
  8
MITTE
 48
10.0
100
AcDbLine
 10
1240.518078522845
 20
351.3398272286531
 30
0.0
 11
1160.466449050051
 21
305.1219974034672
 31
0.0
  0
LINE
  5
2B07
330
2
100
AcDbEntity
  8
MITTE
 48
10.0
100
AcDbLine
 10
1240.518078522845
 20
351.3398272286531
 30
0.0
 11
1320.56970799564
 21
305.1219974034672
 31
0.0
  0
ARC
  5
2B08
330
2
100
AcDbEntity
  8
LINIE
 48
10.0
100
AcDbCircle
 10
1240.518078522845
 20
424.3398272286531
 30
0.0
 40
6.0
100
AcDbArc
 50
174.9453636882732
 51
117.276106325153
  0
CIRCLE
  5
2B09
330
2
100
AcDbEntity
  8
0
 48
10.0
100
AcDbCircle
 10
1240.518078522845
 20
424.3398272286531
 30
0.0
 40
4.7
  0
ARC
  5
2B0A
330
2
100
AcDbEntity
  8
LINIE
 48
10.0
100
AcDbCircle
 10
1177.298224046581
 20
387.839827228653
 30
0.0
 40
6.0
100
AcDbArc
 50
219.091246364513
 51
180.6971457353703
  0
CIRCLE
  5
2B0B
330
2
100
AcDbEntity
  8
0
 48
10.0
100
AcDbCircle
 10
1177.298224046581
 20
387.839827228653
 30
0.0
 40
4.7
  0
ARC
  5
2B0C
330
2
100
AcDbEntity
  8
LINIE
 48
10.0
100
AcDbCircle
 10
1303.737932999109
 20
387.839827228653
 30
0.0
 40
6.0
100
AcDbArc
 50
106.2042382576066
 51
55.56388735104487
  0
CIRCLE
  5
2B0D
330
2
100
AcDbEntity
  8
0
 48
10.0
100
AcDbCircle
 10
1303.737932999109
 20
387.839827228653
 30
0.0
 40
4.7
  0
ARC
  5
2B0E
330
2
100
AcDbEntity
  8
LINIE
 48
10.0
100
AcDbCircle
 10
1240.518078522845
 20
278.3398272286532
 30
0.0
 40
6.0
100
AcDbArc
 50
242.7238936748469
 51
185.0546363117268
  0
CIRCLE
  5
2B0F
330
2
100
AcDbEntity
  8
0
 48
10.0
100
AcDbCircle
 10
1240.518078522845
 20
278.3398272286532
 30
0.0
 40
4.7
  0
ARC
  5
2B10
330
2
100
AcDbEntity
  8
LINIE
 48
10.0
100
AcDbCircle
 10
1177.298224046581
 20
314.8398272286534
 30
0.0
 40
6.0
100
AcDbArc
 50
179.3028542646297
 51
140.9087536354869
  0
CIRCLE
  5
2B11
330
2
100
AcDbEntity
  8
0
 48
10.0
100
AcDbCircle
 10
1177.298224046581
 20
314.8398272286534
 30
0.0
 40
4.7
  0
ARC
  5
2B12
330
2
100
AcDbEntity
  8
LINIE
 48
10.0
100
AcDbCircle
 10
1303.737932999109
 20
314.8398272286534
 30
0.0
 40
6.0
100
AcDbArc
 50
304.4361126489552
 51
253.7957617423934
  0
CIRCLE
  5
2B13
330
2
100
AcDbEntity
  8
0
 48
10.0
100
AcDbCircle
 10
1303.737932999109
 20
314.8398272286534
 30
0.0
 40
4.7
  0
LINE
  5
2B1A
330
2
100
AcDbEntity
  8
MITTE
 48
10.0
100
AcDbLine
 10
1240.518078522845
 20
351.3398272286531
 30
0.0
 11
1199.018078522845
 21
423.2199357427615
 31
0.0
  0
LINE
  5
2B1B
330
2
100
AcDbEntity
  8
LINIE
  6
HIDDEN
 48
6.0
100
AcDbLine
 10
1204.322806712989
 20
426.0318769970897
 30
0.0
 11
1207.714230945552
 21
420.1577579162703
 31
0.0
  0
LINE
  5
2B1C
330
2
100
AcDbEntity
  8
LINIE
  6
HIDDEN
 48
6.0
100
AcDbLine
 10
1193.930501867576
 20
420.0318769970897
 30
0.0
 11
1197.321926100138
 21
414.1577579162704
 31
0.0
  0
LINE
  5
2B1D
330
2
100
AcDbEntity
  8
LINIE
  6
HIDDEN
 48
6.0
100
AcDbLine
 10
1197.321926100138
 20
414.1577579162704
 30
0.0
 11
1207.714230945552
 21
420.1577579162703
 31
0.0
  0
CIRCLE
  5
2B21
330
2
100
AcDbEntity
  8
0
 48
10.0
100
AcDbCircle
 10
1240.518078522845
 20
351.3398272286531
 30
0.0
 40
24.0
  0
CIRCLE
  5
2B22
330
2
100
AcDbEntity
  8
0
 48
10.0
100
AcDbCircle
 10
1240.518078522845
 20
351.3398272286531
 30
0.0
 40
28.00000000000009
  0
LINE
  5
2B23
330
2
100
AcDbEntity
  8
0
 48
10.0
100
AcDbLine
 10
1232.518078522845
 20
385.3398272286531
 30
0.0
 11
1248.518078522845
 21
385.3398272286531
 31
0.0
  0
CIRCLE
  5
2B24
330
2
100
AcDbEntity
  8
0
 48
10.0
100
AcDbCircle
 10
1240.518078522845
 20
351.3398272286531
 30
0.0
 40
8.159999999999968
  0
ARC
  5
2B25
330
2
100
AcDbEntity
  8
LINIE
 48
10.0
100
AcDbCircle
 10
1240.518078522845
 20
351.3398272286531
 30
0.0
 40
10.0
100
AcDbArc
 50
173.4014182417622
 51
110.4717490542399
  0
LINE
  5
2E03
330
2
100
AcDbEntity
  8
0
 48
10.0
100
AcDbLine
 10
559.4558861173688
 20
386.8926048979155
 30
0.0
 11
559.4558861173688
 21
315.7870495593908
 31
0.0
  0
LINE
  5
2E04
330
2
100
AcDbEntity
  8
LINIE
  6
HIDDEN
 48
15.0
100
AcDbLine
 10
534.4558861173688
 20
413.3398272286529
 30
0.0
 11
534.4558861173688
 21
289.339827228653
 31
0.0
  0
LINE
  5
2E05
330
2
100
AcDbEntity
  8
LINIE
  6
HIDDEN
 48
8.0
100
AcDbLine
 10
529.4558861173689
 20
289.339827228653
 30
0.0
 11
534.4558861173688
 21
289.339827228653
 31
0.0
  0
LINE
  5
2E06
330
2
100
AcDbEntity
  8
LINIE
  6
HIDDEN
 48
8.0
100
AcDbLine
 10
529.4558861173689
 20
413.3398272286529
 30
0.0
 11
534.4558861173688
 21
413.3398272286529
 31
0.0
  0
LINE
  5
2E07
330
2
100
AcDbEntity
  8
LINIE
  6
HIDDEN
 48
12.0
100
AcDbLine
 10
545.4588325682232
 20
420.0318769970896
 30
0.0
 11
583.4588325682232
 21
420.0318769970896
 31
0.0
  0
LINE
  5
2E08
330
2
100
AcDbEntity
  8
LINIE
  6
HIDDEN
 48
12.0
100
AcDbLine
 10
545.4588325682232
 20
426.0318769970897
 30
0.0
 11
583.4588325682232
 21
426.0318769970897
 31
0.0
  0
ELLIPSE
  5
2E09
330
2
100
AcDbEntity
  8
LINIE
  6
HIDDEN
 48
12.0
100
AcDbEllipse
 10
583.4529396665147
 20
423.0318769970896
 30
0.0
 11
-6.002946450854251
 21
0.0
 31
0.0
210
0.0
220
0.0
230
1.0
 40
0.4997545829470456
 41
1.570796326794896
 42
4.712388980384689
  0
ELLIPSE
  5
2E0A
330
2
100
AcDbEntity
  8
LINIE
  6
HIDDEN
 48
12.0
100
AcDbEllipse
 10
545.4588325682232
 20
423.0318769970896
 30
0.0
 11
-6.002946450854251
 21
0.0
 31
0.0
210
0.0
220
0.0
230
1.0
 40
0.4997545829470456
 41
4.712388980384689
 42
7.853981633974482
  0
LINE
  5
2E0B
330
2
100
AcDbEntity
  8
0
 48
10.0
100
AcDbLine
 10
559.4558861173688
 20
386.8926048979155
 30
0.0
 11
529.4558861173689
 21
386.8926048979155
 31
0.0
  0
LINE
  5
2E0C
330
2
100
AcDbEntity
  8
0
 48
10.0
100
AcDbLine
 10
559.4558861173688
 20
315.7870495593908
 30
0.0
 11
529.4558861173689
 21
315.7870495593908
 31
0.0
  0
LINE
  5
2E0D
330
2
100
AcDbEntity
  8
LINIE
 48
10.0
100
AcDbLine
 10
559.4558861173688
 20
386.8926048979155
 30
0.0
 11
529.4558861173689
 21
315.7870495593908
 31
0.0
  0
LINE
  5
2E0E
330
2
100
AcDbEntity
  8
LINIE
 48
10.0
100
AcDbLine
 10
529.4558861173689
 20
386.8926048979155
 30
0.0
 11
559.4558861173688
 21
315.7870495593908
 31
0.0
  0
LINE
  5
2E0F
330
2
100
AcDbEntity
  8
0
 48
10.0
100
AcDbLine
 10
684.4558861173712
 20
429.339827228653
 30
0.0
 11
684.4558861173707
 21
273.3398272286525
 31
0.0
  0
LINE
  5
2E10
330
2
100
AcDbEntity
  8
0
 48
10.0
100
AcDbLine
 10
696.4558861173709
 20
431.339827228653
 30
0.0
 11
696.4558861173709
 21
390.0696606907271
 31
0.0
  0
LINE
  5
2E11
330
2
100
AcDbEntity
  8
0
 48
10.0
100
AcDbLine
 10
696.4558861173709
 20
312.6099937665788
 30
0.0
 11
696.4558861173709
 21
271.339827228653
 31
0.0
  0
LINE
  5
2E12
330
2
100
AcDbEntity
  8
0
 48
10.0
100
AcDbLine
 10
684.4558861173709
 20
390.0696606907271
 30
0.0
 11
696.4558861173709
 21
390.0696606907271
 31
0.0
  0
LINE
  5
2E13
330
2
100
AcDbEntity
  8
0
 48
10.0
100
AcDbLine
 10
684.4558861173707
 20
312.6099937665788
 30
0.0
 11
696.4558861173709
 21
312.6099937665788
 31
0.0
  0
ELLIPSE
  5
2E14
330
2
100
AcDbEntity
  8
0
 48
10.0
100
AcDbEllipse
 10
696.4558861173709
 20
351.339827228653
 30
0.0
 11
0.0
 21
38.72983346207417
 31
0.0
210
0.0
220
0.0
230
1.0
 40
0.3697252777809217
 41
3.141592653589793
 42
4.135244317630075
  0
ELLIPSE
  5
2E15
330
2
100
AcDbEntity
  8
0
 48
10.0
100
AcDbEllipse
 10
696.4558861173709
 20
351.339827228653
 30
0.0
 11
0.0
 21
38.72983346207417
 31
0.0
210
0.0
220
0.0
230
1.0
 40
0.3697252777809217
 41
5.289533643139293
 42
6.283185307179586
  0
LINE
  5
2E16
330
2
100
AcDbEntity
  8
LINIE
 48
10.0
100
AcDbLine
 10
684.4558861173707
 20
312.6099937665788
 30
0.0
 11
708.4558861173709
 21
372.4721149626673
 31
0.0
  0
LINE
  5
2E17
330
2
100
AcDbEntity
  8
LINIE
 48
10.0
100
AcDbLine
 10
684.4558861173709
 20
390.0696606907271
 30
0.0
 11
708.4558861173709
 21
330.2075394946383
 31
0.0
  0
LINE
  5
2E18
330
2
100
AcDbEntity
  8
0
 48
10.0
100
AcDbLine
 10
686.4558861173711
 20
271.3398272286529
 30
0.0
 11
686.4558861173711
 21
312.6099937665788
 31
0.0
  0
LINE
  5
2E19
330
2
100
AcDbEntity
  8
0
 48
10.0
100
AcDbLine
 10
686.4558861173711
 20
390.0696606907271
 30
0.0
 11
686.4558861173711
 21
431.3398272286531
 31
0.0
  0
LINE
  5
2E1A
330
2
100
AcDbEntity
  8
0
 48
10.0
100
AcDbLine
 10
682.4558861173709
 20
271.3398272286529
 30
0.0
 11
682.4558861173709
 21
431.3398272286531
 31
0.0
  0
LINE
  5
2E3C
330
2
100
AcDbEntity
  8
0
 48
10.0
100
AcDbLine
 10
764.4558861173704
 20
291.3398272286532
 30
0.0
 11
764.4558861173704
 21
411.339827228653
 31
0.0
  0
LINE
  5
2E3D
330
2
100
AcDbEntity
  8
0
 48
10.0
100
AcDbLine
 10
766.4558861173705
 20
293.3398272286527
 30
0.0
 11
766.4558861173705
 21
409.339827228653
 31
0.0
  0
LINE
  5
2E3E
330
2
100
AcDbEntity
  8
0
 48
10.0
100
AcDbLine
 10
768.4558861173703
 20
291.3398272286528
 30
0.0
 11
768.4558861173704
 21
327.3606696120896
 31
0.0
  0
LINE
  5
2E3F
330
2
100
AcDbEntity
  8
0
 48
10.0
100
AcDbLine
 10
768.4558861173704
 20
375.3189848452168
 30
0.0
 11
768.4558861173703
 21
411.339827228653
 31
0.0
  0
LINE
  5
2E40
330
2
100
AcDbEntity
  8
0
 48
10.0
100
AcDbLine
 10
800.4558861173704
 20
291.3398272286532
 30
0.0
 11
800.4558861173705
 21
327.3606696120896
 31
0.0
  0
LINE
  5
2E41
330
2
100
AcDbEntity
  8
0
 48
10.0
100
AcDbLine
 10
800.4558861173705
 20
375.3189848452168
 30
0.0
 11
800.4558861173704
 21
411.339827228653
 31
0.0
  0
LINE
  5
2E42
330
2
100
AcDbEntity
  8
0
 48
10.0
100
AcDbLine
 10
802.4558861173705
 20
293.3398272286527
 30
0.0
 11
802.4558861173705
 21
409.339827228653
 31
0.0
  0
LINE
  5
2E43
330
2
100
AcDbEntity
  8
0
 48
10.0
100
AcDbLine
 10
804.4558861173705
 20
291.3398272286528
 30
0.0
 11
804.4558861173705
 21
411.339827228653
 31
0.0
  0
LINE
  5
2E44
330
2
100
AcDbEntity
  8
0
 48
10.0
100
AcDbLine
 10
802.4558861173705
 20
375.3189848452167
 30
0.0
 11
766.4558861173705
 21
375.3189848452167
 31
0.0
  0
LINE
  5
2E45
330
2
100
AcDbEntity
  8
0
 48
10.0
100
AcDbLine
 10
802.4558861173705
 20
327.3606696120895
 30
0.0
 11
766.4558861173705
 21
327.3606696120895
 31
0.0
  0
LINE
  5
2E46
330
2
100
AcDbEntity
  8
LINIE
 48
10.0
100
AcDbLine
 10
766.4558861173705
 20
327.3606696120895
 30
0.0
 11
802.4558861173705
 21
375.3189848452167
 31
0.0
  0
LINE
  5
2E47
330
2
100
AcDbEntity
  8
LINIE
 48
10.0
100
AcDbLine
 10
766.4558861173705
 20
375.3189848452167
 30
0.0
 11
802.4558861173705
 21
327.3606696120895
 31
0.0
  0
HATCH
  5
3080
330
2
100
AcDbEntity
  8
SCHRAFF
 48
10.0
100
AcDbHatch
 10
0.0
 20
0.0
 30
0.0
210
0.0
220
0.0
230
1.0
  2
ANSI31
 70
     0
 71
     0
 91
        2
 92
        5
 93
       11
 72
     4
 94
        3
 73
     0
 74
     0
 95
        9
 96
        5
 40
0.0
 40
0.0
 40
0.0
 40
0.0
 40
10.12505964714341
 40
29.00148780626603
 40
29.00148780626603
 40
29.00148780626603
 40
29.00148780626603
 10
512.8697455170521
 20
351.3398272286531
 10
514.2061539867894
 20
354.441811768124
 10
517.736490177521
 20
363.4113575443088
 10
519.0362386315995
 20
373.0598418195419
 10
519.8822162063445
 20
379.339827228653
 72
     1
 10
519.8822162063445
 20
379.339827228653
 11
515.4558861173676
 21
379.339827228653
 72
     1
 10
515.4558861173676
 20
379.339827228653
 11
515.4558861173676
 21
371.3398272286531
 72
     1
 10
515.4558861173676
 20
371.3398272286531
 11
415.4558861173676
 21
371.3398272286527
 72
     1
 10
415.4558861173676
 20
371.3398272286527
 11
415.4558861173676
 21
379.339827228653
 72
     1
 10
415.4558861173676
 20
379.339827228653
 11
409.4558861173676
 21
379.339827228653
 72
     1
 10
409.4558861173676
 20
379.339827228653
 11
405.4558861173676
 21
375.339827228653
 72
     1
 10
405.4558861173676
 20
375.339827228653
 11
405.4558861173676
 21
359.499827228653
 72
     1
 10
405.4558861173676
 20
359.499827228653
 11
473.4558861173677
 21
359.499827228653
 72
     1
 10
473.4558861173677
 20
359.499827228653
 11
478.1670643139551
 21
351.3398272286532
 72
     1
 10
478.1670643139551
 20
351.3398272286532
 11
512.8697455170521
 21
351.3398272286532
 97
        0
 92
        5
 93
        7
 72
     4
 94
        3
 73
     0
 74
     0
 95
        9
 96
        5
 40
29.00148780626603
 40
29.00148780626603
 40
29.00148780626603
 40
29.00148780626603
 40
42.23296873096782
 40
59.03854941500694
 40
59.03854941500694
 40
59.03854941500694
 40
59.03854941500694
 10
501.945263126359
 20
323.3398272286529
 10
503.2388424982157
 20
327.5580585763807
 10
506.1754240879386
 20
337.1339537911847
 10
510.6515738570619
 20
346.1911512429834
 10
512.8697455170521
 20
351.3398272286531
 72
     1
 10
512.8697455170521
 20
351.3398272286531
 11
478.1670643139553
 21
351.3398272286531
 72
     1
 10
478.1670643139553
 20
351.3398272286531
 11
473.4558861173676
 21
343.179827228653
 72
     1
 10
473.4558861173676
 20
343.179827228653
 11
405.4558861173676
 21
343.179827228653
 72
     1
 10
405.4558861173676
 20
343.179827228653
 11
405.4558861173676
 21
327.3398272286531
 72
     1
 10
405.4558861173676
 20
327.3398272286531
 11
409.455886117368
 21
323.3398272286527
 72
     1
 10
409.455886117368
 20
323.3398272286527
 11
501.9452631263591
 21
323.3398272286529
 97
        0
 75
     0
 76
     1
 52
90.0
 41
25.0
 77
     0
 78
     1
 53
135.0
 43
309.4558861173696
 44
0.6374330898352128
 45
-2.209708691207961
 46
-2.20970869120796
 79
     0
 47
0.2199429360659828
 98
        2
 10
490.9409197802663
 20
366.0912425963884
 10
491.3809684765599
 20
343.2171769248021
1001
ACAD
1010
0.0
1020
0.0
1030
0.0
  0
LINE
  5
3311
330
2
100
AcDbEntity
  8
MITTE
 48
10.0
100
AcDbLine
 10
203.0092575840174
 20
351.3398272286531
 30
0.0
 11
382.8598456772195
 21
351.3398272286531
 31
0.0
  0
LINE
  5
3312
330
2
100
AcDbEntity
  8
MITTE
 48
10.0
100
AcDbLine
 10
292.9345516306185
 20
441.2651212752542
 30
0.0
 11
292.9345516306185
 21
261.4145331820521
 31
0.0
  0
LINE
  5
3313
330
2
100
AcDbEntity
  8
0
 48
10.0
100
AcDbLine
 10
222.9345516306184
 20
390.0696606907272
 30
0.0
 11
222.9345516306184
 21
312.609993766579
 31
0.0
  0
ARC
  5
3331
330
2
100
AcDbEntity
  8
0
 48
10.0
100
AcDbCircle
 10
292.9345516306185
 20
351.3398272286531
 30
0.0
 40
72.46615180559615
100
AcDbArc
 50
14.99061125989435
 51
165.0093887401056
  0
ARC
  5
3332
330
2
100
AcDbEntity
  8
0
 48
10.0
100
AcDbCircle
 10
292.9345516306185
 20
351.3398272286531
 30
0.0
 40
72.46615180559615
100
AcDbArc
 50
194.9906112598943
 51
345.0093887401056
  0
CIRCLE
  5
3333
330
2
100
AcDbEntity
  8
0
 48
10.0
100
AcDbCircle
 10
292.9345516306185
 20
351.3398272286531
 30
0.0
 40
80.0
  0
CIRCLE
  5
3334
330
2
100
AcDbEntity
  8
0
 48
10.0
100
AcDbCircle
 10
292.9345516306185
 20
351.3398272286531
 30
0.0
 40
82.99999999999982
  0
LINE
  5
33E9
330
2
100
AcDbEntity
  8
0
 48
10.0
100
AcDbLine
 10
362.9345516306184
 20
390.0696606907272
 30
0.0
 11
362.9345516306184
 21
312.609993766579
 31
0.0
  0
LINE
  5
3719
330
2
100
AcDbEntity
  8
0
 48
10.0
100
AcDbLine
 10
843.4558861173702
 20
291.3398272286556
 30
0.0
 11
843.4558861173702
 21
411.3398272286557
 31
0.0
  0
LINE
  5
371A
330
2
100
AcDbEntity
  8
0
 48
10.0
100
AcDbLine
 10
878.4558861173708
 20
295.9586293821717
 30
0.0
 11
878.4558861173698
 21
406.7210250751393
 31
0.0
  0
LINE
  5
371B
330
2
100
AcDbEntity
  8
0
 48
10.0
100
AcDbLine
 10
843.4558861173705
 20
291.3398272286558
 30
0.0
 11
870.4558861173703
 21
291.3398272286557
 31
0.0
  0
LINE
  5
371C
330
2
100
AcDbEntity
  8
0
 48
10.0
100
AcDbLine
 10
870.4558861173703
 20
411.3398272286558
 30
0.0
 11
878.4558861173698
 21
406.7210250751393
 31
0.0
  0
LINE
  5
371D
330
2
100
AcDbEntity
  8
0
 48
10.0
100
AcDbLine
 10
870.4558861173703
 20
291.3398272286557
 30
0.0
 11
878.4558861173708
 21
295.9586293821717
 31
0.0
  0
LINE
  5
371E
330
2
100
AcDbEntity
  8
0
 48
10.0
100
AcDbLine
 10
870.4558861173703
 20
411.3398272286558
 30
0.0
 11
870.4558861173726
 21
375.3189848452232
 31
0.0
  0
LINE
  5
371F
330
2
100
AcDbEntity
  8
0
 48
10.0
100
AcDbLine
 10
870.4558861173826
 20
327.3606696120913
 30
0.0
 11
870.4558861173849
 21
291.3398272286641
 31
0.0
  0
LINE
  5
3720
330
2
100
AcDbEntity
  8
0
 48
10.0
100
AcDbLine
 10
870.4558861173731
 20
375.3189848452232
 30
0.0
 11
843.4558861173702
 21
375.3189848452231
 31
0.0
  0
LINE
  5
3721
330
2
100
AcDbEntity
  8
0
 48
10.0
100
AcDbLine
 10
870.455886117382
 20
327.360669612083
 30
0.0
 11
843.4558861173702
 21
327.360669612083
 31
0.0
  0
ELLIPSE
  5
3722
330
2
100
AcDbEntity
  8
0
 48
10.0
100
AcDbEllipse
 10
870.4558861173776
 20
351.3398272286572
 30
0.0
 11
-0.0000000000049738
 21
23.97915761656591
 31
0.0
210
0.0
220
0.0
230
1.0
 40
0.3459304986140034
 41
3.141592653589793
 42
4.444841755327501
  0
ELLIPSE
  5
3723
330
2
100
AcDbEntity
  8
0
 48
10.0
100
AcDbEllipse
 10
870.4558861173776
 20
351.3398272286572
 30
0.0
 11
-0.0000000000049738
 21
23.97915761656591
 31
0.0
210
0.0
220
0.0
230
1.0
 40
0.3459304986140034
 41
4.979936205440731
 42
6.283185307179586
  0
LINE
  5
3724
330
2
100
AcDbEntity
  8
LINIE
 48
10.0
100
AcDbLine
 10
843.4558861173702
 20
327.360669612083
 30
0.0
 11
875.2448760528054
 21
370.9191381911326
 31
0.0
  0
LINE
  5
3725
330
2
100
AcDbEntity
  8
LINIE
 48
10.0
100
AcDbLine
 10
843.4558861173702
 20
375.3189848452231
 30
0.0
 11
875.2448760528075
 21
331.7605162661715
 31
0.0
  0
LINE
  5
3726
330
2
100
AcDbEntity
  8
0
 48
10.0
100
AcDbLine
 10
843.4558861173707
 20
411.3398272286557
 30
0.0
 11
870.4558861173703
 21
411.3398272286557
 31
0.0
  0
LINE
  5
3729
330
2
100
AcDbEntity
  8
0
 48
10.0
100
AcDbLine
 10
880.8558861173697
 20
407.3398272286531
 30
0.0
 11
1111.855886117369
 21
407.3398272286531
 31
0.0
  0
LINE
  5
372A
330
2
100
AcDbEntity
  8
0
 48
10.0
100
AcDbLine
 10
880.8558861173706
 20
295.3398272286531
 30
0.0
 11
1111.85588611737
 21
295.3398272286531
 31
0.0
  0
LINE
  5
372B
330
2
100
AcDbEntity
  8
0
 48
10.0
100
AcDbLine
 10
880.8558861173706
 20
295.3398272286531
 30
0.0
 11
880.8558861173699
 21
407.3398272286531
 31
0.0
  0
LINE
  5
372C
330
2
100
AcDbEntity
  8
0
 48
10.0
100
AcDbLine
 10
878.4558861173699
 20
399.4998272286532
 30
0.0
 11
880.85588611737
 21
399.4998272286531
 31
0.0
  0
LINE
  5
372D
330
2
100
AcDbEntity
  8
0
 48
10.0
100
AcDbLine
 10
878.4558861173708
 20
303.1798272286531
 30
0.0
 11
880.8558861173704
 21
303.1798272286531
 31
0.0
  0
LINE
  5
372F
330
2
100
AcDbEntity
  8
0
 48
10.0
100
AcDbLine
 10
1039.85588611737
 20
295.3398272286531
 30
0.0
 11
1039.855886117369
 21
407.339827228653
 31
0.0
  0
LINE
  5
3730
330
2
100
AcDbEntity
  8
0
 48
10.0
100
AcDbLine
 10
1111.85588611737
 20
295.3398272286537
 30
0.0
 11
1111.855886117369
 21
407.3398272286536
 31
0.0
  0
TEXT
  5
3C8F
330
2
100
AcDbEntity
  8
0
 48
10.0
100
AcDbText
 10
333.1935990370114
 20
356.1687831372847
 30
0.0
 40
5.0
  1
R
100
AcDbText
  0
ARC
  5
3C90
330
2
100
AcDbEntity
  8
LINIE
100
AcDbCircle
 10
317.9345516306185
 20
372.3173180080848
 30
0.0
 40
13.157
100
AcDbArc
 50
173.2173685762143
 51
98.43370980862275
  0
LINE
  5
3C91
330
2
100
AcDbEntity
  8
MITTE
 48
10.0
100
AcDbLine
 10
303.3073504146439
 20
372.3398272286531
 30
0.0
 11
333.762328770554
 21
372.3398272286531
 31
0.0
  0
CIRCLE
  5
3C92
330
2
100
AcDbEntity
  8
0
100
AcDbCircle
 10
317.9345516306185
 20
372.3173180080848
 30
0.0
 40
11.445
  0
LINE
  5
3C93
330
2
100
AcDbEntity
  8
MITTE
 48
10.0
100
AcDbLine
 10
317.9345516306183
 20
387.2386951931464
 30
0.0
 11
317.9345516306183
 21
356.8197801891147
 31
0.0
  0
CIRCLE
  5
3C9E
330
2
100
AcDbEntity
  8
0
 48
10.0
100
AcDbCircle
 10
292.9345516306185
 20
351.3398272286531
 30
0.0
 40
56.0
  0
CIRCLE
  5
3C9F
330
2
100
AcDbEntity
  8
0
 48
10.0
100
AcDbCircle
 10
292.9345516306185
 20
351.3398272286531
 30
0.0
 40
60.0
  0
LINE
  5
3CA0
330
2
100
AcDbEntity
  8
0
 48
10.0
100
AcDbLine
 10
347.9345516306184
 20
375.3189848452167
 30
0.0
 11
347.9345516306184
 21
361.8754809815059
 31
0.0
  0
LINE
  5
3CA1
330
2
100
AcDbEntity
  8
0
 48
10.0
100
AcDbLine
 10
237.9345516306184
 20
375.3189848452167
 30
0.0
 11
237.9345516306184
 21
361.8754809815058
 31
0.0
  0
LINE
  5
3CA2
330
2
100
AcDbEntity
  8
0
 48
10.0
100
AcDbLine
 10
237.9345516306184
 20
340.8041734758004
 30
0.0
 11
237.9345516306184
 21
327.3606696120895
 31
0.0
  0
LINE
  5
3CA3
330
2
100
AcDbEntity
  8
0
 48
10.0
100
AcDbLine
 10
347.9345516306184
 20
340.8041734758003
 30
0.0
 11
347.9345516306184
 21
327.3606696120896
 31
0.0
  0
LINE
  5
3CE5
330
2
100
AcDbEntity
  8
MITTE
 48
10.0
100
AcDbLine
 10
312.2041277153228
 20
320.3398272286531
 30
0.0
 11
273.5790126981908
 21
320.3398272286531
 31
0.0
  0
CIRCLE
  5
3CE6
330
2
100
AcDbEntity
  8
0
100
AcDbCircle
 10
292.9345516306185
 20
320.3398272286531
 30
0.0
 40
14.95
  0
ARC
  5
3CE7
330
2
100
AcDbEntity
  8
LINIE
100
AcDbCircle
 10
292.9345516306185
 20
320.3398272286531
 30
0.0
 40
16.662
100
AcDbArc
 50
172.4006678027573
 51
105.3648577620551
  0
ENDSEC
  0
SECTION
  2
OBJECTS
  0
DICTIONARY
  5
1B
330
0
100
AcDbDictionary
281
     1
  3
ACAD_2007HEADERVARS_RT
350
4E02
  3
ACAD_COLOR
350
5F
  3
ACAD_GROUP
350
19
  3
ACAD_LAYOUT
350
60
  3
ACAD_MATERIAL
350
5E
  3
ACAD_MLEADERSTYLE
350
3E1A
  3
ACAD_MLINESTYLE
350
1A
  3
ACAD_PLOTSETTINGS
350
61
  3
ACAD_PLOTSTYLENAME
350
5C
  3
ACAD_SCALELIST
350
3DF8
  3
ACAD_TABLESTYLE
350
141
  3
ACAD_VISUALSTYLE
350
5D2
  3
ACDB_RECOMPOSE_DATA
350
4D4B
  3
ACDBVARIABLEDICTIONARY
350
4D
  3
AcmDictionary
350
BC
  3
AMG
350
68
  3
AMGSNAPSETTINGS
350
F9
  3
ASE_INDEX_DICTIONARY
350
3F00
  0
DICTIONARY
  5
3EF1
330
5
100
AcDbDictionary
280
     1
281
     1
  3
ADSK_XREC_LAYER_RECONCILED
360
3EF2
  0
DICTIONARY
  5
3EF3
330
AE8
100
AcDbDictionary
280
     1
281
     1
  3
ADSK_XREC_LAYER_RECONCILED
360
3EF4
  0
DICTIONARY
  5
3EF5
330
AE9
100
AcDbDictionary
280
     1
281
     1
  3
ADSK_XREC_LAYER_RECONCILED
360
3EF6
  0
DICTIONARY
  5
3EF7
330
AEA
100
AcDbDictionary
280
     1
281
     1
  3
ADSK_XREC_LAYER_RECONCILED
360
3EF8
  0
DICTIONARY
  5
3
330
2
100
AcDbDictionary
280
     1
281
     1
  3
ACAD_SORTENTS
360
61C
  0
DICTIONARY
  5
4E02
102
{ACAD_REACTORS
330
1B
102
}
330
1B
100
AcDbDictionary
281
     1
  3
DIMJOGANG
350
4E03
  0
DICTIONARY
  5
5F
102
{ACAD_REACTORS
330
1B
102
}
330
1B
100
AcDbDictionary
281
     1
  0
DICTIONARY
  5
19
102
{ACAD_REACTORS
330
1B
102
}
330
1B
100
AcDbDictionary
281
     1
  0
DICTIONARY
  5
60
102
{ACAD_REACTORS
330
1B
102
}
330
1B
100
AcDbDictionary
281
     1
  3
Layout1
350
63
  3
Model
350
62
  0
DICTIONARY
  5
5E
102
{ACAD_REACTORS
330
1B
102
}
330
1B
100
AcDbDictionary
281
     1
  3
ByBlock
350
5D0
  3
ByLayer
350
5CF
  3
Global
350
5D1
  0
DICTIONARY
  5
3E1A
102
{ACAD_REACTORS
330
1B
102
}
330
1B
100
AcDbDictionary
281
     1
  3
Standard
350
3E1B
  0
DICTIONARY
  5
1A
102
{ACAD_REACTORS
330
1B
102
}
330
1B
100
AcDbDictionary
281
     1
  3
STANDARD
350
1D
  0
DICTIONARY
  5
61
102
{ACAD_REACTORS
330
1B
102
}
330
1B
100
AcDbDictionary
281
     1
  0
ACDBDICTIONARYWDFLT
  5
5C
102
{ACAD_REACTORS
330
1B
102
}
330
1B
100
AcDbDictionary
281
     1
  3
Normal
350
5D
100
AcDbDictionaryWithDefault
340
5D
  0
DICTIONARY
  5
3DF8
102
{ACAD_REACTORS
330
1B
102
}
330
1B
100
AcDbDictionary
281
     1
  3
A0
350
3DF9
  3
A1
350
3DFA
  3
A2
350
3DFB
  3
A3
350
3DFC
  3
A4
350
3DFD
  3
A5
350
3DFE
  3
A6
350
3DFF
  3
A7
350
3E00
  3
A8
350
3E01
  3
A9
350
3E02
  3
B0
350
3E03
  3
B1
350
3E04
  3
B2
350
3E05
  3
B3
350
3E06
  3
B4
350
3E07
  3
B5
350
3E08
  3
B6
350
3E09
  3
B7
350
3E0A
  3
B8
350
3E0B
  3
B9
350
3E0C
  3
C0
350
3E0D
  3
C1
350
3E0E
  3
C2
350
3E0F
  3
C3
350
3E10
  3
C4
350
3E11
  3
C5
350
3E12
  3
C6
350
3E13
  3
C7
350
3E14
  3
C8
350
3E15
  3
C9
350
3E16
  3
D0
350
3E17
  3
D1
350
3E18
  3
D2
350
3E19
  0
DICTIONARY
  5
141
102
{ACAD_REACTORS
330
1B
102
}
330
1B
100
AcDbDictionary
281
     1
  3
Standard
350
142
  0
DICTIONARY
  5
5D2
102
{ACAD_REACTORS
330
1B
102
}
330
1B
100
AcDbDictionary
281
     1
  3
2dWireframe
350
5D8
  3
3D Hidden
350
5DA
  3
3dWireframe
350
5D9
  3
Basic
350
5D7
  3
Brighten
350
5DE
  3
ColorChange
350
5E2
  3
Conceptual
350
5DB
  3
Dim
350
5DD
  3
Facepattern
350
5E1
  3
Flat
350
5D3
  3
FlatWithEdges
350
5D4
  3
Gouraud
350
5D5
  3
GouraudWithEdges
350
5D6
  3
Linepattern
350
5E0
  3
Realistic
350
5DC
  3
Thicken
350
5DF
  0
XRECORD
  5
4D4B
102
{ACAD_REACTORS
330
1B
102
}
330
1B
100
AcDbXrecord
280
     1
 90
        1
330
142
  0
DICTIONARY
  5
4D
102
{ACAD_REACTORS
330
1B
102
}
330
1B
100
AcDbDictionary
281
     1
  3
CANNOSCALE
350
4D4E
  3
CMLEADERSTYLE
350
4D4C
  3
CTABLESTYLE
350
161
  3
INDEXCTL
350
4E
  3
LIGHTINGUNITS
350
4D4F
  3
MSLTSCALE
350
4D4D
  0
DICTIONARY
  5
BC
102
{ACAD_REACTORS
330
1B
102
}
330
1B
100
AcDbDictionary
281
     1
  3
AcmStdDictionary
350
C7
  3
AMDTSECTSYM_ARROWCOLOR
350
14A
  0
DICTIONARY
  5
68
102
{ACAD_REACTORS
330
1B
102
}
330
1B
100
AcDbDictionary
281
     1
  0
DICTIONARY
  5
F9
102
{ACAD_REACTORS
330
1B
102
}
330
1B
100
AcDbDictionary
281
     1
  0
DICTIONARY
  5
3F00
102
{ACAD_REACTORS
330
1B
102
}
330
1B
100
AcDbDictionary
281
     1
  3
ASEBlockHierarchyIndexRecord
350
3F02
1001
DCO15
1040
1723287499.481
  0
XRECORD
  5
3EF2
102
{ACAD_REACTORS
330
3EF1
102
}
330
3EF1
100
AcDbXrecord
280
     1
290
     1
  0
XRECORD
  5
3EF4
102
{ACAD_REACTORS
330
3EF3
102
}
330
3EF3
100
AcDbXrecord
280
     1
290
     1
  0
XRECORD
  5
3EF6
102
{ACAD_REACTORS
330
3EF5
102
}
330
3EF5
100
AcDbXrecord
280
     1
290
     1
  0
XRECORD
  5
3EF8
102
{ACAD_REACTORS
330
3EF7
102
}
330
3EF7
100
AcDbXrecord
280
     1
290
     1
  0
SORTENTSTABLE
  5
61C
102
{ACAD_REACTORS
330
3
102
}
330
3
100
AcDbSortentsTable
330
2
331
2792
  5
27A1
331
20AC
  5
20D1
331
258B
  5
25DD
331
2B11
  5
2B19
331
279A
  5
27B3
331
20C4
  5
226E
331
25D3
  5
263D
331
27A2
  5
2AD6
331
2B21
  5
2B29
331
20CC
  5
2596
331
28DA
  5
2AD9
331
3080
  5
179A
331
2E05
  5
2E0D
331
2E0D
  5
2E18
331
3CE7
  5
454A
331
3720
  5
3C0B
331
2B02
  5
2B0A
331
256C
  5
25DB
331
2B0A
  5
2B12
331
2E15
  5
2E41
331
2E3D
  5
2E48
331
3730
  5
372B
331
2E45
  5
2E50
331
3311
  5
33E9
331
3C90
  5
3CA1
331
3331
  5
371A
331
2793
  5
27A2
331
2B12
  5
2B1A
331
2594
  5
25E8
331
279B
  5
27B4
331
2B1A
  5
2B22
331
20C5
  5
227B
331
25D4
  5
263E
331
27A3
  5
2AD7
331
2B22
  5
2DED
331
20CD
  5
259A
331
2E06
  5
2E0E
331
3CA0
  5
363C
331
2E0E
  5
2E19
331
33E9
  5
3726
331
3719
  5
3727
331
3721
  5
3C0C
331
3729
  5
20B2
331
2AFB
  5
2B03
331
2B03
  5
2B0B
331
2B0B
  5
2B13
331
2E16
  5
2E42
331
2E3E
  5
2E49
331
2E46
  5
2E51
331
3312
  5
3627
331
3C91
  5
3CA2
331
3332
  5
3720
331
2794
  5
27A3
331
2B13
  5
2B1B
331
279C
  5
27B5
331
2B1B
  5
2B23
331
20C6
  5
2570
331
25D5
  5
263F
331
27A4
  5
2AD8
331
2B23
  5
2E03
331
2E07
  5
2E0F
331
2E0F
  5
2E1A
331
3CA1
  5
363A
331
371A
  5
3728
331
3722
  5
3C0D
331
372A
  5
20B0
331
2266
  5
259C
331
2AFC
  5
2B04
331
2B04
  5
2B0C
331
2B0C
  5
2B14
331
2E17
  5
2E43
331
2E3F
  5
2E4A
331
2E47
  5
2E52
331
3313
  5
3719
331
3C92
  5
3CA3
331
3333
  5
3724
331
2795
  5
27A4
331
279D
  5
28DA
331
2B1C
  5
2B24
331
2B24
  5
2E06
331
2E08
  5
2E10
331
3CA2
  5
363B
331
371B
  5
372C
331
3723
  5
3C0E
331
372B
  5
3729
331
2AFD
  5
2B05
331
2636
  5
279D
331
20A0
  5
20C8
331
2B05
  5
2B0D
331
2B0D
  5
2B15
331
2E10
  5
2E3C
331
2E18
  5
2E44
331
2E40
  5
2E4B
331
3C93
  5
3CE5
331
3334
  5
3725
331
2796
  5
27AF
331
20B8
  5
226B
331
279E
  5
2AAE
331
2B1D
  5
2B25
331
25D7
  5
2799
331
2B25
  5
2E07
331
2E09
  5
2E14
331
3CA3
  5
3666
331
371C
  5
372D
331
3724
  5
3C93
331
372C
  5
1A53
331
2AFE
  5
2B06
331
2637
  5
279E
331
20A1
  5
20C9
331
2B06
  5
2B0E
331
2B0E
  5
2B16
331
2E11
  5
2E3D
331
2E19
  5
2E45
331
2E41
  5
2E4C
331
20A9
  5
20CE
331
2797
  5
27B0
331
2590
  5
25DF
331
279F
  5
2AAF
331
2E0A
  5
2E15
331
371D
  5
372E
331
3725
  5
3C9E
331
372D
  5
1982
331
25E0
  5
279B
331
2AFF
  5
2B07
331
2B07
  5
2B0F
331
2638
  5
279F
331
20A2
  5
20CA
331
2B0F
  5
2B17
331
2E12
  5
2E3E
331
2E1A
  5
2E46
331
2E42
  5
2E4D
331
20AA
  5
20CF
331
2798
  5
27B1
331
27A0
  5
2AB0
331
20CA
  5
2572
331
2E03
  5
2E0B
331
2E0B
  5
2E16
331
3CE5
  5
4548
331
371E
  5
372F
331
3726
  5
3C9F
331
25D9
  5
279A
331
25E1
  5
279C
331
226A
  5
25D8
331
2B00
  5
2B08
331
2639
  5
27A0
331
256A
  5
25DA
331
2B08
  5
2B10
331
2E13
  5
2E3F
331
2E43
  5
2E4E
331
3C9E
  5
3CE6
331
20AB
  5
20D0
331
2B10
  5
2B18
331
2592
  5
25E7
331
2799
  5
27B2
331
25D2
  5
263C
331
27A1
  5
2AB1
331
20CB
  5
2591
331
2E04
  5
2E0C
331
2E0C
  5
2E17
331
3CE6
  5
4549
331
371F
  5
3730
331
372F
  5
372A
331
1784
  5
17AC
331
1A3C
  5
20BC
331
2273
  5
25D9
331
2B01
  5
2B09
331
2B09
  5
2B11
331
2E14
  5
2E40
331
2E3C
  5
2E47
331
2E44
  5
2E4F
331
3C8F
  5
3CA0
331
3C9F
  5
3CE7
  0
XRECORD
  5
4E03
102
{ACAD_REACTORS
330
4E02
102
}
330
4E02
100
AcDbXrecord
280
     1
 40
1.570796326794896
  0
LAYOUT
  5
63
102
{ACAD_REACTORS
330
60
102
}
330
60
100
AcDbPlotSettings
  1

  2
HP LaserJet 5000 Series PCL6
  4

  6

 40
0.0
 41
0.0
 42
0.0
 43
0.0
 44
0.0
 45
0.0
 46
0.0
 47
0.0
 48
0.0
 49
0.0
140
0.0
141
0.0
142
1.0
143
1.0
 70
   688
 72
     0
 73
     0
 74
     5
  7
Zeich.ctb
 75
    16
147
1.0
 76
     0
 77
     2
 78
   300
148
0.0
149
0.0
100
AcDbLayout
  1
Layout1
 70
     0
 71
     1
 10
0.0
 20
0.0
 11
420.0
 21
297.0
 12
0.0
 22
0.0
 32
0.0
 14
1.000000000000000E+20
 24
1.000000000000000E+20
 34
1.000000000000000E+20
 15
-1.000000000000000E+20
 25
-1.000000000000000E+20
 35
-1.000000000000000E+20
146
0.0
 13
0.0
 23
0.0
 33
0.0
 16
1.0
 26
0.0
 36
0.0
 17
0.0
 27
1.0
 37
0.0
 76
     0
330
8
  0
LAYOUT
  5
62
102
{ACAD_REACTORS
330
60
102
}
330
60
100
AcDbPlotSettings
  1

  2
Konstruktion
  4
A4
  6

 40
7.143749713897705
 41
7.186082363128662
 42
7.059066772460937
 43
5.027069091796875
 44
209.9733276367187
 45
296.9683227539062
 46
48.46045035912668
 47
0.0
 48
0.0
 49
0.0
140
0.0
141
0.0
142
1.0
143
5.069881924031674
 70
 11956
 72
     1
 73
     1
 74
     1
  7
Zeich.ctb
 75
     0
147
0.1972432524039493
 76
     0
 77
     2
 78
   300
148
283.453697135641
149
-76.99012910829629
100
AcDbLayout
  1
Model
 70
     1
 71
     0
 10
0.0
 20
0.0
 11
12.0
 21
9.0
 12
0.0
 22
0.0
 32
0.0
 14
0.0
 24
0.0
 34
0.0
 15
0.0
 25
0.0
 35
0.0
146
0.0
 13
0.0
 23
0.0
 33
0.0
 16
1.0
 26
0.0
 36
0.0
 17
0.0
 27
1.0
 37
0.0
 76
     0
330
2
331
5CD
1001
ACAD_PSEXT
1000
Konstruktion
1000
Kyocera FS-1030D
1000
IP_192.168.10.181
1000

1070
     0
  0
MATERIAL
  5
5D0
102
{ACAD_XDICTIONARY
360
4E07
102
}
102
{ACAD_REACTORS
330
5E
102
}
330
5E
100
AcDbMaterial
  1
ByBlock
 73
     1
 78
     1
172
     1
176
     1
270
     1
274
     1
  0
MATERIAL
  5
5CF
102
{ACAD_XDICTIONARY
360
4E05
102
}
102
{ACAD_REACTORS
330
5E
102
}
330
5E
100
AcDbMaterial
  1
ByLayer
 73
     1
 78
     1
172
     1
176
     1
270
     1
274
     1
  0
MATERIAL
  5
5D1
102
{ACAD_XDICTIONARY
360
4E09
102
}
102
{ACAD_REACTORS
330
5E
102
}
330
5E
100
AcDbMaterial
  1
Global
 73
     1
 78
     1
172
     1
176
     1
270
     1
274
     1
  0
MLEADERSTYLE
  5
3E1B
102
{ACAD_REACTORS
330
3E1A
102
}
330
3E1A
100
AcDbMLeaderStyle
170
     2
171
     1
172
     0
 90
        2
 40
0.0
 41
0.0
173
     1
 91
-1056964608
340
F
 92
       -2
290
     1
 42
0.09
291
     1
 43
0.36
  3
Standard
 44
0.18
300

342
D
174
     1
178
     6
175
     1
176
     0
 93
-1056964608
 45
0.18
292
     0
297
     0
 46
0.18
 94
-1056964608
 47
1.0
 49
1.0
140
1.0
293
     1
141
0.0
294
     1
177
     0
142
1.0
295
     0
296
     0
143
0.125
1001
ACAD_MLEADERVER
1070
     2
  0
MLINESTYLE
  5
1D
102
{ACAD_REACTORS
330
1A
102
}
330
1A
100
AcDbMlineStyle
  2
STANDARD
 70
     0
  3

 62
     0
 51
90.0
 52
90.0
 71
     2
 49
0.5
 62
   256
  6
BYLAYER
 49
-0.5
 62
   256
  6
BYLAYER
  0
ACDBPLACEHOLDER
  5
5D
102
{ACAD_REACTORS
330
5C
102
}
330
5C
  0
SCALE
  5
3DF9
102
{ACAD_REACTORS
330
3DF8
102
}
330
3DF8
100
AcDbScale
 70
     0
300
1:1
140
1.0
141
1.0
290
     1
  0
SCALE
  5
3DFA
102
{ACAD_REACTORS
330
3DF8
102
}
330
3DF8
100
AcDbScale
 70
     0
300
1:2
140
1.0
141
2.0
290
     0
  0
SCALE
  5
3DFB
102
{ACAD_REACTORS
330
3DF8
102
}
330
3DF8
100
AcDbScale
 70
     0
300
1:4
140
1.0
141
4.0
290
     0
  0
SCALE
  5
3DFC
102
{ACAD_REACTORS
330
3DF8
102
}
330
3DF8
100
AcDbScale
 70
     0
300
1:5
140
1.0
141
5.0
290
     0
  0
SCALE
  5
3DFD
102
{ACAD_REACTORS
330
3DF8
102
}
330
3DF8
100
AcDbScale
 70
     0
300
1:8
140
1.0
141
8.0
290
     0
  0
SCALE
  5
3DFE
102
{ACAD_REACTORS
330
3DF8
102
}
330
3DF8
100
AcDbScale
 70
     0
300
1:10
140
1.0
141
10.0
290
     0
  0
SCALE
  5
3DFF
102
{ACAD_REACTORS
330
3DF8
102
}
330
3DF8
100
AcDbScale
 70
     0
300
1:16
140
1.0
141
16.0
290
     0
  0
SCALE
  5
3E00
102
{ACAD_REACTORS
330
3DF8
102
}
330
3DF8
100
AcDbScale
 70
     0
300
1:20
140
1.0
141
20.0
290
     0
  0
SCALE
  5
3E01
102
{ACAD_REACTORS
330
3DF8
102
}
330
3DF8
100
AcDbScale
 70
     0
300
1:30
140
1.0
141
30.0
290
     0
  0
SCALE
  5
3E02
102
{ACAD_REACTORS
330
3DF8
102
}
330
3DF8
100
AcDbScale
 70
     0
300
1:40
140
1.0
141
40.0
290
     0
  0
SCALE
  5
3E03
102
{ACAD_REACTORS
330
3DF8
102
}
330
3DF8
100
AcDbScale
 70
     0
300
1:50
140
1.0
141
50.0
290
     0
  0
SCALE
  5
3E04
102
{ACAD_REACTORS
330
3DF8
102
}
330
3DF8
100
AcDbScale
 70
     0
300
1:100
140
1.0
141
100.0
290
     0
  0
SCALE
  5
3E05
102
{ACAD_REACTORS
330
3DF8
102
}
330
3DF8
100
AcDbScale
 70
     0
300
2:1
140
2.0
141
1.0
290
     0
  0
SCALE
  5
3E06
102
{ACAD_REACTORS
330
3DF8
102
}
330
3DF8
100
AcDbScale
 70
     0
300
4:1
140
4.0
141
1.0
290
     0
  0
SCALE
  5
3E07
102
{ACAD_REACTORS
330
3DF8
102
}
330
3DF8
100
AcDbScale
 70
     0
300
8:1
140
8.0
141
1.0
290
     0
  0
SCALE
  5
3E08
102
{ACAD_REACTORS
330
3DF8
102
}
330
3DF8
100
AcDbScale
 70
     0
300
10:1
140
10.0
141
1.0
290
     0
  0
SCALE
  5
3E09
102
{ACAD_REACTORS
330
3DF8
102
}
330
3DF8
100
AcDbScale
 70
     0
300
100:1
140
100.0
141
1.0
290
     0
  0
SCALE
  5
3E0A
102
{ACAD_REACTORS
330
3DF8
102
}
330
3DF8
100
AcDbScale
 70
     0
300
1/128" = 1'-0"
140
0.0078125
141
12.0
290
     0
  0
SCALE
  5
3E0B
102
{ACAD_REACTORS
330
3DF8
102
}
330
3DF8
100
AcDbScale
 70
     0
300
1/64" = 1'-0"
140
0.015625
141
12.0
290
     0
  0
SCALE
  5
3E0C
102
{ACAD_REACTORS
330
3DF8
102
}
330
3DF8
100
AcDbScale
 70
     0
300
1/32" = 1'-0"
140
0.03125
141
12.0
290
     0
  0
SCALE
  5
3E0D
102
{ACAD_REACTORS
330
3DF8
102
}
330
3DF8
100
AcDbScale
 70
     0
300
1/16" = 1'-0"
140
0.0625
141
12.0
290
     0
  0
SCALE
  5
3E0E
102
{ACAD_REACTORS
330
3DF8
102
}
330
3DF8
100
AcDbScale
 70
     0
300
3/32" = 1'-0"
140
0.09375
141
12.0
290
     0
  0
SCALE
  5
3E0F
102
{ACAD_REACTORS
330
3DF8
102
}
330
3DF8
100
AcDbScale
 70
     0
300
1/8" = 1'-0"
140
0.125
141
12.0
290
     0
  0
SCALE
  5
3E10
102
{ACAD_REACTORS
330
3DF8
102
}
330
3DF8
100
AcDbScale
 70
     0
300
3/16" = 1'-0"
140
0.1875
141
12.0
290
     0
  0
SCALE
  5
3E11
102
{ACAD_REACTORS
330
3DF8
102
}
330
3DF8
100
AcDbScale
 70
     0
300
1/4" = 1'-0"
140
0.25
141
12.0
290
     0
  0
SCALE
  5
3E12
102
{ACAD_REACTORS
330
3DF8
102
}
330
3DF8
100
AcDbScale
 70
     0
300
3/8" = 1'-0"
140
0.375
141
12.0
290
     0
  0
SCALE
  5
3E13
102
{ACAD_REACTORS
330
3DF8
102
}
330
3DF8
100
AcDbScale
 70
     0
300
1/2" = 1'-0"
140
0.5
141
12.0
290
     0
  0
SCALE
  5
3E14
102
{ACAD_REACTORS
330
3DF8
102
}
330
3DF8
100
AcDbScale
 70
     0
300
3/4" = 1'-0"
140
0.75
141
12.0
290
     0
  0
SCALE
  5
3E15
102
{ACAD_REACTORS
330
3DF8
102
}
330
3DF8
100
AcDbScale
 70
     0
300
1" = 1'-0"
140
1.0
141
12.0
290
     0
  0
SCALE
  5
3E16
102
{ACAD_REACTORS
330
3DF8
102
}
330
3DF8
100
AcDbScale
 70
     0
300
1-1/2" = 1'-0"
140
1.5
141
12.0
290
     0
  0
SCALE
  5
3E17
102
{ACAD_REACTORS
330
3DF8
102
}
330
3DF8
100
AcDbScale
 70
     0
300
3" = 1'-0"
140
3.0
141
12.0
290
     0
  0
SCALE
  5
3E18
102
{ACAD_REACTORS
330
3DF8
102
}
330
3DF8
100
AcDbScale
 70
     0
300
6" = 1'-0"
140
6.0
141
12.0
290
     0
  0
SCALE
  5
3E19
102
{ACAD_REACTORS
330
3DF8
102
}
330
3DF8
100
AcDbScale
 70
     0
300
1'-0" = 1'-0"
140
12.0
141
12.0
290
     0
  0
TABLESTYLE
  5
142
102
{ACAD_XDICTIONARY
360
4D47
102
}
102
{ACAD_REACTORS
330
141
102
}
330
141
100
AcDbTableStyle
  3
Standard
 70
     0
 71
     0
 40
0.06
 41
0.06
280
     0
281
     0
  7
STANDARD
140
0.18
170
     2
 62
     0
 63
     7
283
     0
274
    -2
284
     1
 64
     0
275
    -2
285
     1
 65
     0
276
    -2
286
     1
 66
     0
277
    -2
287
     1
 67
     0
278
    -2
288
     1
 68
     0
279
    -2
289
     1
 69
     0
  7
STANDARD
140
0.25
170
     5
 62
     0
 63
     7
283
     0
274
    -2
284
     1
 64
     0
275
    -2
285
     1
 65
     0
276
    -2
286
     1
 66
     0
277
    -2
287
     1
 67
     0
278
    -2
288
     1
 68
     0
279
    -2
289
     1
 69
     0
  7
STANDARD
140
0.18
170
     5
 62
     0
 63
     7
283
     0
274
    -2
284
     1
 64
     0
275
    -2
285
     1
 65
     0
276
    -2
286
     1
 66
     0
277
    -2
287
     1
 67
     0
278
    -2
288
     1
 68
     0
279
    -2
289
     1
 69
     0
  0
VISUALSTYLE
  5
5D8
102
{ACAD_REACTORS
330
5D2
102
}
330
5D2
100
AcDbVisualStyle
  2
2dWireframe
 70
     4
 71
     0
 72
     2
 73
     0
 90
        0
 40
-0.6
 41
-30.0
 62
     5
 63
     7
421
 16777215
 74
     1
 91
        4
 64
     7
 65
   257
 75
     1
175
     1
 42
1.0
 92
        0
 66
   257
 43
1.0
 76
     1
 77
     6
 78
     2
 67
     7
 79
     5
170
     0
171
     0
290
     0
174
     0
 93
        1
 44
0.0
173
     0
291
     0
 45
0.0
1001
ACAD
1000
AcDbSavedByObjectVersion
1070
     0
  0
VISUALSTYLE
  5
5DA
102
{ACAD_REACTORS
330
5D2
102
}
330
5D2
100
AcDbVisualStyle
  2
3D Hidden
 70
     6
 71
     1
 72
     2
 73
     2
 90
        0
 40
-0.6
 41
-30.0
 62
     5
 63
     7
421
 16777215
 74
     2
 91
        2
 64
     7
 65
   257
 75
     2
175
     1
 42
40.0
 92
        0
 66
   257
 43
1.0
 76
     1
 77
     6
 78
     2
 67
     7
 79
     3
170
     0
171
     0
290
     0
174
     0
 93
        1
 44
0.0
173
     0
291
     0
 45
0.0
1001
ACAD
1000
AcDbSavedByObjectVersion
1070
     0
  0
VISUALSTYLE
  5
5D9
102
{ACAD_REACTORS
330
5D2
102
}
330
5D2
100
AcDbVisualStyle
  2
3dWireframe
 70
     5
 71
     0
 72
     2
 73
     0
 90
        0
 40
-0.6
 41
-30.0
 62
     5
 63
     7
421
 16777215
 74
     1
 91
        4
 64
     7
 65
   257
 75
     1
175
     1
 42
1.0
 92
        0
 66
   257
 43
1.0
 76
     1
 77
     6
 78
     2
 67
     7
 79
     5
170
     0
171
     0
290
     0
174
     0
 93
        1
 44
0.0
173
     0
291
     0
 45
0.0
1001
ACAD
1000
AcDbSavedByObjectVersion
1070
     0
  0
VISUALSTYLE
  5
5D7
102
{ACAD_REACTORS
330
5D2
102
}
330
5D2
100
AcDbVisualStyle
  2
Basic
 70
     7
 71
     1
 72
     0
 73
     1
 90
        0
 40
-0.6
 41
-30.0
 62
     5
 63
     7
421
 16777215
 74
     0
 91
        4
 64
     7
 65
   257
 75
     1
175
     1
 42
1.0
 92
        8
 66
     7
 43
1.0
 76
     1
 77
     6
 78
     2
 67
     7
 79
     5
170
     0
171
     0
290
     0
174
     0
 93
        1
 44
0.0
173
     0
291
     1
 45
0.0
1001
ACAD
1000
AcDbSavedByObjectVersion
1070
     0
  0
VISUALSTYLE
  5
5DE
102
{ACAD_REACTORS
330
5D2
102
}
330
5D2
100
AcDbVisualStyle
  2
Brighten
 70
    12
 71
     2
 72
     2
 73
     0
 90
        0
 40
-0.6
 41
-30.0
 62
     5
 63
     7
421
 16777215
 74
     1
 91
        4
 64
     7
 65
   257
 75
     1
175
     1
 42
1.0
 92
        8
 66
     7
 43
1.0
 76
     1
 77
     6
 78
     2
 67
     7
 79
     5
170
     0
171
     0
290
     0
174
     0
 93
        1
 44
50.0
173
     0
291
     1
 45
0.0
1001
ACAD
1000
AcDbSavedByObjectVersion
1070
     0
  0
VISUALSTYLE
  5
5E2
102
{ACAD_REACTORS
330
5D2
102
}
330
5D2
100
AcDbVisualStyle
  2
ColorChange
 70
    16
 71
     2
 72
     2
 73
     3
 90
        0
 40
-0.6
 41
-30.0
 62
     5
 63
     8
421
  8421504
 74
     1
 91
        4
 64
     7
 65
   257
 75
     1
175
     1
 42
1.0
 92
        8
 66
     8
424
  8421504
 43
1.0
 76
     1
 77
     6
 78
     2
 67
     7
 79
     5
170
     0
171
     0
290
     0
174
     0
 93
        1
 44
0.0
173
     0
291
     1
 45
0.0
1001
ACAD
1000
AcDbSavedByObjectVersion
1070
     0
  0
VISUALSTYLE
  5
5DB
102
{ACAD_REACTORS
330
5D2
102
}
330
5D2
100
AcDbVisualStyle
  2
Conceptual
 70
     9
 71
     3
 72
     2
 73
     0
 90
        0
 40
-0.6
 41
-30.0
 62
     5
 63
     7
421
 16777215
 74
     2
 91
        2
 64
     7
 65
   257
 75
     1
175
     1
 42
40.0
 92
        8
 66
     7
 43
1.0
 76
     1
 77
     6
 78
     2
 67
     7
 79
     3
170
     0
171
     0
290
     0
174
     0
 93
        1
 44
0.0
173
     0
291
     0
 45
0.0
1001
ACAD
1000
AcDbSavedByObjectVersion
1070
     0
  0
VISUALSTYLE
  5
5DD
102
{ACAD_REACTORS
330
5D2
102
}
330
5D2
100
AcDbVisualStyle
  2
Dim
 70
    11
 71
     2
 72
     2
 73
     0
 90
        0
 40
-0.6
 41
-30.0
 62
     5
 63
     7
421
 16777215
 74
     1
 91
        4
 64
     7
 65
   257
 75
     1
175
     1
 42
1.0
 92
        8
 66
     7
 43
1.0
 76
     1
 77
     6
 78
     2
 67
     7
 79
     5
170
     0
171
     0
290
     0
174
     0
 93
        1
 44
-50.0
173
     0
291
     1
 45
0.0
1001
ACAD
1000
AcDbSavedByObjectVersion
1070
     0
  0
VISUALSTYLE
  5
5E1
102
{ACAD_REACTORS
330
5D2
102
}
330
5D2
100
AcDbVisualStyle
  2
Facepattern
 70
    15
 71
     2
 72
     2
 73
     0
 90
        0
 40
-0.6
 41
-30.0
 62
     5
 63
     7
421
 16777215
 74
     1
 91
        4
 64
     7
 65
   257
 75
     1
175
     1
 42
1.0
 92
        8
 66
     7
 43
1.0
 76
     1
 77
     6
 78
     2
 67
     7
 79
     5
170
     0
171
     0
290
     0
174
     0
 93
        1
 44
0.0
173
     0
291
     1
 45
0.0
1001
ACAD
1000
AcDbSavedByObjectVersion
1070
     0
  0
VISUALSTYLE
  5
5D3
102
{ACAD_REACTORS
330
5D2
102
}
330
5D2
100
AcDbVisualStyle
  2
Flat
 70
     0
 71
     2
 72
     1
 73
     1
 90
        2
 40
-0.6
 41
30.0
 62
     5
 63
     7
421
 16777215
 74
     0
 91
        4
 64
     7
 65
   257
 75
     1
175
     1
 42
1.0
 92
        8
 66
     7
 43
1.0
 76
     1
 77
     6
 78
     2
 67
     7
 79
     5
170
     0
171
     0
290
     0
174
     0
 93
       13
 44
0.0
173
     0
291
     1
 45
0.0
1001
ACAD
1000
AcDbSavedByObjectVersion
1070
     0
  0
VISUALSTYLE
  5
5D4
102
{ACAD_REACTORS
330
5D2
102
}
330
5D2
100
AcDbVisualStyle
  2
FlatWithEdges
 70
     1
 71
     2
 72
     1
 73
     1
 90
        2
 40
-0.6
 41
30.0
 62
     5
 63
     7
421
 16777215
 74
     1
 91
        4
 64
     7
 65
   257
 75
     1
175
     1
 42
1.0
 92
        0
 66
   257
 43
1.0
 76
     1
 77
     6
 78
     2
 67
     7
 79
     5
170
     0
171
     0
290
     0
174
     0
 93
       13
 44
0.0
173
     0
291
     1
 45
0.0
1001
ACAD
1000
AcDbSavedByObjectVersion
1070
     0
  0
VISUALSTYLE
  5
5D5
102
{ACAD_REACTORS
330
5D2
102
}
330
5D2
100
AcDbVisualStyle
  2
Gouraud
 70
     2
 71
     2
 72
     2
 73
     1
 90
        2
 40
-0.6
 41
30.0
 62
     5
 63
     7
421
 16777215
 74
     0
 91
        4
 64
     7
 65
   257
 75
     1
175
     1
 42
1.0
 92
        0
 66
     7
 43
1.0
 76
     1
 77
     6
 78
     2
 67
     7
 79
     5
170
     0
171
     0
290
     0
174
     0
 93
       13
 44
0.0
173
     0
291
     1
 45
0.0
1001
ACAD
1000
AcDbSavedByObjectVersion
1070
     0
  0
VISUALSTYLE
  5
5D6
102
{ACAD_REACTORS
330
5D2
102
}
330
5D2
100
AcDbVisualStyle
  2
GouraudWithEdges
 70
     3
 71
     2
 72
     2
 73
     1
 90
        2
 40
-0.6
 41
30.0
 62
     5
 63
     7
421
 16777215
 74
     1
 91
        4
 64
     7
 65
   257
 75
     1
175
     1
 42
1.0
 92
        0
 66
   257
 43
1.0
 76
     1
 77
     6
 78
     2
 67
     7
 79
     5
170
     0
171
     0
290
     0
174
     0
 93
       13
 44
0.0
173
     0
291
     1
 45
0.0
1001
ACAD
1000
AcDbSavedByObjectVersion
1070
     0
  0
VISUALSTYLE
  5
5E0
102
{ACAD_REACTORS
330
5D2
102
}
330
5D2
100
AcDbVisualStyle
  2
Linepattern
 70
    14
 71
     2
 72
     2
 73
     0
 90
        0
 40
-0.6
 41
-30.0
 62
     5
 63
     7
421
 16777215
 74
     1
 91
        4
 64
     7
 65
   257
 75
     7
175
     7
 42
1.0
 92
        8
 66
     7
 43
1.0
 76
     1
 77
     6
 78
     2
 67
     7
 79
     5
170
     0
171
     0
290
     0
174
     0
 93
        1
 44
0.0
173
     0
291
     1
 45
0.0
1001
ACAD
1000
AcDbSavedByObjectVersion
1070
     0
  0
VISUALSTYLE
  5
5DC
102
{ACAD_REACTORS
330
5D2
102
}
330
5D2
100
AcDbVisualStyle
  2
Realistic
 70
     8
 71
     2
 72
     2
 73
     0
 90
        0
 40
-0.6
 41
-30.0
 62
     5
 63
     7
421
 16777215
 74
     1
 91
        0
 64
     7
 65
   257
 75
     1
175
     1
 42
1.0
 92
        8
 66
     8
424
  7895160
 43
1.0
 76
     1
 77
     6
 78
     2
 67
     7
 79
     5
170
     0
171
     0
290
     0
174
     0
 93
       13
 44
0.0
173
     0
291
     0
 45
0.0
1001
ACAD
1000
AcDbSavedByObjectVersion
1070
     0
  0
VISUALSTYLE
  5
5DF
102
{ACAD_REACTORS
330
5D2
102
}
330
5D2
100
AcDbVisualStyle
  2
Thicken
 70
    13
 71
     2
 72
     2
 73
     0
 90
        0
 40
-0.6
 41
-30.0
 62
     5
 63
     7
421
 16777215
 74
     1
 91
        4
 64
     7
 65
   257
 75
     1
175
     1
 42
1.0
 92
       12
 66
     7
 43
1.0
 76
     1
 77
     6
 78
     2
 67
     7
 79
     5
170
     0
171
     0
290
     0
174
     0
 93
        1
 44
0.0
173
     0
291
     1
 45
0.0
1001
ACAD
1000
AcDbSavedByObjectVersion
1070
     0
  0
DICTIONARYVAR
  5
4D4E
102
{ACAD_REACTORS
330
4D
102
}
330
4D
100
DictionaryVariables
280
     0
  1
1:1
  0
DICTIONARYVAR
  5
4D4C
102
{ACAD_REACTORS
330
4D
102
}
330
4D
100
DictionaryVariables
280
     0
  1
STANDARD
  0
DICTIONARYVAR
  5
161
102
{ACAD_REACTORS
330
4D
102
}
330
4D
100
DictionaryVariables
280
     0
  1
STANDARD
  0
DICTIONARYVAR
  5
4E
102
{ACAD_REACTORS
330
4D
102
}
330
4D
100
DictionaryVariables
280
     0
  1
1
  0
DICTIONARYVAR
  5
4D4F
102
{ACAD_REACTORS
330
4D
102
}
330
4D
100
DictionaryVariables
280
     0
  1
0
  0
DICTIONARYVAR
  5
4D4D
102
{ACAD_REACTORS
330
4D
102
}
330
4D
100
DictionaryVariables
280
     0
  1
0
  0
DICTIONARY
  5
C7
102
{ACAD_REACTORS
330
BC
102
}
330
BC
100
AcDbDictionary
281
     1
  0
XRECORD
  5
14A
102
{ACAD_REACTORS
330
BC
102
}
330
BC
100
AcDbXrecord
280
     1
 90
-1023410169
  0
XRECORD
  5
3F02
102
{ACAD_REACTORS
330
3F00
102
}
330
3F00
100
AcDbXrecord
280
     1
330
0
  0
DICTIONARY
  5
4E07
330
5D0
100
AcDbDictionary
280
     1
281
     1
  3
ACAD_XREC_ROUNDTRIP
360
4E08
  0
DICTIONARY
  5
4E05
330
5CF
100
AcDbDictionary
280
     1
281
     1
  3
ACAD_XREC_ROUNDTRIP
360
4E06
  0
DICTIONARY
  5
4E09
330
5D1
100
AcDbDictionary
280
     1
281
     1
  3
ACAD_XREC_ROUNDTRIP
360
4E0A
  0
DICTIONARY
  5
4D47
330
142
100
AcDbDictionary
280
     1
281
     1
  3
ACAD_ROUNDTRIP_2008_TABLESTYLE_CELLSTYLEMAP
360
4E01
  3
ACAD_XREC_ROUNDTRIP
360
4E04
  0
XRECORD
  5
4E08
102
{ACAD_REACTORS
330
4E07
102
}
330
4E07
100
AcDbXrecord
280
     1
102
MATERIAL
148
0.0
149
0.0
149
0.0
 93
        0
 94
       63
282
     0
 72
     1
 77
     1
171
     1
175
     1
179
     1
273
     0
  0
XRECORD
  5
4E06
102
{ACAD_REACTORS
330
4E05
102
}
330
4E05
100
AcDbXrecord
280
     1
102
MATERIAL
148
0.0
149
0.0
149
0.0
 93
        0
 94
       63
282
     0
 72
     1
 77
     1
171
     1
175
     1
179
     1
273
     0
  0
XRECORD
  5
4E0A
102
{ACAD_REACTORS
330
4E09
102
}
330
4E09
100
AcDbXrecord
280
     1
102
MATERIAL
148
0.0
149
0.0
149
0.0
 93
        0
 94
       63
282
     0
 72
     1
 77
     1
171
     1
175
     1
179
     1
273
     0
  0
CELLSTYLEMAP
  5
4E01
102
{ACAD_REACTORS
330
4D47
102
}
330
4D47
100
AcDbCellStyleMap
 90
        3
300
CELLSTYLE
  1
TABLEFORMAT_BEGIN
 90
        5
170
     1
 91
        0
 92
    32768
 62
   257
 93
        1
300
CONTENTFORMAT
  1
CONTENTFORMAT_BEGIN
 90
        0
 91
        0
 92
        4
 93
        0
300

 40
0.0
140
1.0
 94
        5
 62
     0
340
D
144
0.25
309
CONTENTFORMAT_END
171
     0
 94
        6
 95
        1
302
GRIDFORMAT
  1
GRIDFORMAT_BEGIN
 90
        0
 91
        1
 62
     0
 92
       -2
340
0
 93
        0
 40
0.045
309
GRIDFORMAT_END
 95
        2
302
GRIDFORMAT
  1
GRIDFORMAT_BEGIN
 90
        0
 91
        1
 62
     0
 92
       -2
340
0
 93
        0
 40
0.045
309
GRIDFORMAT_END
 95
        4
302
GRIDFORMAT
  1
GRIDFORMAT_BEGIN
 90
        0
 91
        1
 62
     0
 92
       -2
340
0
 93
        0
 40
0.045
309
GRIDFORMAT_END
 95
        8
302
GRIDFORMAT
  1
GRIDFORMAT_BEGIN
 90
        0
 91
        1
 62
     0
 92
       -2
340
0
 93
        0
 40
0.045
309
GRIDFORMAT_END
 95
       16
302
GRIDFORMAT
  1
GRIDFORMAT_BEGIN
 90
        0
 91
        1
 62
     0
 92
       -2
340
0
 93
        0
 40
0.045
309
GRIDFORMAT_END
 95
       32
302
GRIDFORMAT
  1
GRIDFORMAT_BEGIN
 90
        0
 91
        1
 62
     0
 92
       -2
340
0
 93
        0
 40
0.045
309
GRIDFORMAT_END
309
TABLEFORMAT_END
  1
CELLSTYLE_BEGIN
 90
        1
 91
        1
300
_TITLE
309
CELLSTYLE_END
300
CELLSTYLE
  1
TABLEFORMAT_BEGIN
 90
        5
170
     1
 91
        0
 92
        0
 62
   257
 93
        1
300
CONTENTFORMAT
  1
CONTENTFORMAT_BEGIN
 90
        0
 91
        0
 92
        4
 93
        0
300

 40
0.0
140
1.0
 94
        5
 62
     0
340
D
144
0.18
309
CONTENTFORMAT_END
171
     0
 94
        6
 95
        1
302
GRIDFORMAT
  1
GRIDFORMAT_BEGIN
 90
        0
 91
        1
 62
     0
 92
       -2
340
0
 93
        0
 40
0.045
309
GRIDFORMAT_END
 95
        2
302
GRIDFORMAT
  1
GRIDFORMAT_BEGIN
 90
        0
 91
        1
 62
     0
 92
       -2
340
0
 93
        0
 40
0.045
309
GRIDFORMAT_END
 95
        4
302
GRIDFORMAT
  1
GRIDFORMAT_BEGIN
 90
        0
 91
        1
 62
     0
 92
       -2
340
0
 93
        0
 40
0.045
309
GRIDFORMAT_END
 95
        8
302
GRIDFORMAT
  1
GRIDFORMAT_BEGIN
 90
        0
 91
        1
 62
     0
 92
       -2
340
0
 93
        0
 40
0.045
309
GRIDFORMAT_END
 95
       16
302
GRIDFORMAT
  1
GRIDFORMAT_BEGIN
 90
        0
 91
        1
 62
     0
 92
       -2
340
0
 93
        0
 40
0.045
309
GRIDFORMAT_END
 95
       32
302
GRIDFORMAT
  1
GRIDFORMAT_BEGIN
 90
        0
 91
        1
 62
     0
 92
       -2
340
0
 93
        0
 40
0.045
309
GRIDFORMAT_END
309
TABLEFORMAT_END
  1
CELLSTYLE_BEGIN
 90
        2
 91
        1
300
_HEADER
309
CELLSTYLE_END
300
CELLSTYLE
  1
TABLEFORMAT_BEGIN
 90
        5
170
     1
 91
        0
 92
        0
 62
   257
 93
        1
300
CONTENTFORMAT
  1
CONTENTFORMAT_BEGIN
 90
        0
 91
        0
 92
        4
 93
        0
300

 40
0.0
140
1.0
 94
        2
 62
     0
340
D
144
0.18
309
CONTENTFORMAT_END
171
     0
 94
        6
 95
        1
302
GRIDFORMAT
  1
GRIDFORMAT_BEGIN
 90
        0
 91
        1
 62
     0
 92
       -2
340
0
 93
        0
 40
0.045
309
GRIDFORMAT_END
 95
        2
302
GRIDFORMAT
  1
GRIDFORMAT_BEGIN
 90
        0
 91
        1
 62
     0
 92
       -2
340
0
 93
        0
 40
0.045
309
GRIDFORMAT_END
 95
        4
302
GRIDFORMAT
  1
GRIDFORMAT_BEGIN
 90
        0
 91
        1
 62
     0
 92
       -2
340
0
 93
        0
 40
0.045
309
GRIDFORMAT_END
 95
        8
302
GRIDFORMAT
  1
GRIDFORMAT_BEGIN
 90
        0
 91
        1
 62
     0
 92
       -2
340
0
 93
        0
 40
0.045
309
GRIDFORMAT_END
 95
       16
302
GRIDFORMAT
  1
GRIDFORMAT_BEGIN
 90
        0
 91
        1
 62
     0
 92
       -2
340
0
 93
        0
 40
0.045
309
GRIDFORMAT_END
 95
       32
302
GRIDFORMAT
  1
GRIDFORMAT_BEGIN
 90
        0
 91
        1
 62
     0
 92
       -2
340
0
 93
        0
 40
0.045
309
GRIDFORMAT_END
309
TABLEFORMAT_END
  1
CELLSTYLE_BEGIN
 90
        3
 91
        2
300
_DATA
309
CELLSTYLE_END
  0
XRECORD
  5
4E04
102
{ACAD_REACTORS
330
4D47
102
}
330
4D47
100
AcDbXrecord
280
     1
102
ACAD_ROUNDTRIP_PRE2007_TABLESTYLE
 90
        4
 91
        0
  1

 92
        4
 93
        0
  2

 94
        4
 95
        0
  3

  0
ENDSEC
  0
EOF
