  0
SECTION
  2
HEADER
  9
$ACADVER
  1
AC1018
  9
$ACADMAINTVER
 70
   104
  9
$DWGCODEPAGE
  3
ANSI_1252
  9
$LASTSAVEDBY
  1
ibasyouni
  9
$CUSTOMPROPERTYTAG
  1
AmdtFileType
  9
$CUSTOMPROPERTY
  1
84
  9
$INSBASE
 10
0.0
 20
0.0
 30
0.0
  9
$EXTMIN
 10
16.0483257827093
 20
30.09584221687402
 30
0.0
  9
$EXTMAX
 10
862.8038539800579
 20
591.041491632478
 30
0.0
  9
$LIMMIN
 10
0.0
 20
0.0
  9
$LIMMAX
 10
900.0
 20
650.0
  9
$ORTHOMODE
 70
     1
  9
$REGENMODE
 70
     1
  9
$FILLMODE
 70
     1
  9
$QTEXTMODE
 70
     0
  9
$MIRRTEXT
 70
     1
  9
$LTSCALE
 40
1.0
  9
$ATTMODE
 70
     1
  9
$TEXTSIZE
 40
10.0
  9
$TRACEWID
 40
1.0
  9
$TEXTSTYLE
  7
STANDARD
  9
$CLAYER
  8
0
  9
$CELTYPE
  6
BYLAYER
  9
$CECOLOR
 62
   256
  9
$CELTSCALE
 40
10.0
  9
$DISPSILH
 70
     0
  9
$DIMSCALE
 40
1.0
  9
$DIMASZ
 40
7.0
  9
$DIMEXO
 40
0.0
  9
$DIMDLI
 40
7.0
  9
$DIMRND
 40
0.0
  9
$DIMDLE
 40
0.0
  9
$DIMEXE
 40
1.25
  9
$DIMTP
 40
0.0
  9
$DIMTM
 40
0.0
  9
$DIMTXT
 40
10.0
  9
$DIMCEN
 40
0.0
  9
$DIMTSZ
 40
0.0
  9
$DIMTOL
 70
     0
  9
$DIMLIM
 70
     0
  9
$DIMTIH
 70
     0
  9
$DIMTOH
 70
     0
  9
$DIMSE1
 70
     0
  9
$DIMSE2
 70
     0
  9
$DIMTAD
 70
     1
  9
$DIMZIN
 70
     8
  9
$DIMBLK
  1

  9
$DIMASO
 70
     1
  9
$DIMSHO
 70
     1
  9
$DIMPOST
  1

  9
$DIMAPOST
  1

  9
$DIMALT
 70
     0
  9
$DIMALTD
 70
     2
  9
$DIMALTF
 40
25.4
  9
$DIMLFAC
 40
1.0
  9
$DIMTOFL
 70
     1
  9
$DIMTVP
 40
0.0
  9
$DIMTIX
 70
     0
  9
$DIMSOXD
 70
     0
  9
$DIMSAH
 70
     0
  9
$DIMBLK1
  1

  9
$DIMBLK2
  1

  9
$DIMSTYLE
  2
ISO-25
  9
$DIMCLRD
 70
   256
  9
$DIMCLRE
 70
   256
  9
$DIMCLRT
 70
   256
  9
$DIMTFAC
 40
1.0
  9
$DIMGAP
 40
4.0
  9
$DIMJUST
 70
     0
  9
$DIMSD1
 70
     0
  9
$DIMSD2
 70
     0
  9
$DIMTOLJ
 70
     1
  9
$DIMTZIN
 70
     8
  9
$DIMALTZ
 70
     0
  9
$DIMALTTZ
 70
     0
  9
$DIMUPT
 70
     1
  9
$DIMDEC
 70
     4
  9
$DIMTDEC
 70
     4
  9
$DIMALTU
 70
     2
  9
$DIMALTTD
 70
     2
  9
$DIMTXSTY
  7
STANDARD
  9
$DIMAUNIT
 70
     0
  9
$DIMADEC
 70
     0
  9
$DIMALTRND
 40
0.0
  9
$DIMAZIN
 70
     0
  9
$DIMDSEP
 70
    46
  9
$DIMATFIT
 70
     0
  9
$DIMFRAC
 70
     0
  9
$DIMLDRBLK
  1

  9
$DIMLUNIT
 70
     2
  9
$DIMLWD
 70
    -2
  9
$DIMLWE
 70
    -2
  9
$DIMTMOVE
 70
     0
  9
$LUNITS
 70
     2
  9
$LUPREC
 70
     4
  9
$SKETCHINC
 40
1.0
  9
$FILLETRAD
 40
3.0
  9
$AUNITS
 70
     0
  9
$AUPREC
 70
     0
  9
$MENU
  1
.
  9
$ELEVATION
 40
0.0
  9
$PELEVATION
 40
0.0
  9
$THICKNESS
 40
0.0
  9
$LIMCHECK
 70
     0
  9
$CHAMFERA
 40
1.0
  9
$CHAMFERB
 40
1.0
  9
$CHAMFERC
 40
0.0
  9
$CHAMFERD
 40
0.0
  9
$SKPOLY
 70
     0
  9
$TDCREATE
 40
2450848.795139884
  9
$TDUCREATE
 40
2450848.711806551
  9
$TDUPDATE
 40
2455762.630483808
  9
$TDUUPDATE
 40
2455762.547150475
  9
$TDINDWG
 40
2.4962169792
  9
$TDUSRTIMER
 40
2.4962169792
  9
$USRTIMER
 70
     1
  9
$ANGBASE
 50
0.0
  9
$ANGDIR
 70
     0
  9
$PDMODE
 70
     0
  9
$PDSIZE
 40
0.0
  9
$PLINEWID
 40
0.5
  9
$SPLFRAME
 70
     0
  9
$SPLINETYPE
 70
     6
  9
$SPLINESEGS
 70
     8
  9
$HANDSEED
  5
803
  9
$SURFTAB1
 70
     6
  9
$SURFTAB2
 70
     6
  9
$SURFTYPE
 70
     6
  9
$SURFU
 70
     6
  9
$SURFV
 70
     6
  9
$UCSBASE
  2

  9
$UCSNAME
  2

  9
$UCSORG
 10
0.0
 20
0.0
 30
0.0
  9
$UCSXDIR
 10
1.0
 20
0.0
 30
0.0
  9
$UCSYDIR
 10
0.0
 20
1.0
 30
0.0
  9
$UCSORTHOREF
  2

  9
$UCSORTHOVIEW
 70
     0
  9
$UCSORGTOP
 10
0.0
 20
0.0
 30
0.0
  9
$UCSORGBOTTOM
 10
0.0
 20
0.0
 30
0.0
  9
$UCSORGLEFT
 10
0.0
 20
0.0
 30
0.0
  9
$UCSORGRIGHT
 10
0.0
 20
0.0
 30
0.0
  9
$UCSORGFRONT
 10
0.0
 20
0.0
 30
0.0
  9
$UCSORGBACK
 10
0.0
 20
0.0
 30
0.0
  9
$PUCSBASE
  2

  9
$PUCSNAME
  2

  9
$PUCSORG
 10
0.0
 20
0.0
 30
0.0
  9
$PUCSXDIR
 10
1.0
 20
0.0
 30
0.0
  9
$PUCSYDIR
 10
0.0
 20
1.0
 30
0.0
  9
$PUCSORTHOREF
  2

  9
$PUCSORTHOVIEW
 70
     0
  9
$PUCSORGTOP
 10
0.0
 20
0.0
 30
0.0
  9
$PUCSORGBOTTOM
 10
0.0
 20
0.0
 30
0.0
  9
$PUCSORGLEFT
 10
0.0
 20
0.0
 30
0.0
  9
$PUCSORGRIGHT
 10
0.0
 20
0.0
 30
0.0
  9
$PUCSORGFRONT
 10
0.0
 20
0.0
 30
0.0
  9
$PUCSORGBACK
 10
0.0
 20
0.0
 30
0.0
  9
$USERI1
 70
     0
  9
$USERI2
 70
     0
  9
$USERI3
 70
     0
  9
$USERI4
 70
     0
  9
$USERI5
 70
     0
  9
$USERR1
 40
0.0
  9
$USERR2
 40
0.0
  9
$USERR3
 40
0.0
  9
$USERR4
 40
0.0
  9
$USERR5
 40
0.0
  9
$WORLDVIEW
 70
     1
  9
$SHADEDGE
 70
     3
  9
$SHADEDIF
 70
    70
  9
$TILEMODE
 70
     1
  9
$MAXACTVP
 70
    16
  9
$PINSBASE
 10
0.0
 20
0.0
 30
0.0
  9
$PLIMCHECK
 70
     0
  9
$PEXTMIN
 10
1.000000000000000E+20
 20
1.000000000000000E+20
 30
1.000000000000000E+20
  9
$PEXTMAX
 10
-1.000000000000000E+20
 20
-1.000000000000000E+20
 30
-1.000000000000000E+20
  9
$PLIMMIN
 10
0.0
 20
0.0
  9
$PLIMMAX
 10
420.0
 20
297.0
  9
$UNITMODE
 70
     0
  9
$VISRETAIN
 70
     0
  9
$PLINEGEN
 70
     0
  9
$PSLTSCALE
 70
     0
  9
$TREEDEPTH
 70
  3020
  9
$CMLSTYLE
  2
STANDARD
  9
$CMLJUST
 70
     0
  9
$CMLSCALE
 40
1.0
  9
$PROXYGRAPHICS
 70
     1
  9
$MEASUREMENT
 70
     0
  9
$CELWEIGHT
370
    -1
  9
$ENDCAPS
280
     0
  9
$JOINSTYLE
280
     0
  9
$LWDISPLAY
290
     0
  9
$INSUNITS
 70
     0
  9
$HYPERLINKBASE
  1

  9
$STYLESHEET
  1
Zeich.ctb
  9
$XEDIT
290
     1
  9
$CEPSNTYPE
380
     0
  9
$PSTYLEMODE
290
     1
  9
$FINGERPRINTGUID
  2
{B0966D51-E2CF-4C7E-90C1-9347105D188A}
  9
$VERSIONGUID
  2
{A8A0EAC9-3366-4CD8-BF2A-B8070CDECD0E}
  9
$EXTNAMES
290
     1
  9
$PSVPSCALE
 40
0.0
  9
$OLESTARTUP
290
     0
  9
$SORTENTS
280
   127
  9
$INDEXCTL
280
     0
  9
$HIDETEXT
280
     0
  9
$XCLIPFRAME
290
     0
  9
$HALOGAP
280
     0
  9
$OBSCOLOR
 70
   257
  9
$OBSLTYPE
280
     0
  9
$INTERSECTIONDISPLAY
280
     0
  9
$INTERSECTIONCOLOR
 70
   257
  9
$DIMASSOC
280
     1
  9
$PROJECTNAME
  1

  0
ENDSEC
  0
SECTION
  2
CLASSES
  0
CLASS
  1
IDBUFFER
  2
AcDbIdBuffer
  3
ObjectDBX Classes
 90
        0
 91
        0
280
     0
281
     0
  0
CLASS
  1
DICTIONARYVAR
  2
AcDbDictionaryVar
  3
ObjectDBX Classes
 90
        0
 91
        7
280
     0
281
     0
  0
CLASS
  1
ACMESTATEMGR
  2
AcMeStateMgr
  3
AcMeServices
 90
     1024
 91
        1
280
     0
281
     0
  0
CLASS
  1
ACMESCOPE
  2
AcMeScope
  3
AcMeServices
 90
     1024
 91
        1
280
     0
281
     0
  0
CLASS
  1
ACMECOMMANDHISTORY
  2
AcMeCommandHistory
  3
AcMeServices
 90
     1024
 91
        1
280
     0
281
     0
  0
CLASS
  1
ACRFINSADJUSTERMGR
  2
AcRfInsAdjusterMgr
  3
AcMeServices
 90
     1024
 91
        1
280
     0
281
     0
  0
CLASS
  1
ACMEDRAWINGMAN
  2
AcMeDrawingMan
  3
AcMeServices
 90
     1024
 91
        1
280
     0
281
     0
  0
CLASS
  1
AMATTR
  2
AcMeAttribute
  3
AcMeServices
 90
     1024
 91
        0
280
     0
281
     0
  0
CLASS
  1
ACMEBOMCOLUMN
  2
AcMeBOMColumn
  3
AcMeServices
 90
     1024
 91
        0
280
     0
281
     0
  0
CLASS
  1
ACMEBOMCONF
  2
AcMeBOMConf
  3
AcMeServices
 90
     1024
 91
        0
280
     0
281
     0
  0
CLASS
  1
ACMEBOMTABLE
  2
AcMeBOMTable
  3
AcMeServices
 90
     1024
 91
        0
280
     0
281
     0
  0
CLASS
  1
ACMEBOMENTRY
  2
AcMeBOMEntry
  3
AcMeServices
 90
     1024
 91
        0
280
     0
281
     0
  0
CLASS
  1
ACMEVIEW
  2
AcMeView
  3
AcMeServices
 90
     1024
 91
        0
280
     0
281
     0
  0
CLASS
  1
LAYER_INDEX
  2
AcDbLayerIndex
  3
ObjectDBX Classes
 90
        0
 91
        0
280
     0
281
     0
  0
CLASS
  1
ACIMSYSVARMAN
  2
AcImSysVarManager
  3
AcMeServices
 90
     1024
 91
        5
280
     0
281
     0
  0
CLASS
  1
ACIMINTSYSVAR
  2
AcImIntSysVar
  3
AcMeServices
 90
     1024
 91
       27
280
     0
281
     0
  0
CLASS
  1
ACIMSTRSYSVAR
  2
AcImStrSysVar
  3
AcMeServices
 90
     1024
 91
        5
280
     0
281
     0
  0
CLASS
  1
ACMSTANDARDJIS
  2
AcmStandardJIS
  3
"Amdt_StdImp|Product Description: AutoCAD Mechanical|Company: Autodesk, Inc."
 90
     1024
 91
        1
280
     0
281
     0
  0
CLASS
  1
ACMSTANDARDANSI
  2
AcmStandardANSI
  3
"Amdt_StdImp|Product Description: AutoCAD Mechanical|Company: Autodesk, Inc."
 90
     1024
 91
        1
280
     0
281
     0
  0
CLASS
  1
ACMSTANDARDBSI
  2
AcmStandardBSI
  3
"Amdt_StdImp|Product Description: AutoCAD Mechanical|Company: Autodesk, Inc."
 90
     1024
 91
        1
280
     0
281
     0
  0
CLASS
  1
ACMSTANDARDDIN
  2
AcmStandardDIN
  3
"Amdt_StdImp|Product Description: AutoCAD Mechanical|Company: Autodesk, Inc."
 90
     1024
 91
        1
280
     0
281
     0
  0
CLASS
  1
ACMSTANDARDISO
  2
AcmStandardISO
  3
"Amdt_StdImp|Product Description: AutoCAD Mechanical|Company: Autodesk, Inc."
 90
     1024
 91
        1
280
     0
281
     0
  0
CLASS
  1
ACDBDICTIONARYWDFLT
  2
AcDbDictionaryWithDefault
  3
ObjectDBX Classes
 90
        0
 91
        1
280
     0
281
     0
  0
CLASS
  1
ACME_DOCUMENT
  2
AcMeDbDoc
  3
AcMeServices
 90
     1024
 91
        2
280
     0
281
     0
  0
CLASS
  1
AMGSETTINGSOBJ
  2
AmgSettingsObj
  3
"AcadM|Product Description: AutoCAD Mechanical|Company: Autodesk, Inc."
 90
     1024
 91
        2
280
     0
281
     0
  0
CLASS
  1
ACIMREALSYSVAR
  2
AcImRealSysVar
  3
AcMeServices
 90
     1024
 91
        3
280
     0
281
     0
  0
CLASS
  1
ACDBENTITYCACHE
  2
AcMeEntityCache
  3
AcMeServices
 90
     1024
 91
        1
280
     0
281
     0
  0
CLASS
  1
GSMANAGER
  2
AcMeGSManager
  3
AcMeServices
 90
     1024
 91
        1
280
     0
281
     0
  0
CLASS
  1
AMDTINTERNALREACTOR
  2
AmdtInternalReactor
  3
AcMeServices
 90
     1024
 91
        2
280
     0
281
     0
  0
CLASS
  1
ACME_DATABASE
  2
AcMeDbDatabase
  3
AcMeServices
 90
     1024
 91
        1
280
     0
281
     0
  0
CLASS
  1
ACMDATADICTIONARY
  2
AcmDataDictionary
  3
"AcmSymBB|Product Description: AutoCAD Mechanical|Company: Autodesk, Inc."
 90
     1024
 91
        1
280
     0
281
     0
  0
CLASS
  1
ACMDATAENTRYBLOCK
  2
AcmDataEntryBlock
  3
AcmSymBB|Product Description: AutoCAD Mechanical|Company: Autodesk, Inc.
 90
     1024
 91
        1
280
     0
281
     0
  0
CLASS
  1
ACMSURFSTANDARDJIS
  2
AcmSurfTextStdJIS
  3
"Amdt_StdImp|Product Description: AutoCAD Mechanical|Company: Autodesk, Inc."
 90
     1024
 91
        2
280
     0
281
     0
  0
CLASS
  1
ACMFCFSTANDARDJIS
  2
AcmFCFStdJIS
  3
"Amdt_StdImp|Product Description: AutoCAD Mechanical|Company: Autodesk, Inc."
 90
     1024
 91
        2
280
     0
281
     0
  0
CLASS
  1
ACMWELDSTANDARDJIS
  2
AcmWeldingStdJIS
  3
"Amdt_StdImp|Product Description: AutoCAD Mechanical|Company: Autodesk, Inc."
 90
     1024
 91
        2
280
     0
281
     0
  0
CLASS
  1
ACMIDSTANDARDJIS
  2
AcmIdStdJIS
  3
"Amdt_StdImp|Product Description: AutoCAD Mechanical|Company: Autodesk, Inc."
 90
     1024
 91
        2
280
     0
281
     0
  0
CLASS
  1
ACMDATUMSTANDARDJIS
  2
AcmDatumStdJIS
  3
"Amdt_StdImp|Product Description: AutoCAD Mechanical|Company: Autodesk, Inc."
 90
     1024
 91
        2
280
     0
281
     0
  0
CLASS
  1
ACMBOMSTANDARDJIS
  2
AcmBOMStdJIS
  3
"Amdt_StdImp|Product Description: AutoCAD Mechanical|Company: Autodesk, Inc."
 90
     1024
 91
        2
280
     0
281
     0
  0
CLASS
  1
AMGOBJPROPCFG
  2
AmgObjPropCfg
  3
"AmgLay|Product Description: AutoCAD Mechanical|Company: Autodesk, Inc."
 90
     1025
 91
        1
280
     0
281
     0
  0
CLASS
  1
ACMSURFSTANDARDANSI
  2
AcmSurfTextStdANSI
  3
"Amdt_StdImp|Product Description: AutoCAD Mechanical|Company: Autodesk, Inc."
 90
     1024
 91
        2
280
     0
281
     0
  0
CLASS
  1
ACMFCFSTANDARDANSI
  2
AcmFCFStdANSI
  3
"Amdt_StdImp|Product Description: AutoCAD Mechanical|Company: Autodesk, Inc."
 90
     1024
 91
        2
280
     0
281
     0
  0
CLASS
  1
ACMWELDSTANDARDANSI
  2
AcmWeldingStdANSI
  3
"Amdt_StdImp|Product Description: AutoCAD Mechanical|Company: Autodesk, Inc."
 90
     1024
 91
        2
280
     0
281
     0
  0
CLASS
  1
ACMIDSTANDARDANSI
  2
AcmIdStdANSI
  3
"Amdt_StdImp|Product Description: AutoCAD Mechanical|Company: Autodesk, Inc."
 90
     1024
 91
        2
280
     0
281
     0
  0
CLASS
  1
ACMDATUMSTANDARDANSI
  2
AcmDatumStdANSI
  3
"Amdt_StdImp|Product Description: AutoCAD Mechanical|Company: Autodesk, Inc."
 90
     1024
 91
        2
280
     0
281
     0
  0
CLASS
  1
ACMBOMSTANDARDANSI
  2
AcmBOMStdANSI
  3
"Amdt_StdImp|Product Description: AutoCAD Mechanical|Company: Autodesk, Inc."
 90
     1024
 91
        2
280
     0
281
     0
  0
CLASS
  1
ACMSURFSTANDARDBSI
  2
AcmSurfTextStdBSI
  3
"Amdt_StdImp|Product Description: AutoCAD Mechanical|Company: Autodesk, Inc."
 90
     1024
 91
        2
280
     0
281
     0
  0
CLASS
  1
ACMFCFSTANDARDBSI
  2
AcmFCFStdBSI
  3
"Amdt_StdImp|Product Description: AutoCAD Mechanical|Company: Autodesk, Inc."
 90
     1024
 91
        2
280
     0
281
     0
  0
CLASS
  1
ACMWELDSTANDARDBSI
  2
AcmWeldingStdBSI
  3
"Amdt_StdImp|Product Description: AutoCAD Mechanical|Company: Autodesk, Inc."
 90
     1024
 91
        2
280
     0
281
     0
  0
CLASS
  1
ACMIDSTANDARDBSI
  2
AcmIdStdBSI
  3
"Amdt_StdImp|Product Description: AutoCAD Mechanical|Company: Autodesk, Inc."
 90
     1024
 91
        2
280
     0
281
     0
  0
CLASS
  1
ACMDATUMSTANDARDBSI
  2
AcmDatumStdBSI
  3
"Amdt_StdImp|Product Description: AutoCAD Mechanical|Company: Autodesk, Inc."
 90
     1024
 91
        2
280
     0
281
     0
  0
CLASS
  1
ACMBOMSTANDARDBSI
  2
AcmBOMStdBSI
  3
"Amdt_StdImp|Product Description: AutoCAD Mechanical|Company: Autodesk, Inc."
 90
     1024
 91
        2
280
     0
281
     0
  0
CLASS
  1
AMDTEDGESTANDARDDIN
  2
AmdtEdgeStdDIN
  3
"Amdt_StdImp|Product Description: AutoCAD Mechanical|Company: Autodesk, Inc."
 90
     1024
 91
        2
280
     0
281
     0
  0
CLASS
  1
ACMSURFSTANDARDDIN
  2
AcmSurfTextStdDIN
  3
"Amdt_StdImp|Product Description: AutoCAD Mechanical|Company: Autodesk, Inc."
 90
     1024
 91
        2
280
     0
281
     0
  0
CLASS
  1
ACMFCFSTANDARDDIN
  2
AcmFCFStdDIN
  3
"Amdt_StdImp|Product Description: AutoCAD Mechanical|Company: Autodesk, Inc."
 90
     1024
 91
        2
280
     0
281
     0
  0
CLASS
  1
ACMWELDSTANDARDDIN
  2
AcmWeldingStdDIN
  3
"Amdt_StdImp|Product Description: AutoCAD Mechanical|Company: Autodesk, Inc."
 90
     1024
 91
        2
280
     0
281
     0
  0
CLASS
  1
ACMIDSTANDARDDIN
  2
AcmIdStdDIN
  3
"Amdt_StdImp|Product Description: AutoCAD Mechanical|Company: Autodesk, Inc."
 90
     1024
 91
        2
280
     0
281
     0
  0
CLASS
  1
ACMDATUMSTANDARDDIN
  2
AcmDatumStdDIN
  3
"Amdt_StdImp|Product Description: AutoCAD Mechanical|Company: Autodesk, Inc."
 90
     1024
 91
        2
280
     0
281
     0
  0
CLASS
  1
ACMBOMSTANDARDDIN
  2
AcmBOMStdDIN
  3
"Amdt_StdImp|Product Description: AutoCAD Mechanical|Company: Autodesk, Inc."
 90
     1024
 91
        2
280
     0
281
     0
  0
CLASS
  1
AMDTEDGESTANDARDISO
  2
AmdtEdgeStdISO
  3
"Amdt_StdImp|Product Description: AutoCAD Mechanical|Company: Autodesk, Inc."
 90
     1024
 91
        2
280
     0
281
     0
  0
CLASS
  1
ACMSURFSTANDARDISO
  2
AcmSurfTextStdISO
  3
"Amdt_StdImp|Product Description: AutoCAD Mechanical|Company: Autodesk, Inc."
 90
     1024
 91
        2
280
     0
281
     0
  0
CLASS
  1
ACMFCFSTANDARDISO
  2
AcmFCFStdISO
  3
"Amdt_StdImp|Product Description: AutoCAD Mechanical|Company: Autodesk, Inc."
 90
     1024
 91
        2
280
     0
281
     0
  0
CLASS
  1
ACMWELDSTANDARDISO
  2
AcmWeldingStdISO
  3
"Amdt_StdImp|Product Description: AutoCAD Mechanical|Company: Autodesk, Inc."
 90
     1024
 91
        2
280
     0
281
     0
  0
CLASS
  1
ACMIDSTANDARDISO
  2
AcmIdStdISO
  3
"Amdt_StdImp|Product Description: AutoCAD Mechanical|Company: Autodesk, Inc."
 90
     1024
 91
        2
280
     0
281
     0
  0
CLASS
  1
ACMDATUMSTANDARDISO
  2
AcmDatumStdISO
  3
"Amdt_StdImp|Product Description: AutoCAD Mechanical|Company: Autodesk, Inc."
 90
     1024
 91
        2
280
     0
281
     0
  0
CLASS
  1
ACMBOMSTANDARDISO
  2
AcmBOMStdISO
  3
"Amdt_StdImp|Product Description: AutoCAD Mechanical|Company: Autodesk, Inc."
 90
     1024
 91
        2
280
     0
281
     0
  0
CLASS
  1
ACAMGFILTERDAT
  2
AcAmgFilterDat
  3
"AcadM|Product Description: AutoCAD Mechanical|Company: Autodesk, Inc."
 90
     1024
 91
        5
280
     0
281
     0
  0
CLASS
  1
ACGREFMASTER
  2
AcGrefMaster
  3
AcAttribServices
 90
     1024
 91
        1
280
     0
281
     0
  0
CLASS
  1
AM_DRAWING_MGR
  2
AcDmDwgMgr
  3
AcMechDwgViewMgmt
 90
     1024
 91
        1
280
     0
281
     0
  0
CLASS
  1
AM_DWG_DOCUMENT
  2
AcDmDwgDocument
  3
AcMechDwgViewMgmt
 90
     1024
 91
        1
280
     0
281
     0
  0
CLASS
  1
AM_DWG_SHEET
  2
AcDmSheet
  3
AcMechDwgViewMgmt
 90
     1024
 91
        1
280
     0
281
     0
  0
CLASS
  1
AM_VIEWDIMPARMAP
  2
AcDmViewDimParMap
  3
AcMechDwgViewMgmt
 90
     1024
 91
        1
280
     0
281
     0
  0
CLASS
  1
AM_DWGMGR_NAME
  2
AcDmDwgMgrName
  3
AcMechDwgViewMgmt
 90
     1024
 91
        1
280
     0
281
     0
  0
CLASS
  1
ACGREFACADMASTER
  2
AcGrefacadMaster
  3
AcGrefServices
 90
     1024
 91
        1
280
     0
281
     0
  0
CLASS
  1
AMDTMENUSTATEMGR
  2
AmdtMenuStateMgr
  3
McadcomServices
 90
     1024
 91
        1
280
     0
281
     0
  0
CLASS
  1
AMDTMCOMMENUSTATE
  2
AmdtMcomMenuState
  3
McadcomServices
 90
     1024
 91
        1
280
     0
281
     0
  0
CLASS
  1
AMIMASTER
  2
AmiMaster
  3
AmiServices
 90
     1024
 91
        1
280
     0
281
     0
  0
CLASS
  1
MAPIAMMOUDLE
  2
MApiAmModule
  3
MApiAmServices
 90
     1024
 91
        1
280
     0
281
     0
  0
CLASS
  1
AMDTADMENUSTATE
  2
AmdtAdMenuState
  3
DesignerServices
 90
     1024
 91
        1
280
     0
281
     0
  0
CLASS
  1
ADAPPL
  2
AcAdAppl
  3
DesignerServices
 90
     1024
 91
        1
280
     0
281
     0
  0
CLASS
  1
DEPMGR
  2
AcAdDepMgr
  3
DesignerServices
 90
     1024
 91
        1
280
     0
281
     0
  0
CLASS
  1
PARAMMGR
  2
AcAdParamMgr
  3
DesignerServices
 90
     1024
 91
        1
280
     0
281
     0
  0
CLASS
  1
PARAMSCOPE
  2
AcAdParamScope
  3
DesignerServices
 90
     1024
 91
        1
280
     0
281
     0
  0
CLASS
  1
NAMEDAPPL
  2
AcAdNamedAppl
  3
DesignerServices
 90
     1024
 91
        1
280
     0
281
     0
  0
CLASS
  1
AMDTDMMENUSTATE
  2
AmdtDmMenuState
  3
AcMechDwgViewMgmt
 90
     1024
 91
        1
280
     0
281
     0
  0
CLASS
  1
AMDTAMMENUSTATE
  2
AmdtAmMenuState
  3
DesignerAssemblies
 90
     1024
 91
        1
280
     0
281
     0
  0
CLASS
  1
ACAMPROJECT
  2
AcAmProject
  3
DesignerAssemblies
 90
     1024
 91
        1
280
     0
281
     0
  0
CLASS
  1
ACAMGRCOMPDEF
  2
AcAmGrCompDef
  3
DesignerAssemblies
 90
     1024
 91
        1
280
     0
281
     0
  0
CLASS
  1
ACCMCONTEXT
  2
AcCmContext
  3
DesignerAssemblies
 90
     1024
 91
        1
280
     0
281
     0
  0
CLASS
  1
ACAMCOMPDEF
  2
AcAmCompDef
  3
DesignerAssemblies
 90
     1024
 91
        1
280
     0
281
     0
  0
CLASS
  1
ACAMCOMPDEFMGR
  2
AcAmCompDefMgr
  3
DesignerAssemblies
 90
     1024
 91
        1
280
     0
281
     0
  0
CLASS
  1
AMCONTEXTMGR
  2
AcAmContextMgr
  3
DesignerAssemblies
 90
     1024
 91
        1
280
     0
281
     0
  0
CLASS
  1
ACAMCONTEXTMODELER
  2
AcAmContextModeler
  3
DesignerAssemblies
 90
     1024
 91
        1
280
     0
281
     0
  0
CLASS
  1
ACAMGTITLESTD
  2
AcAmgTitleStd
  3
"AmgTitle|Product Description: AutoCAD Mechanical|Company: Autodesk, Inc."
 90
     4095
 91
        5
280
     0
281
     0
  0
CLASS
  1
ACMDETAILSTANDARDJIS
  2
AmdtDetailSymStdJIS
  3
"Amdt_StdImp|Product Description: AutoCAD Mechanical|Company: Autodesk, Inc."
 90
     1024
 91
        1
280
     0
281
     0
  0
CLASS
  1
ACMSECTIONSTANDARDJIS
  2
AmdtSectionSymStdJIS
  3
"Amdt_StdImp|Product Description: AutoCAD Mechanical|Company: Autodesk, Inc."
 90
     1024
 91
        1
280
     0
281
     0
  0
CLASS
  1
ACMCENTERLINESTANDARDJIS
  2
AmdtCenterLineStdJIS
  3
"Amdt_StdImp|Product Description: AutoCAD Mechanical|Company: Autodesk, Inc."
 90
     1024
 91
        1
280
     0
281
     0
  0
CLASS
  1
ACMTHREADLINESTANDARDJIS
  2
AmdtThreadLineStdJIS
  3
"Amdt_StdImp|Product Description: AutoCAD Mechanical|Company: Autodesk, Inc."
 90
     1024
 91
        1
280
     0
281
     0
  0
CLASS
  1
ACMNOTESTANDARDJIS
  2
AmdtNoteStdJIS
  3
"Amdt_StdImp|Product Description: AutoCAD Mechanical|Company: Autodesk, Inc."
 90
     1024
 91
        1
280
     0
281
     0
  0
CLASS
  1
AMDTNOTETEMPLATEDB
  2
AmdtNoteTemplateDB
  3
AcmSymBB|Product Description: AutoCAD Mechanical|Company: Autodesk, Inc.
 90
     1024
 91
       20
280
     0
281
     0
  0
CLASS
  1
ACMDETAILSTANDARDANSI
  2
AmdtDetailSymStdANSI
  3
"Amdt_StdImp|Product Description: AutoCAD Mechanical|Company: Autodesk, Inc."
 90
     1024
 91
        1
280
     0
281
     0
  0
CLASS
  1
ACMSECTIONSTANDARDANSI
  2
AmdtSectionSymStdANSI
  3
"Amdt_StdImp|Product Description: AutoCAD Mechanical|Company: Autodesk, Inc."
 90
     1024
 91
        1
280
     0
281
     0
  0
CLASS
  1
ACMCENTERLINESTANDARDANSI
  2
AmdtCenterLineStdANSI
  3
"Amdt_StdImp|Product Description: AutoCAD Mechanical|Company: Autodesk, Inc."
 90
     1024
 91
        1
280
     0
281
     0
  0
CLASS
  1
ACMTHREADLINESTANDARDANSI
  2
AmdtThreadLineStdANSI
  3
"Amdt_StdImp|Product Description: AutoCAD Mechanical|Company: Autodesk, Inc."
 90
     1024
 91
        1
280
     0
281
     0
  0
CLASS
  1
ACMNOTESTANDARDANSI
  2
AmdtNoteStdANSI
  3
"Amdt_StdImp|Product Description: AutoCAD Mechanical|Company: Autodesk, Inc."
 90
     1024
 91
        1
280
     0
281
     0
  0
CLASS
  1
ACMDETAILSTANDARDBSI
  2
AmdtDetailSymStdBSI
  3
"Amdt_StdImp|Product Description: AutoCAD Mechanical|Company: Autodesk, Inc."
 90
     1024
 91
        1
280
     0
281
     0
  0
CLASS
  1
ACMSECTIONSTANDARDBSI
  2
AmdtSectionSymStdBSI
  3
"Amdt_StdImp|Product Description: AutoCAD Mechanical|Company: Autodesk, Inc."
 90
     1024
 91
        1
280
     0
281
     0
  0
CLASS
  1
ACMCENTERLINESTANDARDBSI
  2
AmdtCenterLineStdBSI
  3
"Amdt_StdImp|Product Description: AutoCAD Mechanical|Company: Autodesk, Inc."
 90
     1024
 91
        1
280
     0
281
     0
  0
CLASS
  1
ACMTHREADLINESTANDARDBSI
  2
AmdtThreadLineStdBSI
  3
"Amdt_StdImp|Product Description: AutoCAD Mechanical|Company: Autodesk, Inc."
 90
     1024
 91
        1
280
     0
281
     0
  0
CLASS
  1
ACMNOTESTANDARDBSI
  2
AmdtNoteStdBSI
  3
"Amdt_StdImp|Product Description: AutoCAD Mechanical|Company: Autodesk, Inc."
 90
     1024
 91
        1
280
     0
281
     0
  0
CLASS
  1
ACMDETAILSTANDARDDIN
  2
AmdtDetailSymStdDIN
  3
"Amdt_StdImp|Product Description: AutoCAD Mechanical|Company: Autodesk, Inc."
 90
     1024
 91
        1
280
     0
281
     0
  0
CLASS
  1
ACMSECTIONSTANDARDDIN
  2
AmdtSectionSymStdDIN
  3
"Amdt_StdImp|Product Description: AutoCAD Mechanical|Company: Autodesk, Inc."
 90
     1024
 91
        1
280
     0
281
     0
  0
CLASS
  1
ACMCENTERLINESTANDARDDIN
  2
AmdtCenterLineStdDIN
  3
"Amdt_StdImp|Product Description: AutoCAD Mechanical|Company: Autodesk, Inc."
 90
     1024
 91
        1
280
     0
281
     0
  0
CLASS
  1
ACMTHREADLINESTANDARDDIN
  2
AmdtThreadLineStdDIN
  3
"Amdt_StdImp|Product Description: AutoCAD Mechanical|Company: Autodesk, Inc."
 90
     1024
 91
        1
280
     0
281
     0
  0
CLASS
  1
ACMNOTESTANDARDDIN
  2
AmdtNoteStdDIN
  3
"Amdt_StdImp|Product Description: AutoCAD Mechanical|Company: Autodesk, Inc."
 90
     1024
 91
        1
280
     0
281
     0
  0
CLASS
  1
ACMDETAILSTANDARDISO
  2
AmdtDetailSymStdISO
  3
"Amdt_StdImp|Product Description: AutoCAD Mechanical|Company: Autodesk, Inc."
 90
     1024
 91
        1
280
     0
281
     0
  0
CLASS
  1
ACMSECTIONSTANDARDISO
  2
AmdtSectionSymStdISO
  3
"Amdt_StdImp|Product Description: AutoCAD Mechanical|Company: Autodesk, Inc."
 90
     1024
 91
        1
280
     0
281
     0
  0
CLASS
  1
ACMCENTERLINESTANDARDISO
  2
AmdtCenterLineStdISO
  3
"Amdt_StdImp|Product Description: AutoCAD Mechanical|Company: Autodesk, Inc."
 90
     1024
 91
        1
280
     0
281
     0
  0
CLASS
  1
ACMTHREADLINESTANDARDISO
  2
AmdtThreadLineStdISO
  3
"Amdt_StdImp|Product Description: AutoCAD Mechanical|Company: Autodesk, Inc."
 90
     1024
 91
        1
280
     0
281
     0
  0
CLASS
  1
ACMNOTESTANDARDISO
  2
AmdtNoteStdISO
  3
"Amdt_StdImp|Product Description: AutoCAD Mechanical|Company: Autodesk, Inc."
 90
     1024
 91
        1
280
     0
281
     0
  0
CLASS
  1
ACAMGLAYSTD
  2
AcAmgLayStd
  3
"AmgLay|Product Description: AutoCAD Mechanical|Company: Autodesk, Inc."
 90
     1024
 91
        5
280
     0
281
     0
  0
CLASS
  1
ACAMGDIMSTD
  2
AcAmgDimStd
  3
"AmgDim|Product Description: AutoCAD Mechanical|Company: Autodesk, Inc."
 90
     1024
 91
        5
280
     0
281
     0
  0
CLASS
  1
ACAMGHOLECHARTSTDANSI
  2
AcAmgHoleChartStdANSI
  3
AmgDim|Product Description: AutoCAD Mechanical|Company: Autodesk, Inc.
 90
     1024
 91
        1
280
     0
281
     0
  0
CLASS
  1
ACAMGHOLECHARTSTDBSI
  2
AcAmgHoleChartStdBSI
  3
AmgDim|Product Description: AutoCAD Mechanical|Company: Autodesk, Inc.
 90
     1024
 91
        1
280
     0
281
     0
  0
CLASS
  1
ACAMGHOLECHARTSTDDIN
  2
AcAmgHoleChartStdDIN
  3
AmgDim|Product Description: AutoCAD Mechanical|Company: Autodesk, Inc.
 90
     1024
 91
        1
280
     0
281
     0
  0
CLASS
  1
ACAMGHOLECHARTSTDISO
  2
AcAmgHoleChartStdISO
  3
AmgDim|Product Description: AutoCAD Mechanical|Company: Autodesk, Inc.
 90
     1024
 91
        1
280
     0
281
     0
  0
CLASS
  1
ACAMGHOLECHARTSTDJIS
  2
AcAmgHoleChartStdJIS
  3
AmgDim|Product Description: AutoCAD Mechanical|Company: Autodesk, Inc.
 90
     1024
 91
        1
280
     0
281
     0
  0
CLASS
  1
CATALOGSTATE
  2
AcAmCatalogState
  3
DesignerAssemblies
 90
     1024
 91
        1
280
     0
281
     0
  0
CLASS
  1
ACAMGRCOMPDEFSET
  2
AcAmGrCompDefSet
  3
DesignerAssemblies
 90
     1024
 91
        1
280
     0
281
     0
  0
CLASS
  1
AMDTBROWSERDBTAB
  2
AmdtBrowserDbTab
  3
McadcomServices
 90
     1024
 91
        1
280
     0
281
     0
  0
CLASS
  1
CBROWSERAPPOBJECT
  2
CBrowserAppObject
  3
McadcomServices
 90
     1024
 91
        3
280
     0
281
     0
  0
CLASS
  1
DM_PLACEHOLDER
  2
AcDmSelsetPlaceholder
  3
AcMechDwgViewMgmt
 90
     1024
 91
        1
280
     0
281
     0
  0
CLASS
  1
TABLESTYLE
  2
AcDbTableStyle
  3
ObjectDBX Classes
 90
     4095
 91
        1
280
     0
281
     0
  0
CLASS
  1
VAACXREFPANELOBJECT
  2
VaAcXREFPanelObject
  3
VAAC_ADDIN
 90
        0
 91
        0
280
     0
281
     0
  0
CLASS
  1
VAACIMAGEINVENTORY
  2
VaAcImageInventory
  3
VAAC_ADDIN
 90
        0
 91
        0
280
     0
281
     0
  0
CLASS
  1
MATERIAL
  2
AcDbMaterial
  3
ObjectDBX Classes
 90
     1153
 91
        3
280
     0
281
     0
  0
CLASS
  1
VISUALSTYLE
  2
AcDbVisualStyle
  3
ObjectDBX Classes
 90
     4095
 91
       16
280
     0
281
     0
  0
CLASS
  1
ACRFATTGENMGR
  2
AcRfAttGeneralMgr
  3
AcAttribServices
 90
     1024
 91
        1
280
     0
281
     0
  0
CLASS
  1
ACRFOBJATTMGR
  2
AcRfObjAttGroupMgr
  3
AcAttribServices
 90
     1024
 91
        1
280
     0
281
     0
  0
CLASS
  1
ACRFMCADAPIATTHOLDER
  2
AcRfMCADAPIAttHolder
  3
AcAttribServices
 90
     1024
 91
        1
280
     0
281
     0
  0
CLASS
  1
AMDTSYSATTR
  2
AmdtSystemAttribute
  3
AcAttribServices
 90
     1024
 91
        1
280
     0
281
     0
  0
CLASS
  1
ACMTAPERSTANDARDJIS
  2
AcmTaperStdJIS
  3
"Amdt_StdImp|Product Description: AutoCAD Mechanical|Company: Autodesk, Inc."
 90
     1024
 91
        1
280
     0
281
     0
  0
CLASS
  1
ACMTAPERSTANDARDANSI
  2
AcmTaperStdANSI
  3
"Amdt_StdImp|Product Description: AutoCAD Mechanical|Company: Autodesk, Inc."
 90
     1024
 91
        1
280
     0
281
     0
  0
CLASS
  1
ACMTAPERSTANDARDBSI
  2
AcmTaperStdBSI
  3
"Amdt_StdImp|Product Description: AutoCAD Mechanical|Company: Autodesk, Inc."
 90
     1024
 91
        1
280
     0
281
     0
  0
CLASS
  1
ACMTAPERSTANDARDDIN
  2
AcmTaperStdDIN
  3
"Amdt_StdImp|Product Description: AutoCAD Mechanical|Company: Autodesk, Inc."
 90
     1024
 91
        1
280
     0
281
     0
  0
CLASS
  1
ACMTAPERSTANDARDISO
  2
AcmTaperStdISO
  3
"Amdt_StdImp|Product Description: AutoCAD Mechanical|Company: Autodesk, Inc."
 90
     1024
 91
        1
280
     0
281
     0
  0
CLASS
  1
CAMSSTRUCTBTNSTATE
  2
StructBtnState
  3
DesignerAssemblies
 90
     1024
 91
        1
280
     0
281
     0
  0
CLASS
  1
SCALE
  2
AcDbScale
  3
ObjectDBX Classes
 90
     1153
 91
       33
280
     0
281
     0
  0
CLASS
  1
MLEADERSTYLE
  2
AcDbMLeaderStyle
  3
ACDB_MLEADERSTYLE_CLASS
 90
     4095
 91
        1
280
     0
281
     0
  0
CLASS
  1
ACMANOOTATIONVIEWSTANDARDJIS
  2
AmdtAnViewStdJIS
  3
"Amdt_StdImp|Product Description: AutoCAD Mechanical|Company: Autodesk, Inc."
 90
     1024
 91
        1
280
     0
281
     0
  0
CLASS
  1
ACMANOOTATIONVIEWSTANDARDANSI
  2
AmdtAnViewStdANSI
  3
"Amdt_StdImp|Product Description: AutoCAD Mechanical|Company: Autodesk, Inc."
 90
     1024
 91
        1
280
     0
281
     0
  0
CLASS
  1
ACMANOOTATIONVIEWSTANDARDBSI
  2
AmdtAnViewStdBSI
  3
"Amdt_StdImp|Product Description: AutoCAD Mechanical|Company: Autodesk, Inc."
 90
     1024
 91
        1
280
     0
281
     0
  0
CLASS
  1
ACMANOOTATIONVIEWSTANDARDDIN
  2
AmdtAnViewStdDIN
  3
"Amdt_StdImp|Product Description: AutoCAD Mechanical|Company: Autodesk, Inc."
 90
     1024
 91
        1
280
     0
281
     0
  0
CLASS
  1
ACMANOOTATIONVIEWSTANDARDISO
  2
AmdtAnViewStdISO
  3
"Amdt_StdImp|Product Description: AutoCAD Mechanical|Company: Autodesk, Inc."
 90
     1024
 91
        1
280
     0
281
     0
  0
CLASS
  1
CELLSTYLEMAP
  2
AcDbCellStyleMap
  3
ObjectDBX Classes
 90
     1152
 91
        2
280
     0
281
     0
  0
CLASS
  1
SORTENTSTABLE
  2
AcDbSortentsTable
  3
ObjectDBX Classes
 90
        0
 91
        1
280
     0
281
     0
  0
ENDSEC
  0
SECTION
  2
TABLES
  0
TABLE
  2
VPORT
  5
13
330
0
100
AcDbSymbolTable
 70
     1
  0
VPORT
  5
3F4
330
13
100
AcDbSymbolTableRecord
100
AcDbViewportTableRecord
  2
*Active
 70
     0
 10
0.0
 20
0.0
 11
1.0
 21
1.0
 12
540.3244324979127
 22
350.4803431108412
 13
0.0
 23
0.0
 14
10.0
 24
10.0
 15
10.0
 25
10.0
 16
0.0
 26
0.0
 36
1.0
 17
0.0
 27
0.0
 37
0.0
 40
639.408322646665
 41
1.516516516516516
 42
50.0
 43
0.0
 44
0.0
 50
0.0
 51
0.0
 71
     0
 72
   100
 73
     1
 74
     0
 75
     0
 76
     0
 77
     0
 78
     0
281
     0
 65
     1
110
0.0
120
0.0
130
0.0
111
1.0
121
0.0
131
0.0
112
0.0
122
1.0
132
0.0
 79
     0
146
0.0
  0
ENDTAB
  0
TABLE
  2
LTYPE
  5
E
330
0
100
AcDbSymbolTable
 70
    21
  0
LTYPE
  5
F
330
E
100
AcDbSymbolTableRecord
100
AcDbLinetypeTableRecord
  2
BYBLOCK
 70
     0
  3

 72
    65
 73
     0
 40
0.0
  0
LTYPE
  5
10
330
E
100
AcDbSymbolTableRecord
100
AcDbLinetypeTableRecord
  2
BYLAYER
 70
     0
  3

 72
    65
 73
     0
 40
0.0
  0
LTYPE
  5
6
330
E
100
AcDbSymbolTableRecord
100
AcDbLinetypeTableRecord
  2
CONTINUOUS
 70
     0
  3
Solid line
 72
    65
 73
     0
 40
0.0
  0
LTYPE
  5
39
330
E
100
AcDbSymbolTableRecord
100
AcDbLinetypeTableRecord
  2
MITTE
 70
     0
  3
____ _ ____ _ ____ _ ____ _ ____ _ ____ _ ____ 
 72
    65
 73
     4
 40
2.0
 49
1.25
 74
     0
 49
-0.25
 74
     0
 49
0.25
 74
     0
 49
-0.25
 74
     0
  0
LTYPE
  5
7F
330
E
100
AcDbSymbolTableRecord
100
AcDbLinetypeTableRecord
  2
GESTRICHELT
 70
     0
  3
__ __ __ __ __ __ __ __ __ __ __ __ __ __ __ __
 72
    65
 73
     2
 40
0.75
 49
0.5
 74
     0
 49
-0.25
 74
     0
  0
LTYPE
  5
266
330
E
100
AcDbSymbolTableRecord
100
AcDbLinetypeTableRecord
  2
ACJISTGB
 70
     0
  3
__ . . __ . .
 72
    65
 73
     6
 40
9.0
 49
4.0
 74
     0
 49
-1.0
 74
     0
 49
1.0
 74
     0
 49
-1.0
 74
     0
 49
1.0
 74
     0
 49
-1.0
 74
     0
  0
LTYPE
  5
267
330
E
100
AcDbSymbolTableRecord
100
AcDbLinetypeTableRecord
  2
ACJISTGL
 70
     0
  3
_ _ _ _ _
 72
    65
 73
     2
 40
3.0
 49
2.0
 74
     0
 49
-1.0
 74
     0
  0
LTYPE
  5
26A
330
E
100
AcDbSymbolTableRecord
100
AcDbLinetypeTableRecord
  2
ACANSTGB
 70
     0
  3
__ . . __ . .
 72
    65
 73
     6
 40
0.35433070866
 49
0.15748031496
 74
     0
 49
-0.03937007874
 74
     0
 49
0.03937007874
 74
     0
 49
-0.03937007874
 74
     0
 49
0.03937007874
 74
     0
 49
-0.03937007874
 74
     0
  0
LTYPE
  5
26B
330
E
100
AcDbSymbolTableRecord
100
AcDbLinetypeTableRecord
  2
ACANSTGL
 70
     0
  3
_ _ _ _ _
 72
    65
 73
     2
 40
0.11811023622
 49
0.07874015748
 74
     0
 49
-0.03937007874
 74
     0
  0
LTYPE
  5
26E
330
E
100
AcDbSymbolTableRecord
100
AcDbLinetypeTableRecord
  2
ACBSIWELD
 70
     0
  3
_ _ _ _ _
 72
    65
 73
     2
 40
2.0
 49
2.0
 74
     0
 49
-1.0
 74
     0
  0
LTYPE
  5
26F
330
E
100
AcDbSymbolTableRecord
100
AcDbLinetypeTableRecord
  2
ACBSITGB
 70
     0
  3
__ . . __ . .
 72
    65
 73
     6
 40
9.0
 49
4.0
 74
     0
 49
-1.0
 74
     0
 49
1.0
 74
     0
 49
-1.0
 74
     0
 49
1.0
 74
     0
 49
-1.0
 74
     0
  0
LTYPE
  5
270
330
E
100
AcDbSymbolTableRecord
100
AcDbLinetypeTableRecord
  2
ACBSITGL
 70
     0
  3
_ _ _ _ _
 72
    65
 73
     2
 40
3.0
 49
2.0
 74
     0
 49
-1.0
 74
     0
  0
LTYPE
  5
273
330
E
100
AcDbSymbolTableRecord
100
AcDbLinetypeTableRecord
  2
ACDINWELD
 70
     0
  3
_ _ _ _ _
 72
    65
 73
     2
 40
2.0
 49
2.0
 74
     0
 49
-1.0
 74
     0
  0
LTYPE
  5
274
330
E
100
AcDbSymbolTableRecord
100
AcDbLinetypeTableRecord
  2
ACDINTGB
 70
     0
  3
__ . . __ . .
 72
    65
 73
     6
 40
9.0
 49
4.0
 74
     0
 49
-1.0
 74
     0
 49
1.0
 74
     0
 49
-1.0
 74
     0
 49
1.0
 74
     0
 49
-1.0
 74
     0
  0
LTYPE
  5
275
330
E
100
AcDbSymbolTableRecord
100
AcDbLinetypeTableRecord
  2
ACDINTGL
 70
     0
  3
_ _ _ _ _
 72
    65
 73
     2
 40
3.0
 49
2.0
 74
     0
 49
-1.0
 74
     0
  0
LTYPE
  5
278
330
E
100
AcDbSymbolTableRecord
100
AcDbLinetypeTableRecord
  2
ACISOWELD
 70
     0
  3
_ _ _ _ _
 72
    65
 73
     2
 40
2.0
 49
2.0
 74
     0
 49
-1.0
 74
     0
  0
LTYPE
  5
279
330
E
100
AcDbSymbolTableRecord
100
AcDbLinetypeTableRecord
  2
ACISOTGB
 70
     0
  3
__ . . __ . .
 72
    65
 73
     6
 40
9.0
 49
4.0
 74
     0
 49
-1.0
 74
     0
 49
1.0
 74
     0
 49
-1.0
 74
     0
 49
1.0
 74
     0
 49
-1.0
 74
     0
  0
LTYPE
  5
27A
330
E
100
AcDbSymbolTableRecord
100
AcDbLinetypeTableRecord
  2
ACISOTGL
 70
     0
  3
_ _ _ _ _
 72
    65
 73
     2
 40
3.0
 49
2.0
 74
     0
 49
-1.0
 74
     0
  0
LTYPE
  5
2B3
330
E
100
AcDbSymbolTableRecord
100
AcDbLinetypeTableRecord
  2
Amconstr
 70
     0
  3
_______________________
 72
    65
 73
     2
 40
9999.0
 49
9999.0
 74
     0
 49
0.0
 74
     0
  0
LTYPE
  5
2B9
330
E
100
AcDbSymbolTableRecord
100
AcDbLinetypeTableRecord
  2
PHANTOM2
 70
     0
  3
Phantom (.5x) ___ _ _ ___ _ _ ___ _ _ ___ _ _
 72
    65
 73
     6
 40
1.25
 49
0.625
 74
     0
 49
-0.125
 74
     0
 49
0.125
 74
     0
 49
-0.125
 74
     0
 49
0.125
 74
     0
 49
-0.125
 74
     0
  0
LTYPE
  5
2BA
330
E
100
AcDbSymbolTableRecord
100
AcDbLinetypeTableRecord
  2
Amzigzag2
 70
     0
  3
/\/-/\/-/\/-/\/-/\/-/\/
 72
    65
 73
     2
 40
0.4401
 49
0.0001
 74
     4
 75
   135
340
2B7
 46
0.0016
 50
0.0
 44
0.0
 45
0.0
 49
-0.4400000000000001
 74
     0
  0
LTYPE
  5
321
330
E
100
AcDbSymbolTableRecord
100
AcDbLinetypeTableRecord
  2
HIDDEN
 70
     0
  3
Verdeckt
 72
    65
 73
     2
 40
0.375
 49
0.25
 74
     0
 49
-0.125
 74
     0
  0
LTYPE
  5
322
330
E
100
AcDbSymbolTableRecord
100
AcDbLinetypeTableRecord
  2
CENTER
 70
     0
  3
Mitte ____ _ ____ _ ____ _ ____ _ ____ _ ____
 72
    65
 73
     4
 40
2.0
 49
1.25
 74
     0
 49
-0.25
 74
     0
 49
0.25
 74
     0
 49
-0.25
 74
     0
  0
ENDTAB
  0
TABLE
  2
LAYER
  5
B
330
0
100
AcDbSymbolTable
 70
     5
  0
LAYER
  5
5
102
{ACAD_XDICTIONARY
360
4C7
102
}
330
B
100
AcDbSymbolTableRecord
100
AcDbLayerTableRecord
  2
0
 70
     0
 62
     7
  6
CONTINUOUS
370
    -3
390
288
  0
LAYER
  5
1F
102
{ACAD_XDICTIONARY
360
4C9
102
}
330
B
100
AcDbSymbolTableRecord
100
AcDbLayerTableRecord
  2
BEM
 70
     0
 62
     1
  6
CONTINUOUS
370
    -3
390
288
  0
LAYER
  5
38
102
{ACAD_XDICTIONARY
360
4CB
102
}
330
B
100
AcDbSymbolTableRecord
100
AcDbLayerTableRecord
  2
MITTE
 70
     0
 62
     6
  6
MITTE
370
    -3
390
288
  0
LAYER
  5
7E
102
{ACAD_XDICTIONARY
360
4CD
102
}
330
B
100
AcDbSymbolTableRecord
100
AcDbLayerTableRecord
  2
LINIE
 70
     0
 62
     6
  6
CONTINUOUS
370
    -3
390
288
  0
LAYER
  5
28
330
B
100
AcDbSymbolTableRecord
100
AcDbLayerTableRecord
  2
Defpoints
 70
     0
 62
     7
  6
CONTINUOUS
290
     0
370
    -3
390
288
  0
ENDTAB
  0
TABLE
  2
STYLE
  5
C
330
0
100
AcDbSymbolTable
 70
    12
  0
STYLE
  5
D
330
C
100
AcDbSymbolTableRecord
100
AcDbTextStyleTableRecord
  2
STANDARD
 70
     0
 40
0.0
 41
1.0
 50
0.0
 71
     0
 42
10.0
  3
romans.shx
  4

  0
STYLE
  5
264
330
C
100
AcDbSymbolTableRecord
100
AcDbTextStyleTableRecord
  2
ACJISTS
 70
     0
 40
1.0
 41
1.0
 50
0.0
 71
     0
 42
10.0
  3
isocp.shx
  4
bigfont.shx
  0
STYLE
  5
265
330
C
100
AcDbSymbolTableRecord
100
AcDbTextStyleTableRecord
  2
ACJISGDT
 70
     0
 40
0.0
 41
1.0
 50
0.0
 71
     0
 42
10.0
  3
amgdt.shx
  4

  0
STYLE
  5
268
330
C
100
AcDbSymbolTableRecord
100
AcDbTextStyleTableRecord
  2
ACANSTSB
 70
     0
 40
1.0
 41
1.0
 50
0.0
 71
     0
 42
10.0
  3
romans.shx
  4

  0
STYLE
  5
269
330
C
100
AcDbSymbolTableRecord
100
AcDbTextStyleTableRecord
  2
ACANSGDT
 70
     0
 40
0.0
 41
1.0
 50
0.0
 71
     0
 42
10.0
  3
amgdt.shx
  4

  0
STYLE
  5
26C
330
C
100
AcDbSymbolTableRecord
100
AcDbTextStyleTableRecord
  2
ACBSITS
 70
     0
 40
1.0
 41
1.0
 50
0.0
 71
     0
 42
10.0
  3
isocp.shx
  4

  0
STYLE
  5
26D
330
C
100
AcDbSymbolTableRecord
100
AcDbTextStyleTableRecord
  2
ACBSIGDT
 70
     0
 40
0.0
 41
1.0
 50
0.0
 71
     0
 42
10.0
  3
amgdt.shx
  4

  0
STYLE
  5
271
330
C
100
AcDbSymbolTableRecord
100
AcDbTextStyleTableRecord
  2
ACDINTS
 70
     0
 40
1.0
 41
1.0
 50
0.0
 71
     0
 42
10.0
  3
isocp.shx
  4

  0
STYLE
  5
272
330
C
100
AcDbSymbolTableRecord
100
AcDbTextStyleTableRecord
  2
ACDINGDT
 70
     0
 40
0.0
 41
1.0
 50
0.0
 71
     0
 42
10.0
  3
amgdt.shx
  4

  0
STYLE
  5
276
330
C
100
AcDbSymbolTableRecord
100
AcDbTextStyleTableRecord
  2
ACISOTS
 70
     0
 40
1.0
 41
1.0
 50
0.0
 71
     0
 42
10.0
  3
isocp.shx
  4

  0
STYLE
  5
277
330
C
100
AcDbSymbolTableRecord
100
AcDbTextStyleTableRecord
  2
ACISOGDT
 70
     0
 40
0.0
 41
1.0
 50
0.0
 71
     0
 42
10.0
  3
amgdt.shx
  4

  0
STYLE
  5
2B7
330
C
100
AcDbSymbolTableRecord
100
AcDbTextStyleTableRecord
  2

 70
     1
 40
0.0
 41
1.0
 50
0.0
 71
     0
 42
10.0
  3
ltypeshp.shx
  4

  0
ENDTAB
  0
TABLE
  2
VIEW
  5
11
330
0
100
AcDbSymbolTable
 70
     0
  0
ENDTAB
  0
TABLE
  2
UCS
  5
12
330
0
100
AcDbSymbolTable
 70
     0
  0
ENDTAB
  0
TABLE
  2
APPID
  5
15
330
0
100
AcDbSymbolTable
 70
    11
  0
APPID
  5
16
330
15
100
AcDbSymbolTableRecord
100
AcDbRegAppTableRecord
  2
ACAD
 70
     0
  0
APPID
  5
231
330
15
100
AcDbSymbolTableRecord
100
AcDbRegAppTableRecord
  2
MCAD_NO_VIS
 70
     0
  0
APPID
  5
297
330
15
100
AcDbSymbolTableRecord
100
AcDbRegAppTableRecord
  2
ACAD_TEMP_GRAPHIC
 70
     0
  0
APPID
  5
337
330
15
100
AcDbSymbolTableRecord
100
AcDbRegAppTableRecord
  2
AD_DRAW
 70
     0
  0
APPID
  5
33A
330
15
100
AcDbSymbolTableRecord
100
AcDbRegAppTableRecord
  2
ACATTRIBSERVICES
 70
     0
  0
APPID
  5
358
330
15
100
AcDbSymbolTableRecord
100
AcDbRegAppTableRecord
  2
DESIGNERASSEMBLIES
 70
     0
  0
APPID
  5
3CB
330
15
100
AcDbSymbolTableRecord
100
AcDbRegAppTableRecord
  2
ACADM_DIM_EDIT
 70
     0
  0
APPID
  5
3CC
330
15
100
AcDbSymbolTableRecord
100
AcDbRegAppTableRecord
  2
AMDT_DM_ADJ
 70
     0
  0
APPID
  5
42F
330
15
100
AcDbSymbolTableRecord
100
AcDbRegAppTableRecord
  2
ACAD_PSEXT
 70
     0
  0
APPID
  5
4A7
330
15
100
AcDbSymbolTableRecord
100
AcDbRegAppTableRecord
  2
ACAD_MLEADERVER
 70
     0
  0
APPID
  5
4DA
330
15
100
AcDbSymbolTableRecord
100
AcDbRegAppTableRecord
  2
DCO15
 70
     0
  0
ENDTAB
  0
TABLE
  2
DIMSTYLE
  5
17
330
0
100
AcDbSymbolTable
 70
    36
100
AcDbDimStyleTable
 71
     1
340
1D
  0
DIMSTYLE
105
1D
330
17
100
AcDbSymbolTableRecord
100
AcDbDimStyleTableRecord
  2
ISO-25
 70
     0
 41
7.0
 42
0.0
 43
7.0
 44
1.25
 73
     0
 74
     0
 77
     1
 78
     8
140
10.0
141
0.0
144
0.5
147
4.0
172
     1
176
   256
177
   256
178
   256
284
     8
288
     1
340
D
  0
DIMSTYLE
105
12B
330
17
100
AcDbSymbolTableRecord
100
AcDbDimStyleTableRecord
  2
STANDARD
 70
     0
  4
"
 41
7.0
 42
0.0
 43
7.0
 44
1.25
 47
0.1
 48
0.1
 73
     0
 74
     0
 77
     1
 78
     8
140
10.0
141
0.0
143
0.0393701
144
0.5
147
4.0
172
     1
176
   256
177
   256
178
   256
271
     2
272
     3
274
     4
283
     0
284
     8
288
     1
340
D
  0
DIMSTYLE
105
393
330
17
100
AcDbSymbolTableRecord
100
AcDbDimStyleTableRecord
  2
AM_ANSI
 70
     0
  4
mm
 41
0.1
 42
0.05
 43
0.5
 44
0.1
 47
0.1
 48
0.1
 78
     7
 79
     2
140
0.12
141
0.0
146
0.71
147
0.06
176
   256
177
   256
178
     2
274
     4
284
     7
340
D
371
    -1
372
    -1
  0
DIMSTYLE
105
394
330
17
100
AcDbSymbolTableRecord
100
AcDbDimStyleTableRecord
  2
AM_ANSI$3
 70
     0
  4
mm
 41
0.1
 42
0.05
 43
0.5
 44
0.1
 47
0.1
 48
0.1
 78
     7
 79
     2
140
0.12
141
0.0
146
0.71
147
0.06
176
   256
177
   256
178
     2
274
     4
284
     7
288
     1
289
     0
340
D
371
    -1
372
    -1
  0
DIMSTYLE
105
395
330
17
100
AcDbSymbolTableRecord
100
AcDbDimStyleTableRecord
  2
AM_ANSI$4
 70
     0
  4
mm
 41
0.1
 42
0.05
 43
0.5
 44
0.1
 47
0.1
 48
0.1
 78
     7
 79
     2
140
0.12
141
0.0
146
0.71
147
0.06
176
   256
177
   256
178
     2
274
     4
284
     7
288
     1
289
     0
340
D
371
    -1
372
    -1
  0
DIMSTYLE
105
396
330
17
100
AcDbSymbolTableRecord
100
AcDbDimStyleTableRecord
  2
AM_ANSI$7
 70
     0
  4
mm
 41
0.1
 42
0.05
 43
0.5
 44
0.1
 47
0.1
 48
0.1
 78
     7
 79
     2
140
0.24
141
0.0
146
0.71
147
0.06
176
   256
177
   256
178
     2
274
     4
284
     7
340
D
371
    -1
372
    -1
  0
DIMSTYLE
105
397
330
17
100
AcDbSymbolTableRecord
100
AcDbDimStyleTableRecord
  2
AM_ANSI$SF
 70
     0
  4
mm
 41
0.1
 42
0.05
 43
0.5
 44
0.1
 47
0.1
 48
0.1
 75
     1
 76
     1
 78
     7
 79
     2
140
0.12
141
0.0
146
0.71
147
0.06
176
   256
177
   256
178
     2
274
     4
284
     7
340
D
371
    -1
372
    -1
  0
DIMSTYLE
105
39C
330
17
100
AcDbSymbolTableRecord
100
AcDbDimStyleTableRecord
  2
AM_ANSI$SH
 70
     0
  4
mm
 41
0.1
 42
0.05
 43
0.5
 44
0.1
 47
0.1
 48
0.1
 75
     1
 76
     1
 78
     7
 79
     2
140
0.12
141
0.0
146
0.71
147
0.06
173
     1
176
   256
177
   256
178
     2
274
     4
284
     7
340
D
343
398
371
    -1
372
    -1
  0
DIMSTYLE
105
39F
330
17
100
AcDbSymbolTableRecord
100
AcDbDimStyleTableRecord
  2
AM_BSI
 70
     0
  4
mm
 41
0.1574803149606299
 42
0.05
 43
0.5
 44
0.1
 47
0.1
 48
0.1
 73
     0
 74
     0
 77
     1
 78
     7
 79
     2
140
0.12
141
0.0
146
0.71
147
0.06
172
     1
176
   256
177
   256
178
     2
274
     4
283
     0
284
     7
340
D
371
    -1
372
    -1
  0
DIMSTYLE
105
3A0
330
17
100
AcDbSymbolTableRecord
100
AcDbDimStyleTableRecord
  2
AM_BSI$3
 70
     0
  4
mm
 41
0.1574803149606299
 42
0.05
 43
0.5
 44
0.1
 47
0.1
 48
0.1
 73
     0
 77
     1
 78
     7
 79
     2
140
0.12
141
0.0
146
0.71
147
0.06
176
   256
177
   256
178
     2
274
     4
283
     0
284
     7
288
     1
289
     0
340
D
371
    -1
372
    -1
  0
DIMSTYLE
105
3A1
330
17
100
AcDbSymbolTableRecord
100
AcDbDimStyleTableRecord
  2
AM_BSI$4
 70
     0
  4
mm
 41
0.1574803149606299
 42
0.05
 43
0.5
 44
0.1
 47
0.1
 48
0.1
 73
     0
 77
     1
 78
     7
 79
     2
140
0.12
141
0.0
146
0.71
147
0.06
176
   256
177
   256
178
     2
274
     4
283
     0
284
     7
288
     1
289
     0
340
D
371
    -1
372
    -1
  0
DIMSTYLE
105
3A2
330
17
100
AcDbSymbolTableRecord
100
AcDbDimStyleTableRecord
  2
AM_BSI$6
 70
     0
  4
mm
 41
0.1574803149606299
 42
0.05
 43
0.5
 44
0.1
 47
0.1
 48
0.1
 73
     0
 74
     0
 78
     7
 79
     2
140
0.12
141
0.0
146
0.71
147
0.06
172
     1
176
   256
177
   256
178
     2
274
     4
283
     0
284
     7
340
D
371
    -1
372
    -1
  0
DIMSTYLE
105
3A3
330
17
100
AcDbSymbolTableRecord
100
AcDbDimStyleTableRecord
  2
AM_BSI$7
 70
     0
  4
mm
 41
0.1
 42
0.05
 43
0.5
 44
0.1
 47
0.1
 48
0.1
 73
     0
 74
     0
 77
     1
 78
     7
 79
     2
140
0.24
141
0.0
146
0.71
147
0.06
172
     1
176
   256
177
   256
178
     2
274
     4
283
     0
284
     7
340
D
371
    -1
372
    -1
  0
DIMSTYLE
105
3A4
330
17
100
AcDbSymbolTableRecord
100
AcDbDimStyleTableRecord
  2
AM_BSI$SF
 70
     0
  4
mm
 41
0.1574803149606299
 42
0.05
 43
0.5
 44
0.1
 47
0.1
 48
0.1
 73
     0
 74
     0
 75
     1
 76
     1
 77
     1
 78
     7
 79
     2
140
0.12
141
0.0
146
0.71
147
0.06
172
     1
176
   256
177
   256
178
     2
274
     4
283
     0
284
     7
340
D
371
    -1
372
    -1
  0
DIMSTYLE
105
3A5
330
17
100
AcDbSymbolTableRecord
100
AcDbDimStyleTableRecord
  2
AM_BSI$SH
 70
     0
  4
mm
 41
0.1574803149606299
 42
0.05
 43
0.5
 44
0.1
 47
0.1
 48
0.1
 73
     0
 74
     0
 75
     1
 76
     1
 77
     1
 78
     7
 79
     2
140
0.12
141
0.0
144
2.0
146
0.71
147
0.06
172
     1
173
     1
176
   256
177
   256
178
     2
274
     4
283
     0
284
     7
340
D
343
398
371
    -1
372
    -1
  0
DIMSTYLE
105
3A8
330
17
100
AcDbSymbolTableRecord
100
AcDbDimStyleTableRecord
  2
AM_DIN
 70
     0
  4
mm
 41
0.1
 42
0.05
 43
0.5
 44
0.1
 47
0.1
 48
0.1
 73
     0
 74
     0
 77
     1
 78
     7
 79
     2
140
0.12
141
0.0
146
0.71
147
0.06
172
     1
176
   256
177
   256
178
     2
274
     4
283
     0
284
     7
340
D
371
    -1
372
    -1
  0
DIMSTYLE
105
3A9
330
17
100
AcDbSymbolTableRecord
100
AcDbDimStyleTableRecord
  2
AM_DIN$3
 70
     0
  4
mm
 41
0.1
 42
0.05
 43
0.5
 44
0.1
 47
0.1
 48
0.1
 73
     0
 77
     1
 78
     7
 79
     2
140
0.12
141
0.0
146
0.71
147
0.06
176
   256
177
   256
178
     2
274
     4
283
     0
284
     7
288
     1
289
     0
340
D
371
    -1
372
    -1
  0
DIMSTYLE
105
3AA
330
17
100
AcDbSymbolTableRecord
100
AcDbDimStyleTableRecord
  2
AM_DIN$4
 70
     0
  4
mm
 41
0.1
 42
0.05
 43
0.5
 44
0.1
 47
0.1
 48
0.1
 73
     0
 77
     1
 78
     7
 79
     2
140
0.12
141
0.0
146
0.71
147
0.06
176
   256
177
   256
178
     2
274
     4
283
     0
284
     7
288
     1
289
     0
340
D
371
    -1
372
    -1
  0
DIMSTYLE
105
3AB
330
17
100
AcDbSymbolTableRecord
100
AcDbDimStyleTableRecord
  2
AM_DIN$6
 70
     0
  4
mm
 41
0.1
 42
0.05
 43
0.5
 44
0.1
 47
0.1
 48
0.1
 73
     0
 74
     0
 78
     7
 79
     2
140
0.12
141
0.0
146
0.71
147
0.06
172
     1
176
   256
177
   256
178
     2
274
     4
283
     0
284
     7
340
D
371
    -1
372
    -1
  0
DIMSTYLE
105
3AC
330
17
100
AcDbSymbolTableRecord
100
AcDbDimStyleTableRecord
  2
AM_DIN$7
 70
     0
  4
mm
 41
0.1
 42
0.05
 43
0.5
 44
0.1
 47
0.1
 48
0.1
 73
     0
 74
     0
 77
     1
 78
     7
 79
     2
140
0.24
141
0.0
146
0.71
147
0.06
172
     1
176
   256
177
   256
178
     2
274
     4
283
     0
284
     7
340
D
371
    -1
372
    -1
  0
DIMSTYLE
105
3AD
330
17
100
AcDbSymbolTableRecord
100
AcDbDimStyleTableRecord
  2
AM_DIN$SF
 70
     0
  4
mm
 41
0.1
 42
0.05
 43
0.5
 44
0.1
 47
0.1
 48
0.1
 73
     0
 74
     0
 75
     1
 76
     1
 77
     1
 78
     7
 79
     2
140
0.12
141
0.0
146
0.71
147
0.06
172
     1
176
   256
177
   256
178
     2
274
     4
283
     0
284
     7
340
D
371
    -1
372
    -1
  0
DIMSTYLE
105
3AE
330
17
100
AcDbSymbolTableRecord
100
AcDbDimStyleTableRecord
  2
AM_DIN$SH
 70
     0
  4
mm
 41
0.1
 42
0.05
 43
0.5
 44
0.1
 47
0.1
 48
0.1
 73
     0
 74
     0
 75
     1
 76
     1
 77
     1
 78
     7
 79
     2
140
0.12
141
0.0
144
2.0
146
0.71
147
0.06
172
     1
173
     1
176
   256
177
   256
178
     2
274
     4
283
     0
284
     7
340
D
343
398
371
    -1
372
    -1
  0
DIMSTYLE
105
3B1
330
17
100
AcDbSymbolTableRecord
100
AcDbDimStyleTableRecord
  2
AM_ISO
 70
     0
  4
mm
 41
0.1
 42
0.05
 43
0.5
 44
0.1
 47
0.1
 48
0.1
 73
     0
 74
     0
 77
     1
 78
     7
 79
     2
140
0.12
141
0.0
146
0.71
147
0.06
172
     1
176
   256
177
   256
178
     2
274
     4
283
     0
284
     7
340
D
371
    -1
372
    -1
  0
DIMSTYLE
105
3B2
330
17
100
AcDbSymbolTableRecord
100
AcDbDimStyleTableRecord
  2
AM_ISO$3
 70
     0
  4
mm
 41
0.1
 42
0.05
 43
0.5
 44
0.1
 47
0.1
 48
0.1
 73
     0
 77
     1
 78
     7
 79
     2
140
0.12
141
0.0
146
0.71
147
0.06
176
   256
177
   256
178
     2
274
     4
283
     0
284
     7
288
     1
289
     0
340
D
371
    -1
372
    -1
  0
DIMSTYLE
105
3B3
330
17
100
AcDbSymbolTableRecord
100
AcDbDimStyleTableRecord
  2
AM_ISO$4
 70
     0
  4
mm
 41
0.1
 42
0.05
 43
0.5
 44
0.1
 47
0.1
 48
0.1
 73
     0
 77
     1
 78
     7
 79
     2
140
0.12
141
0.0
146
0.71
147
0.06
176
   256
177
   256
178
     2
274
     4
283
     0
284
     7
288
     1
289
     0
340
D
371
    -1
372
    -1
  0
DIMSTYLE
105
3B4
330
17
100
AcDbSymbolTableRecord
100
AcDbDimStyleTableRecord
  2
AM_ISO$6
 70
     0
  4
mm
 41
0.1
 42
0.05
 43
0.5
 44
0.1
 47
0.1
 48
0.1
 73
     0
 74
     0
 78
     7
 79
     2
140
0.12
141
0.0
146
0.71
147
0.06
172
     1
176
   256
177
   256
178
     2
274
     4
283
     0
284
     7
340
D
371
    -1
372
    -1
  0
DIMSTYLE
105
3B5
330
17
100
AcDbSymbolTableRecord
100
AcDbDimStyleTableRecord
  2
AM_ISO$7
 70
     0
  4
mm
 41
0.1
 42
0.05
 43
0.5
 44
0.1
 47
0.1
 48
0.1
 73
     0
 74
     0
 77
     1
 78
     7
 79
     2
140
0.24
141
0.0
146
0.71
147
0.06
172
     1
176
   256
177
   256
178
     2
274
     4
283
     0
284
     7
340
D
371
    -1
372
    -1
  0
DIMSTYLE
105
3B6
330
17
100
AcDbSymbolTableRecord
100
AcDbDimStyleTableRecord
  2
AM_ISO$SF
 70
     0
  4
mm
 41
0.1
 42
0.05
 43
0.5
 44
0.1
 47
0.1
 48
0.1
 73
     0
 74
     0
 75
     1
 76
     1
 77
     1
 78
     7
 79
     2
140
0.12
141
0.0
146
0.71
147
0.06
172
     1
176
   256
177
   256
178
     2
274
     4
283
     0
284
     7
340
D
371
    -1
372
    -1
  0
DIMSTYLE
105
3B7
330
17
100
AcDbSymbolTableRecord
100
AcDbDimStyleTableRecord
  2
AM_ISO$SH
 70
     0
  4
mm
 41
0.1
 42
0.05
 43
0.5
 44
0.1
 47
0.1
 48
0.1
 73
     0
 74
     0
 75
     1
 76
     1
 77
     1
 78
     7
 79
     2
140
0.12
141
0.0
144
2.0
146
0.71
147
0.06
172
     1
173
     1
176
   256
177
   256
178
     2
274
     4
283
     0
284
     7
340
D
343
398
371
    -1
372
    -1
  0
DIMSTYLE
105
3BA
330
17
100
AcDbSymbolTableRecord
100
AcDbDimStyleTableRecord
  2
AM_JIS
 70
     0
  4
mm
 41
0.1
 42
0.05
 43
0.5
 44
0.1
 47
0.1
 48
0.1
 73
     0
 74
     0
 77
     3
 78
     7
 79
     2
140
0.12
141
0.0
146
0.71
147
0.06
172
     1
176
   256
177
   256
178
     2
274
     4
283
     0
284
     7
340
D
341
3BB
342
3BB
343
3BB
344
3BB
371
    -1
372
    -1
  0
DIMSTYLE
105
3C1
330
17
100
AcDbSymbolTableRecord
100
AcDbDimStyleTableRecord
  2
AM_JIS$3
 70
     0
  4
mm
 41
0.1
 42
0.05
 43
0.5
 44
0.1
 47
0.1
 48
0.1
 73
     0
 77
     3
 78
     7
 79
     2
140
0.12
141
0.0
146
0.71
147
0.06
176
   256
177
   256
178
     2
274
     4
283
     0
284
     7
288
     1
289
     0
340
D
341
3BB
342
3BB
343
3BB
344
3BB
371
    -1
372
    -1
  0
DIMSTYLE
105
3C2
330
17
100
AcDbSymbolTableRecord
100
AcDbDimStyleTableRecord
  2
AM_JIS$4
 70
     0
  4
mm
 41
0.1
 42
0.05
 43
0.5
 44
0.1
 47
0.1
 48
0.1
 73
     0
 77
     3
 78
     7
 79
     2
140
0.12
141
0.0
146
0.71
147
0.06
176
   256
177
   256
178
     2
274
     4
283
     0
284
     7
288
     1
289
     0
340
D
341
3BB
342
3BB
343
3BB
344
3BB
371
    -1
372
    -1
  0
DIMSTYLE
105
3C3
330
17
100
AcDbSymbolTableRecord
100
AcDbDimStyleTableRecord
  2
AM_JIS$6
 70
     0
  4
mm
 41
0.1
 42
0.05
 43
0.5
 44
0.1
 47
0.1
 48
0.1
 73
     0
 74
     0
 78
     7
 79
     2
140
0.12
141
0.0
146
0.71
147
0.06
172
     1
176
   256
177
   256
178
     2
274
     4
283
     0
284
     7
340
D
341
3BB
342
3BB
343
3BB
344
3BB
371
    -1
372
    -1
  0
DIMSTYLE
105
3C4
330
17
100
AcDbSymbolTableRecord
100
AcDbDimStyleTableRecord
  2
AM_JIS$7
 70
     0
  4
mm
 41
0.1
 42
0.05
 43
0.5
 44
0.1
 47
0.1
 48
0.1
 73
     0
 74
     0
 77
     3
 78
     7
 79
     2
140
0.24
141
0.0
146
0.71
147
0.06
172
     1
176
   256
177
   256
178
     2
274
     4
283
     0
284
     7
340
D
341
3BB
342
3BB
343
3BB
344
3BB
371
    -1
372
    -1
  0
DIMSTYLE
105
3C5
330
17
100
AcDbSymbolTableRecord
100
AcDbDimStyleTableRecord
  2
AM_JIS$SF
 70
     0
  4
mm
 41
0.1
 42
0.05
 43
0.5
 44
0.1
 47
0.1
 48
0.1
 73
     0
 74
     0
 75
     1
 76
     1
 77
     3
 78
     7
 79
     2
140
0.12
141
0.0
146
0.71
147
0.06
172
     1
176
   256
177
   256
178
     2
274
     4
283
     0
284
     7
340
D
341
3BB
342
3BB
343
3BB
344
3BB
371
    -1
372
    -1
  0
DIMSTYLE
105
3C6
330
17
100
AcDbSymbolTableRecord
100
AcDbDimStyleTableRecord
  2
AM_JIS$SH
 70
     0
  4
mm
 41
0.1
 42
0.05
 43
0.5
 44
0.1
 47
0.1
 48
0.1
 73
     0
 74
     0
 75
     1
 76
     1
 77
     3
 78
     7
 79
     2
140
0.12
141
0.0
144
2.0
146
0.71
147
0.06
172
     1
173
     1
176
   256
177
   256
178
     2
274
     4
283
     0
284
     7
340
D
341
3BB
342
3BB
343
398
344
3BB
371
    -1
372
    -1
  0
ENDTAB
  0
TABLE
  2
BLOCK_RECORD
  5
1
330
0
100
AcDbSymbolTable
 70
    22
  0
BLOCK_RECORD
  5
2
102
{ACAD_XDICTIONARY
360
3
102
}
330
1
100
AcDbSymbolTableRecord
100
AcDbBlockTableRecord
  2
*MODEL_SPACE
340
28B
  0
BLOCK_RECORD
  5
8
330
1
100
AcDbSymbolTableRecord
100
AcDbBlockTableRecord
  2
*PAPER_SPACE
340
28C
  0
BLOCK_RECORD
  5
398
330
1
100
AcDbSymbolTableRecord
100
AcDbBlockTableRecord
  2
GENAXEH
340
0
  0
BLOCK_RECORD
  5
3BB
330
1
100
AcDbSymbolTableRecord
100
AcDbBlockTableRecord
  2
_Open30
340
0
  0
ENDTAB
  0
ENDSEC
  0
SECTION
  2
BLOCKS
  0
BLOCK
  5
4
330
2
100
AcDbEntity
  8
0
100
AcDbBlockBegin
  2
*MODEL_SPACE
 70
     0
 10
0.0
 20
0.0
 30
0.0
  3
*MODEL_SPACE
  1

  0
ENDBLK
  5
7
330
2
100
AcDbEntity
  8
0
100
AcDbBlockEnd
  0
BLOCK
  5
9
330
8
100
AcDbEntity
 67
     1
  8
0
100
AcDbBlockBegin
  2
*PAPER_SPACE
 70
     0
 10
0.0
 20
0.0
 30
0.0
  3
*PAPER_SPACE
  1

  0
ENDBLK
  5
A
330
8
100
AcDbEntity
 67
     1
  8
0
100
AcDbBlockEnd
  0
BLOCK
  5
39A
330
398
100
AcDbEntity
  8
0
 48
10.0
100
AcDbBlockBegin
  2
GENAXEH
 70
     0
 10
0.0
 20
0.0
 30
0.0
  3
GENAXEH
  1

  0
LINE
  5
399
330
398
100
AcDbEntity
  8
0
100
AcDbLine
 10
-1.0
 20
0.0
 30
0.0
 11
1.0
 21
0.0
 31
0.0
  0
ENDBLK
  5
39B
330
398
100
AcDbEntity
  8
0
 48
10.0
100
AcDbBlockEnd
  0
BLOCK
  5
3BF
330
3BB
100
AcDbEntity
  8
0
 48
10.0
100
AcDbBlockBegin
  2
_Open30
 70
     0
 10
0.0
 20
0.0
 30
0.0
  3
_Open30
  1

  0
LINE
  5
3BC
330
3BB
100
AcDbEntity
  8
0
  6
ByBlock
 62
     0
370
    -2
100
AcDbLine
 10
-1.0
 20
0.26794919
 30
0.0
 11
0.0
 21
0.0
 31
0.0
  0
LINE
  5
3BD
330
3BB
100
AcDbEntity
  8
0
  6
ByBlock
 62
     0
370
    -2
100
AcDbLine
 10
0.0
 20
0.0
 30
0.0
 11
-1.0
 21
-0.26794919
 31
0.0
  0
LINE
  5
3BE
330
3BB
100
AcDbEntity
  8
0
  6
ByBlock
 62
     0
370
    -2
100
AcDbLine
 10
0.0
 20
0.0
 30
0.0
 11
-1.0
 21
0.0
 31
0.0
  0
ENDBLK
  5
3C0
330
3BB
100
AcDbEntity
  8
0
 48
10.0
100
AcDbBlockEnd
  0
ENDSEC
  0
SECTION
  2
ENTITIES
  0
LINE
  5
30
330
2
100
AcDbEntity
  8
0
100
AcDbLine
 10
457.3760554171837
 20
381.1879753323426
 30
0.0
 11
427.3640211844658
 21
381.1879753323426
 31
0.0
  0
LINE
  5
31
330
2
100
AcDbEntity
  8
0
100
AcDbLine
 10
457.3760554171837
 20
373.1879753323426
 30
0.0
 11
427.3640211844658
 21
373.1879753323426
 31
0.0
  0
LINE
  5
32
330
2
100
AcDbEntity
  8
0
100
AcDbLine
 10
426.8491315031323
 20
326.105777606092
 30
0.0
 11
465.588616162179
 21
334.2592009308485
 31
0.0
  0
LINE
  5
33
330
2
100
AcDbEntity
  8
0
100
AcDbLine
 10
427.3640211844657
 20
405.6879753323431
 30
0.0
 11
456.3640211844658
 21
405.6879753323427
 31
0.0
1001
ACAD
1000
ASC_BOUNDS
1002
{
1070
    19
1005
0
1002
}
  0
LINE
  5
34
330
2
100
AcDbEntity
  8
0
100
AcDbLine
 10
435.3640211844657
 20
407.6879753323427
 30
0.0
 11
450.3640211844658
 21
407.6879753323427
 31
0.0
  0
LINE
  5
35
330
2
100
AcDbEntity
  8
0
100
AcDbLine
 10
452.2133860898549
 20
425.6879753323426
 30
0.0
 11
427.3640211844658
 21
425.6879753323426
 31
0.0
  0
LINE
  5
36
330
2
100
AcDbEntity
  8
0
100
AcDbLine
 10
427.3640211844658
 20
345.6879753323426
 30
0.0
 11
456.454347538475
 21
345.6879753323426
 31
0.0
1001
ACAD
1000
ASC_BOUNDS
1002
{
1070
    19
1005
0
1002
}
  0
LINE
  5
37
330
2
100
AcDbEntity
  8
MITTE
 48
10.0
100
AcDbLine
 10
364.6484180389391
 20
375.6879753323426
 30
0.0
 11
502.3256703914057
 21
375.6879753323426
 31
0.0
  0
LINE
  5
70
330
2
100
AcDbEntity
  8
0
100
AcDbLine
 10
424.8640211844658
 20
430.6879753323426
 30
0.0
 11
424.8640211844658
 21
320.6879753323426
 31
0.0
1001
ACAD
1000
ASC_BOUNDS
1002
{
1070
    19
1005
0
1002
}
  0
LINE
  5
71
330
2
100
AcDbEntity
  8
0
100
AcDbLine
 10
423.8640211844639
 20
299.1879753323407
 30
0.0
 11
423.8640211844659
 21
452.1879753323426
 31
0.0
1001
ACAD
1000
ASC_BOUNDS
1002
{
1070
    19
1005
0
1002
}
  0
LINE
  5
72
330
2
100
AcDbEntity
  8
0
100
AcDbLine
 10
421.364021184466
 20
454.6879753323426
 30
0.0
 11
421.3640211844659
 21
296.6879753323426
 31
0.0
  0
LINE
  5
73
330
2
100
AcDbEntity
  8
0
100
AcDbLine
 10
406.6640211844656
 20
387.6879753323427
 30
0.0
 11
406.6640211844659
 21
363.6879753323426
 31
0.0
  0
LINE
  5
74
330
2
100
AcDbEntity
  8
0
100
AcDbLine
 10
411.8640211844643
 20
454.6879753323426
 30
0.0
 11
411.864021184466
 21
296.6879753323426
 31
0.0
1001
ACAD
1000
ASC_BOUNDS
1002
{
1070
    19
1005
0
1005
0
1002
}
  0
ARC
  5
75
330
2
100
AcDbEntity
  8
0
100
AcDbCircle
 10
258.9010525958763
 20
375.6879753323426
 30
0.0
 40
79.0
100
AcDbArc
 50
126.3244369150719
 51
53.67556308492806
  0
ARC
  5
76
330
2
100
AcDbEntity
  8
0
100
AcDbCircle
 10
258.9010525958766
 20
375.6879753323426
 30
0.0
 40
76.5
100
AcDbArc
 50
130.4381692275001
 51
49.56183077250041
  0
ARC
  5
77
330
2
100
AcDbEntity
  8
0
100
AcDbCircle
 10
209.9010525958763
 20
364.2294779544718
 30
0.0
 40
8.0
100
AcDbArc
 50
144.0494323803828
 51
256.8171228859242
  0
ARC
  5
78
330
2
100
AcDbEntity
  8
0
100
AcDbCircle
 10
307.9010525958763
 20
364.2294779544718
 30
0.0
 40
8.0
100
AcDbArc
 50
283.1828771140758
 51
35.95056761961713
  0
LINE
  5
79
330
2
100
AcDbEntity
  8
0
100
AcDbLine
 10
240.9010525958757
 20
367.2958397086114
 30
0.0
 11
240.9010525958762
 21
346.9379753323427
 31
0.0
  0
LINE
  5
7A
330
2
100
AcDbEntity
  8
0
100
AcDbLine
 10
276.9010525958764
 20
367.2958397086116
 30
0.0
 11
276.9010525958764
 21
346.9379753323428
 31
0.0
  0
LINE
  5
7B
330
2
100
AcDbEntity
  8
0
100
AcDbLine
 10
312.9010525958763
 20
410.4379753323426
 30
0.0
 11
312.9010525958763
 21
363.4379753323427
 31
0.0
  0
LINE
  5
7C
330
2
100
AcDbEntity
  8
0
100
AcDbLine
 10
204.9010525958763
 20
410.4379753323426
 30
0.0
 11
204.9010525958763
 21
363.4379753323427
 31
0.0
  0
LINE
  5
7D
330
2
100
AcDbEntity
  8
LINIE
  6
GESTRICHELT
 48
7.0
100
AcDbLine
 10
415.8640211844645
 20
430.6879753323426
 30
0.0
 11
415.8640211844656
 21
320.6879753323426
 31
0.0
1001
ACAD
1000
ASC_BOUNDS
1002
{
1070
    19
1005
0
1005
0
1002
}
  0
LINE
  5
80
330
2
100
AcDbEntity
  8
LINIE
  6
GESTRICHELT
 48
7.0
100
AcDbLine
 10
231.4010525958763
 20
368.9379753323426
 30
0.0
 11
231.4010525958763
 21
354.9379753323426
 31
0.0
  0
LINE
  5
81
330
2
100
AcDbEntity
  8
LINIE
  6
GESTRICHELT
 48
7.0
100
AcDbLine
 10
232.2130525958763
 20
373.9379753323426
 30
0.0
 11
232.2130525958763
 21
355.7499753323426
 31
0.0
  0
LINE
  5
82
330
2
100
AcDbEntity
  8
LINIE
  6
GESTRICHELT
 48
7.0
100
AcDbLine
 10
248.5890525958763
 20
373.9379753323426
 30
0.0
 11
248.5890525958763
 21
355.7499753323426
 31
0.0
  0
LINE
  5
83
330
2
100
AcDbEntity
  8
LINIE
  6
GESTRICHELT
 48
7.0
100
AcDbLine
 10
249.4010525958763
 20
368.9379753323426
 30
0.0
 11
249.4010525958763
 21
354.9379753323426
 31
0.0
  0
LINE
  5
84
330
2
100
AcDbEntity
  8
LINIE
  6
GESTRICHELT
 48
7.0
100
AcDbLine
 10
268.4010525958763
 20
368.9379753323426
 30
0.0
 11
268.4010525958763
 21
354.9379753323426
 31
0.0
  0
LINE
  5
85
330
2
100
AcDbEntity
  8
LINIE
  6
GESTRICHELT
 48
7.0
100
AcDbLine
 10
269.2130525958763
 20
373.9379753323426
 30
0.0
 11
269.2130525958763
 21
355.7499753323426
 31
0.0
  0
LINE
  5
86
330
2
100
AcDbEntity
  8
LINIE
  6
GESTRICHELT
 48
7.0
100
AcDbLine
 10
285.5890525958763
 20
373.9379753323426
 30
0.0
 11
285.5890525958763
 21
355.7499753323426
 31
0.0
  0
LINE
  5
87
330
2
100
AcDbEntity
  8
LINIE
  6
GESTRICHELT
 48
7.0
100
AcDbLine
 10
286.4010525958763
 20
368.9379753323426
 30
0.0
 11
286.4010525958763
 21
354.9379753323426
 31
0.0
  0
LINE
  5
88
330
2
100
AcDbEntity
  8
MITTE
 48
5.0
100
AcDbLine
 10
277.4010525958763
 20
383.1939632434369
 30
0.0
 11
277.4010525958763
 21
351.5554996035471
 31
0.0
  0
LINE
  5
89
330
2
100
AcDbEntity
  8
MITTE
 48
5.0
100
AcDbLine
 10
240.4010525958763
 20
383.1939632434369
 30
0.0
 11
240.4010525958763
 21
351.3947697466108
 31
0.0
  0
LINE
  5
8A
330
2
100
AcDbEntity
  8
MITTE
 48
10.0
100
AcDbLine
 10
258.9010525958763
 20
469.6355891176567
 30
0.0
 11
258.9010525958763
 21
293.1367895485087
 31
0.0
  0
HATCH
  5
B4
330
2
100
AcDbEntity
  8
LINIE
 48
10.0
100
AcDbHatch
 10
0.0
 20
0.0
 30
0.0
210
0.0
220
0.0
230
1.0
  2
AR-CONC
 70
     0
 71
     0
 91
       13
 92
        7
 72
     1
 73
     1
 93
       28
 10
277.4010525958762
 20
378.6653193364672
 42
0.0
 10
285.5890525958763
 20
373.9379753323426
 42
0.0
 10
285.5890525958763
 20
368.9379753323426
 42
0.0
 10
286.4010525958763
 20
368.9379753323426
 42
0.0
 10
286.4010525958763
 20
355.4379753323427
 42
0.0
 10
304.9010525958764
 20
355.4379753323427
 42
0.4142135623730899
 10
312.9010525958763
 20
363.4379753323427
 42
0.0
 10
312.9010525958763
 20
410.4379753323426
 42
1.0
 10
204.9010525958763
 20
410.4379753323426
 42
0.0
 10
204.9010525958763
 20
363.4379753323426
 42
0.4142135623730909
 10
212.9010525958763
 20
355.4379753323427
 42
0.0
 10
231.4010525958763
 20
355.4379753323427
 42
0.0
 10
231.4010525958763
 20
368.9379753323426
 42
0.0
 10
232.2130525958763
 20
368.9379753323426
 42
0.0
 10
232.2130525958763
 20
373.9379753323426
 42
0.0
 10
240.4010525958763
 20
378.6653193364672
 42
0.0
 10
248.5890525958764
 20
373.9379753323427
 42
0.0
 10
248.5890525958764
 20
368.9379753323426
 42
0.0
 10
249.4010525958763
 20
368.9379753323426
 42
0.0
 10
249.4010525958763
 20
354.9379753323425
 42
0.0
 10
254.4010525958763
 20
354.9379753323426
 42
0.0
 10
254.4010525958763
 20
353.4379753323427
 42
0.0
 10
263.4010525958763
 20
353.4379753323427
 42
0.0
 10
263.4010525958763
 20
354.9379753323426
 42
0.0
 10
268.4010525958763
 20
354.9379753323425
 42
0.0
 10
268.4010525958763
 20
368.9379753323426
 42
0.0
 10
269.2130525958763
 20
368.9379753323426
 42
0.0
 10
269.2130525958763
 20
373.9379753323426
 42
0.0
 97
        0
 92
       22
 72
     1
 73
     1
 93
        4
 10
285.5890525958763
 20
373.9379753323427
 42
0.0
 10
277.4010525958763
 20
378.6653193364672
 42
0.0
 10
273.3428121754333
 20
376.3222931372883
 42
0.0658583502915222
 10
274.4359426010409
 20
373.9379753323426
 42
0.0
 97
        0
 92
       22
 72
     1
 73
     1
 93
        5
 10
285.5890525958763
 20
368.9379753323426
 42
0.0
 10
285.5890525958763
 20
373.9379753323426
 42
0.0
 10
274.4359426010409
 20
373.9379753323426
 42
0.0315066214087954
 10
275.1719676598876
 20
372.9165126224105
 42
-0.1084022587744931
 10
276.7653006966327
 20
368.9379753323426
 42
0.0
 97
        0
 92
       22
 72
     1
 73
     1
 93
        5
 10
269.2130525958763
 20
373.9379753323426
 42
0.0
 10
269.2130525958763
 20
368.9379753323426
 42
0.0
 10
276.7653006966327
 20
368.9379753323426
 42
0.108402258774491
 10
275.1719676598877
 20
372.9165126224105
 42
-0.0315066214087974
 10
274.4359426010409
 20
373.9379753323426
 42
0.0
 97
        0
 92
       23
 72
     1
 73
     1
 93
        5
 10
276.9010525958764
 20
367.2958397086116
 42
0.0412635701157327
 10
276.7653006966327
 20
368.9379753323426
 42
0.0
 10
269.2130525958763
 20
368.9379753323426
 42
0.0
 10
269.2130525958763
 20
355.7499753323426
 42
0.0
 10
276.9010525958764
 20
355.7499753323426
 42
0.0
 97
        0
 92
       23
 72
     1
 73
     1
 93
       11
 10
283.3445037291856
 20
360.8432019104987
 42
-0.3563021608602831
 10
282.9446633413038
 20
360.3533365697158
 42
0.0
 10
284.7304633769463
 20
355.7499753323426
 42
0.0
 10
285.5890525958763
 20
355.7499753323426
 42
0.0
 10
285.5890525958763
 20
368.9379753323426
 42
0.0
 10
276.7653006966327
 20
368.9379753323426
 42
-0.0412635701157327
 10
276.9010525958764
 20
367.2958397086116
 42
0.0
 10
276.9010525958764
 20
355.7499753323426
 42
0.0
 10
284.7304633769463
 20
355.7499753323426
 42
0.0
 10
282.9446633413038
 20
360.3533365697158
 42
-0.4745976654136332
 10
282.3445037291856
 20
360.8432019104987
 42
-1.0
 97
        0
 92
        7
 72
     1
 73
     1
 93
        6
 10
274.4010525958764
 20
344.4379753323428
 42
0.4142135623730937
 10
276.9010525958764
 20
346.9379753323428
 42
0.0
 10
276.9010525958764
 20
353.4379753323426
 42
0.0
 10
240.901052595876
 20
353.4379753323426
 42
0.0
 10
240.9010525958762
 20
346.9379753323427
 42
0.4142135623730902
 10
243.4010525958762
 20
344.4379753323427
 42
0.0
 97
        0
 92
       23
 72
     1
 73
     1
 93
        5
 10
240.901052595876
 20
355.7499753323426
 42
0.0
 10
248.5890525958763
 20
355.7499753323426
 42
0.0
 10
248.5890525958763
 20
368.9379753323426
 42
0.0
 10
241.0368044951199
 20
368.9379753323426
 42
0.0412635701157407
 10
240.9010525958757
 20
367.2958397086114
 42
0.0
 97
        0
 92
       22
 72
     1
 73
     1
 93
        5
 10
248.5890525958764
 20
368.9379753323426
 42
0.0
 10
248.5890525958764
 20
373.9379753323427
 42
0.0
 10
243.3661625907117
 20
373.9379753323427
 42
-0.0315066214087898
 10
242.6301375318652
 20
372.9165126224108
 42
0.1084022587744985
 10
241.0368044951199
 20
368.9379753323426
 42
0.0
 97
        0
 92
       23
 72
     1
 73
     1
 93
        4
 10
243.3661625907117
 20
373.9379753323426
 42
0.0658583502915222
 10
244.4592930163193
 20
376.3222931372883
 42
0.0
 10
240.4010525958763
 20
378.6653193364672
 42
0.0
 10
232.2130525958761
 20
373.9379753323426
 42
0.0
 97
        0
 92
       22
 72
     1
 73
     1
 93
        3
 10
248.5890525958763
 20
373.9379753323426
 42
0.0
 10
244.4592930163193
 20
376.3222931372883
 42
-0.0658583502915222
 10
243.3661625907117
 20
373.9379753323426
 42
0.0
 97
        0
 92
       22
 72
     1
 73
     1
 93
        5
 10
241.0368044951199
 20
368.9379753323426
 42
-0.1084022587744893
 10
242.6301375318649
 20
372.9165126224105
 42
0.0315066214087989
 10
243.3661625907117
 20
373.9379753323426
 42
0.0
 10
232.2130525958763
 20
373.9379753323426
 42
0.0
 10
232.2130525958763
 20
368.9379753323426
 42
0.0
 97
        0
 92
       23
 72
     1
 73
     1
 93
       11
 10
240.9010525958757
 20
367.2958397086114
 42
-0.04126357011574
 10
241.0368044951196
 20
368.9379753323426
 42
0.0
 10
232.2130525958763
 20
368.9379753323426
 42
0.0
 10
232.2130525958763
 20
355.7499753323426
 42
0.0
 10
233.171780117159
 20
355.7499753323426
 42
0.0
 10
234.8661422593546
 20
360.3516378616223
 42
-0.3613051967213315
 10
234.457601462567
 20
360.8432019104987
 42
-1.0
 10
235.457601462567
 20
360.8432019104987
 42
-0.4691782598178279
 10
234.8661422593546
 20
360.3516378616223
 42
0.0
 10
233.171780117159
 20
355.7499753323426
 42
0.0
 10
240.901052595876
 20
355.7499753323426
 42
0.0
 97
        0
 75
     0
 76
     1
 52
0.0
 41
2.0
 77
     0
 78
    13
 53
50.0
 43
167.6408133233878
 44
51.65784175769317
 45
14.34520365201507
 46
-1.255042699651902
 79
     2
 49
1.5
 49
-16.5
 53
355.0
 43
167.6408133233878
 44
51.65784175769317
 45
-2.77502667226
 46
15.04384267400024
 79
     2
 49
1.199999999999999
 49
-13.2
 53
100.4514
 43
168.8362469233879
 44
51.55325495769318
 45
11.57018763428043
 46
13.78879084121907
 79
     2
 49
1.274803799999999
 49
-14.02284223999999
 53
46.1842
 43
167.6408133233878
 44
55.65784175769318
 45
21.34482097251289
 46
-3.310380286580361
 79
     2
 49
2.25
 49
-24.75
 53
96.6356
 43
169.4195482233878
 44
55.38197561769318
 45
18.69325411097406
 46
19.48235741800883
 79
     2
 49
1.912205759999999
 49
-21.03426
 53
351.1842000000001
 43
167.6408133233878
 44
55.65784175769318
 45
18.69323890267254
 46
19.48237201850649
 79
     2
 49
1.8
 49
-19.8
 53
21.0
 43
169.6408133233878
 44
54.65784175769318
 45
11.93814104236923
 46
-8.052377813306776
 79
     2
 49
1.5
 49
-16.5
 53
326.0
 43
169.6408133233878
 44
54.65784175769318
 45
4.866306638431634
 46
14.50300090093706
 79
     2
 49
1.199999999999999
 49
-13.2
 53
71.45140000000001
 43
170.6356579833879
 44
53.98680963769318
 45
16.8044525716298
 46
6.450609934199047
 79
     2
 49
1.2748038
 49
-14.02284224
 53
37.5
 43
167.6408133233878
 44
51.65784175769317
 45
0.2431971063458134
 46
6.657877076626229
 79
     6
 49
0.0
 49
-13.04
 49
0.0
 49
-13.4
 49
0.0
 49
-13.25
 53
7.499999999999999
 43
167.6408133233878
 44
51.65784175769317
 45
5.261390748842972
 46
7.888234237647204
 79
     6
 49
0.0
 49
-7.639999999999999
 49
0.0
 49
-12.74
 49
0.0
 49
-5.049999999999999
 53
327.5
 43
163.1808133233878
 44
51.65784175769317
 45
10.67644872344818
 46
-0.451097434687596
 79
     6
 49
0.0
 49
-5.0
 49
0.0
 49
-15.6
 49
0.0
 49
-20.7
 53
317.5
 43
161.1808133233878
 44
51.65784175769317
 45
11.66372338684772
 46
2.002099646646352
 79
     6
 49
0.0
 49
-6.5
 49
0.0
 49
-10.36
 49
0.0
 49
-14.7
 47
0.1699521498605369
 98
       13
 10
271.4293029139576
 20
415.2373106037068
 10
279.7598201701148
 20
375.4685060305744
 10
279.2497880799892
 20
371.2197034809526
 10
272.619377790917
 20
371.5596067073323
 10
274.3194824638158
 20
364.0817129165441
 10
281.2899141463045
 20
364.7615209986202
 10
260.3786190988381
 20
347.7663059121821
 10
244.5676403642528
 20
363.911760488696
 10
245.757712947026
 20
371.0497510531043
 10
239.4673240513712
 20
375.8084108862708
 10
245.5877022503173
 20
374.61874552065
 10
237.5972086817642
 20
371.2197034809526
 10
237.4271979850555
 20
364.9314734264685
  0
TEXT
  5
C4
330
2
100
AcDbEntity
  8
0
100
AcDbText
 10
194.0632180087018
 20
262.2650795729062
 30
0.0
 40
10.0
  1
L
100
AcDbText
  0
TEXT
  5
C5
330
2
100
AcDbEntity
  8
0
100
AcDbText
 10
317.5139859946444
 20
262.2650795729062
 30
0.0
 40
10.0
  1
R
100
AcDbText
  0
ARC
  5
C8
330
2
100
AcDbEntity
  8
0
100
AcDbCircle
 10
260.4010525958763
 20
328.1879753323426
 30
0.0
 40
2.5
100
AcDbArc
 50
270.0
 51
0.0
  0
ARC
  5
C9
330
2
100
AcDbEntity
  8
0
100
AcDbCircle
 10
258.9010525958763
 20
375.9379753323426
 30
0.0
 40
42.0
100
AcDbArc
 50
240.324691458011
 51
299.675308541989
  0
ARC
  5
CA
330
2
100
AcDbEntity
  8
0
100
AcDbCircle
 10
258.9010525958763
 20
375.6879753323426
 30
0.0
 40
55.0
100
AcDbArc
 50
200.0388637810233
 51
339.9611362189768
  0
LINE
  5
CB
330
2
100
AcDbEntity
  8
0
100
AcDbLine
 10
243.4010525958762
 20
344.4379753323427
 30
0.0
 11
274.4010525958764
 21
344.4379753323428
 31
0.0
  0
LINE
  5
CC
330
2
100
AcDbEntity
  8
LINIE
  6
GESTRICHELT
 48
10.0
100
AcDbLine
 10
218.8505423386596
 20
353.4379753323426
 30
0.0
 11
298.951562853093
 21
353.4379753323426
 31
0.0
  0
LINE
  5
CD
330
2
100
AcDbEntity
  8
BEM
100
AcDbLine
 10
235.0408326781837
 20
360.8260738363948
 30
0.0
 11
204.0792493868372
 21
276.7385260030025
 31
0.0
  0
LINE
  5
CE
330
2
100
AcDbEntity
  8
0
100
AcDbLine
 10
208.7441343120597
 20
356.1782957569365
 30
0.0
 11
238.1075124963658
 21
339.4464874189943
 31
0.0
  0
LINE
  5
CF
330
2
100
AcDbEntity
  8
0
100
AcDbLine
 10
218.9010525958763
 20
352.4379753323425
 30
0.0
 11
240.9010525958761
 21
352.4379753323425
 31
0.0
  0
LINE
  5
D0
330
2
100
AcDbEntity
  8
0
100
AcDbLine
 10
212.9010525958763
 20
355.4379753323427
 30
0.0
 11
238.4010525958762
 21
355.4379753323427
 31
0.0
  0
LINE
  5
D1
330
2
100
AcDbEntity
  8
LINIE
  6
GESTRICHELT
 48
7.0
100
AcDbLine
 10
226.4010525958763
 20
354.9379753323425
 30
0.0
 11
254.4010525958763
 21
354.9379753323426
 31
0.0
  0
CIRCLE
  5
D2
330
2
100
AcDbEntity
  8
0
100
AcDbCircle
 10
212.9391118187507
 20
329.726034555217
 30
0.0
 40
4.5
  0
ARC
  5
D3
330
2
100
AcDbEntity
  8
MITTE
 48
10.0
100
AcDbCircle
 10
258.9010525958763
 20
375.6879753323426
 30
0.0
 40
65.0
100
AcDbArc
 50
215.2651994268572
 51
234.3756831624066
  0
ARC
  5
D4
330
2
100
AcDbEntity
  8
0
100
AcDbCircle
 10
212.9010525958762
 20
363.4379753323426
 30
0.0
 40
8.0
100
AcDbArc
 50
179.9999999999992
 51
270.0
  0
ARC
  5
D5
330
2
100
AcDbEntity
  8
0
100
AcDbCircle
 10
207.5064235918506
 20
354.0061833811418
 30
0.0
 40
2.5
100
AcDbArc
 50
60.32469145801088
 51
76.81712288592418
  0
ARC
  5
D6
330
2
100
AcDbEntity
  8
0
100
AcDbCircle
 10
216.4010525958763
 20
352.9379753323427
 30
0.0
 40
2.5
100
AcDbArc
 50
0.0
 51
90.0
  0
LINE
  5
D7
330
2
100
AcDbEntity
  8
0
100
AcDbLine
 10
218.9010525958762
 20
352.9379753323427
 30
0.0
 11
218.9010525958763
 21
352.4379753323425
 31
0.0
  0
LINE
  5
D8
330
2
100
AcDbEntity
  8
LINIE
  6
GESTRICHELT
 48
7.0
100
AcDbLine
 10
226.4010525958763
 20
354.9379753323426
 30
0.0
 11
226.4010525958763
 21
353.4379753323426
 31
0.0
  0
ARC
  5
D9
330
2
100
AcDbEntity
  8
0
100
AcDbCircle
 10
257.4010525958763
 20
328.1879753323426
 30
0.0
 40
2.5
100
AcDbArc
 50
180.0
 51
270.0
  0
LINE
  5
DA
330
2
100
AcDbEntity
  8
0
100
AcDbLine
 10
257.4010525958763
 20
325.6879753323426
 30
0.0
 11
260.4010525958763
 21
325.6879753323426
 31
0.0
  0
LINE
  5
DB
330
2
100
AcDbEntity
  8
0
100
AcDbLine
 10
254.9010525958763
 20
328.1879753323426
 30
0.0
 11
254.9010525958763
 21
333.8788854116089
 31
0.0
  0
LINE
  5
DC
330
2
100
AcDbEntity
  8
LINIE
  6
GESTRICHELT
 48
7.0
100
AcDbLine
 10
232.2130525958763
 20
355.7499753323426
 30
0.0
 11
248.5890525958763
 21
355.7499753323426
 31
0.0
  0
ARC
  5
DD
330
2
100
AcDbEntity
  8
0
100
AcDbCircle
 10
243.4010525958762
 20
346.9379753323427
 30
0.0
 40
2.5
100
AcDbArc
 50
180.0
 51
270.0
  0
LINE
  5
DE
330
2
100
AcDbEntity
  8
LINIE
  6
GESTRICHELT
 48
7.0
100
AcDbLine
 10
232.2130525958763
 20
355.7499753323426
 30
0.0
 11
231.4010525958763
 21
354.9379753323426
 31
0.0
  0
LWPOLYLINE
  5
DF
330
2
100
AcDbEntity
  8
BEM
100
AcDbPolyline
 90
        2
 70
     1
 43
1.0
 10
235.457601462567
 20
360.8432019104987
 42
-1.0
 10
234.457601462567
 20
360.8432019104987
 42
-1.0
  0
ARC
  5
E0
330
2
100
AcDbEntity
  8
0
100
AcDbCircle
 10
238.4010525958762
 20
352.9379753323427
 30
0.0
 40
2.5
100
AcDbArc
 50
0.0
 51
90.0
  0
LINE
  5
E1
330
2
100
AcDbEntity
  8
LINIE
  6
GESTRICHELT
 48
7.0
100
AcDbLine
 10
248.5890525958763
 20
355.7499753323426
 30
0.0
 11
249.4010525958763
 21
354.9379753323426
 31
0.0
  0
LINE
  5
E2
330
2
100
AcDbEntity
  8
LINIE
  6
GESTRICHELT
 48
7.0
100
AcDbLine
 10
254.4010525958763
 20
354.9379753323426
 30
0.0
 11
254.4010525958763
 21
353.4379753323426
 31
0.0
  0
LINE
  5
E3
330
2
100
AcDbEntity
  8
BEM
100
AcDbLine
 10
282.7612725135689
 20
360.8260738363948
 30
0.0
 11
315.3816857670053
 21
276.7385260030025
 31
0.0
  0
LINE
  5
E4
330
2
100
AcDbEntity
  8
0
100
AcDbLine
 10
276.9010525958764
 20
352.4379753323425
 30
0.0
 11
298.9010525958763
 21
352.4379753323425
 31
0.0
  0
LINE
  5
E5
330
2
100
AcDbEntity
  8
0
100
AcDbLine
 10
309.0579708796929
 20
356.1782957569365
 30
0.0
 11
279.6945926953869
 21
339.4464874189943
 31
0.0
  0
LINE
  5
E6
330
2
100
AcDbEntity
  8
0
100
AcDbLine
 10
279.4010525958764
 20
355.4379753323426
 30
0.0
 11
304.9010525958763
 21
355.4379753323427
 31
0.0
  0
ARC
  5
E7
330
2
100
AcDbEntity
  8
MITTE
 48
10.0
100
AcDbCircle
 10
258.9010525958763
 20
375.6879753323426
 30
0.0
 40
65.0
100
AcDbArc
 50
302.2549487139556
 51
325.7553938016313
  0
LINE
  5
E8
330
2
100
AcDbEntity
  8
0
100
AcDbLine
 10
262.9010525958763
 20
328.1879753323426
 30
0.0
 11
262.9010525958763
 21
333.8788854116089
 31
0.0
  0
LINE
  5
E9
330
2
100
AcDbEntity
  8
LINIE
  6
GESTRICHELT
 48
7.0
100
AcDbLine
 10
263.4010525958763
 20
354.9379753323426
 30
0.0
 11
291.4010525958763
 21
354.9379753323426
 31
0.0
  0
LINE
  5
EA
330
2
100
AcDbEntity
  8
LINIE
  6
GESTRICHELT
 48
7.0
100
AcDbLine
 10
269.2130525958763
 20
355.7499753323426
 30
0.0
 11
285.5890525958763
 21
355.7499753323426
 31
0.0
  0
ARC
  5
EB
330
2
100
AcDbEntity
  8
0
100
AcDbCircle
 10
274.4010525958764
 20
346.9379753323428
 30
0.0
 40
2.5
100
AcDbArc
 50
270.0
 51
0.0
  0
LINE
  5
EC
330
2
100
AcDbEntity
  8
LINIE
  6
GESTRICHELT
 48
7.0
100
AcDbLine
 10
263.4010525958763
 20
354.9379753323426
 30
0.0
 11
263.4010525958763
 21
353.4379753323426
 31
0.0
  0
LINE
  5
ED
330
2
100
AcDbEntity
  8
LINIE
  6
GESTRICHELT
 48
7.0
100
AcDbLine
 10
269.2130525958763
 20
355.7499753323426
 30
0.0
 11
268.4010525958763
 21
354.9379753323426
 31
0.0
  0
ARC
  5
EE
330
2
100
AcDbEntity
  8
0
100
AcDbCircle
 10
279.4010525958764
 20
352.9379753323427
 30
0.0
 40
2.5
100
AcDbArc
 50
90.0
 51
180.0
  0
LINE
  5
EF
330
2
100
AcDbEntity
  8
LINIE
  6
GESTRICHELT
 48
7.0
100
AcDbLine
 10
285.5890525958763
 20
355.7499753323426
 30
0.0
 11
286.4010525958763
 21
354.9379753323426
 31
0.0
  0
LWPOLYLINE
  5
F0
330
2
100
AcDbEntity
  8
BEM
100
AcDbPolyline
 90
        2
 70
     1
 43
1.0
 10
282.3445037291856
 20
360.8432019104987
 42
1.0
 10
283.3445037291856
 20
360.8432019104987
 42
1.0
  0
LINE
  5
F1
330
2
100
AcDbEntity
  8
LINIE
  6
GESTRICHELT
 48
7.0
100
AcDbLine
 10
291.4010525958763
 20
354.9379753323426
 30
0.0
 11
291.4010525958763
 21
353.4379753323426
 31
0.0
  0
CIRCLE
  5
F2
330
2
100
AcDbEntity
  8
0
100
AcDbCircle
 10
304.862993373002
 20
329.726034555217
 30
0.0
 40
4.5
  0
ARC
  5
F3
330
2
100
AcDbEntity
  8
0
100
AcDbCircle
 10
304.9010525958764
 20
363.4379753323426
 30
0.0
 40
8.0
100
AcDbArc
 50
269.9999999999984
 51
0.0000000000008142
  0
ARC
  5
F4
330
2
100
AcDbEntity
  8
0
100
AcDbCircle
 10
301.4010525958762
 20
352.9379753323427
 30
0.0
 40
2.5
100
AcDbArc
 50
90.0
 51
180.0
  0
LINE
  5
F5
330
2
100
AcDbEntity
  8
0
100
AcDbLine
 10
298.9010525958764
 20
352.9379753323427
 30
0.0
 11
298.9010525958763
 21
352.4379753323425
 31
0.0
  0
ARC
  5
F6
330
2
100
AcDbEntity
  8
0
100
AcDbCircle
 10
310.295681599902
 20
354.0061833811418
 30
0.0
 40
2.5
100
AcDbArc
 50
103.1828771140758
 51
119.6753085419891
  0
LINE
  5
F8
330
2
100
AcDbEntity
  8
0
100
AcDbLine
 10
421.3640211844659
 20
296.6879753323426
 30
0.0
 11
411.8640211844659
 21
296.6879753323426
 31
0.0
1001
ACAD
1000
ASC_BOUNDS
1002
{
1070
    19
1005
0
1002
}
  0
LINE
  5
F9
330
2
100
AcDbEntity
  8
0
100
AcDbLine
 10
423.8640211844659
 20
299.1879753323426
 30
0.0
 11
421.3640211844659
 21
296.6879753323426
 31
0.0
1001
ACAD
1000
ASC_BOUNDS
1002
{
1070
    19
1005
0
1002
}
  0
LINE
  5
FA
330
2
100
AcDbEntity
  8
0
100
AcDbLine
 10
406.6640211844656
 20
363.6879753323426
 30
0.0
 11
411.8640211844653
 21
363.6879753323426
 31
0.0
  0
ARC
  5
FB
330
2
100
AcDbEntity
  8
0
100
AcDbCircle
 10
427.3640211844657
 20
323.6593744062789
 30
0.0
 40
2.5
100
AcDbArc
 50
101.8854606354789
 51
180.0
  0
LINE
  5
FC
330
2
100
AcDbEntity
  8
LINIE
  6
GESTRICHELT
 48
7.0
100
AcDbLine
 10
415.8640211844656
 20
320.6879753323426
 30
0.0
 11
411.8640211844656
 21
320.6879753323426
 31
0.0
1001
ACAD
1000
ASC_BOUNDS
1002
{
1070
    19
1005
0
1002
}
  0
LINE
  5
FD
330
2
100
AcDbEntity
  8
0
100
AcDbLine
 10
424.8640211844657
 20
320.6879753323426
 30
0.0
 11
423.8640211844657
 21
320.6879753323426
 31
0.0
1001
ACAD
1000
ASC_BOUNDS
1002
{
1070
    19
1005
0
1002
}
  0
ARC
  5
FE
330
2
100
AcDbEntity
  8
0
100
AcDbCircle
 10
427.3640211844658
 20
343.1879753323426
 30
0.0
 40
2.5
100
AcDbArc
 50
90.0
 51
180.0
1001
ACAD
1000
ASC_BOUNDS
1002
{
1070
    19
1005
0
1002
}
  0
LINE
  5
FF
330
2
100
AcDbEntity
  8
MITTE
 48
10.0
100
AcDbLine
 10
176.4786145736036
 20
375.6879753323426
 30
0.0
 11
340.6834472019459
 21
375.6879753323426
 31
0.0
  0
ARC
  5
10D
330
2
100
AcDbEntity
  8
0
100
AcDbCircle
 10
258.9010525958763
 20
410.4379753323426
 30
0.0
 40
55.0
100
AcDbArc
 50
52.30863817004557
 51
127.6913618299544
  0
ARC
  5
10E
330
2
100
AcDbEntity
  8
0
100
AcDbCircle
 10
258.9010525958763
 20
410.4379753323426
 30
0.0
 40
54.0
100
AcDbArc
 50
0.0
 51
180.0
  0
LINE
  5
10F
330
2
100
AcDbEntity
  8
MITTE
 48
10.0
100
AcDbLine
 10
198.5249233221632
 20
410.4379753323426
 30
0.0
 11
325.7582342403796
 21
410.4379753323426
 31
0.0
  0
LINE
  5
110
330
2
100
AcDbEntity
  8
LINIE
100
AcDbLine
 10
246.2524917402546
 20
379.2616876438162
 30
0.0
 11
271.866464215211
 21
379.2616876438162
 31
0.0
  0
ARC
  5
111
330
2
100
AcDbEntity
  8
0
100
AcDbCircle
 10
258.9010525958763
 20
410.4379753323426
 30
0.0
 40
55.0
100
AcDbArc
 50
142.3086381700459
 51
180.0
  0
LINE
  5
112
330
2
100
AcDbEntity
  8
0
100
AcDbLine
 10
203.9010525958763
 20
410.4379753323426
 30
0.0
 11
203.9010525958762
 21
370.3938919574408
 31
0.0
  0
ARC
  5
113
330
2
100
AcDbEntity
  8
0
100
AcDbCircle
 10
201.4010525958763
 20
370.3938919574408
 30
0.0
 40
2.5
100
AcDbArc
 50
324.0494323803809
 51
0.0
  0
LINE
  5
114
330
2
100
AcDbEntity
  8
LINIE
  6
GESTRICHELT
 48
7.0
100
AcDbLine
 10
231.4010525958763
 20
368.9379753323426
 30
0.0
 11
249.4010525958763
 21
368.9379753323426
 31
0.0
  0
LINE
  5
115
330
2
100
AcDbEntity
  8
LINIE
  6
GESTRICHELT
 48
7.0
100
AcDbLine
 10
240.4010525958763
 20
378.6653193364672
 30
0.0
 11
248.5890525958763
 21
373.9379753323426
 31
0.0
  0
LINE
  5
116
330
2
100
AcDbEntity
  8
LINIE
  6
GESTRICHELT
 48
7.0
100
AcDbLine
 10
232.2130525958763
 20
373.9379753323426
 30
0.0
 11
248.5890525958763
 21
373.9379753323426
 31
0.0
  0
ARC
  5
117
330
2
100
AcDbEntity
  8
0
100
AcDbCircle
 10
234.9010525958761
 20
379.2616876438161
 30
0.0
 40
10.0
100
AcDbArc
 50
320.6157923170028
 51
0.0
  0
LINE
  5
118
330
2
100
AcDbEntity
  8
LINIE
  6
GESTRICHELT
 48
7.0
100
AcDbLine
 10
232.2130525958763
 20
373.9379753323426
 30
0.0
 11
240.4010525958763
 21
378.6653193364672
 31
0.0
  0
ARC
  5
119
330
2
100
AcDbEntity
  8
0
100
AcDbCircle
 10
250.9010525958762
 20
367.2958397086116
 30
0.0
 40
10.0
100
AcDbArc
 50
145.8011143785796
 51
179.9999999999996
  0
ARC
  5
11A
330
2
100
AcDbEntity
  8
0
100
AcDbCircle
 10
223.8992669271422
 20
445.4397610010765
 30
0.0
 40
8.0
100
AcDbArc
 50
90.84123953512905
 51
179.1587604648668
  0
ARC
  5
11B
330
2
100
AcDbEntity
  8
0
100
AcDbCircle
 10
213.4003986643288
 20
445.5939206588674
 30
0.0
 40
2.5
100
AcDbArc
 50
322.3086381700457
 51
359.1587604648669
  0
ARC
  5
11C
330
2
100
AcDbEntity
  8
0
100
AcDbCircle
 10
223.7451072693521
 20
455.9386292638899
 30
0.0
 40
2.5
100
AcDbArc
 50
270.8412395351307
 51
307.6913618299546
  0
ARC
  5
11D
330
2
100
AcDbEntity
  8
0
100
AcDbCircle
 10
258.9010525958763
 20
410.4379753323426
 30
0.0
 40
55.0
100
AcDbArc
 50
0.0
 51
37.69136182995405
  0
LINE
  5
11E
330
2
100
AcDbEntity
  8
LINIE
  6
GESTRICHELT
 48
7.0
100
AcDbLine
 10
268.4010525958763
 20
368.9379753323426
 30
0.0
 11
286.4010525958763
 21
368.9379753323426
 31
0.0
  0
LINE
  5
11F
330
2
100
AcDbEntity
  8
LINIE
  6
GESTRICHELT
 48
7.0
100
AcDbLine
 10
277.4010525958763
 20
378.6653193364672
 30
0.0
 11
285.5890525958763
 21
373.9379753323426
 31
0.0
  0
LINE
  5
120
330
2
100
AcDbEntity
  8
LINIE
  6
GESTRICHELT
 48
7.0
100
AcDbLine
 10
269.2130525958763
 20
373.9379753323426
 30
0.0
 11
285.5890525958763
 21
373.9379753323426
 31
0.0
  0
ARC
  5
121
330
2
100
AcDbEntity
  8
0
100
AcDbCircle
 10
282.9010525958765
 20
379.2616876438161
 30
0.0
 40
10.0
100
AcDbArc
 50
180.0
 51
219.384207682997
  0
LINE
  5
122
330
2
100
AcDbEntity
  8
LINIE
  6
GESTRICHELT
 48
7.0
100
AcDbLine
 10
269.2130525958763
 20
373.9379753323426
 30
0.0
 11
277.4010525958763
 21
378.6653193364672
 31
0.0
  0
ARC
  5
123
330
2
100
AcDbEntity
  8
0
100
AcDbCircle
 10
266.9010525958764
 20
367.2958397086116
 30
0.0
 40
10.0
100
AcDbArc
 50
0.0000000000004071
 51
34.1988856214203
  0
LINE
  5
124
330
2
100
AcDbEntity
  8
0
100
AcDbLine
 10
313.9010525958763
 20
410.4379753323426
 30
0.0
 11
313.9010525958763
 21
370.3938919574408
 31
0.0
  0
ARC
  5
125
330
2
100
AcDbEntity
  8
0
100
AcDbCircle
 10
316.4010525958763
 20
370.3938919574408
 30
0.0
 40
2.5
100
AcDbArc
 50
180.0
 51
215.9505676196191
  0
ARC
  5
126
330
2
100
AcDbEntity
  8
0
100
AcDbCircle
 10
293.9028382646104
 20
445.4397610010765
 30
0.0
 40
8.0
100
AcDbArc
 50
0.8412395351331362
 51
89.15876046487094
  0
ARC
  5
127
330
2
100
AcDbEntity
  8
0
100
AcDbCircle
 10
294.0569979224006
 20
455.9386292638899
 30
0.0
 40
2.5
100
AcDbArc
 50
232.3086381700453
 51
269.1587604648693
  0
ARC
  5
128
330
2
100
AcDbEntity
  8
0
100
AcDbCircle
 10
304.4017065274238
 20
445.5939206588674
 30
0.0
 40
2.5
100
AcDbArc
 50
180.8412395351331
 51
217.6913618299543
  0
LINE
  5
13B
330
2
100
AcDbEntity
  8
0
100
AcDbLine
 10
367.6640211844657
 20
383.6879753323427
 30
0.0
 11
405.0640211844656
 21
383.6879753323426
 31
0.0
  0
LINE
  5
13C
330
2
100
AcDbEntity
  8
0
100
AcDbLine
 10
367.6640211844657
 20
367.6879753323425
 30
0.0
 11
405.0640211844656
 21
367.6879753323425
 31
0.0
  0
LINE
  5
13D
330
2
100
AcDbEntity
  8
0
100
AcDbLine
 10
373.1640211844658
 20
378.1879753323426
 30
0.0
 11
398.1640211844658
 21
378.1879753323426
 31
0.0
  0
LINE
  5
13E
330
2
100
AcDbEntity
  8
0
100
AcDbLine
 10
373.1640211844658
 20
373.1879753323426
 30
0.0
 11
398.1640211844658
 21
373.1879753323426
 31
0.0
  0
LINE
  5
141
330
2
100
AcDbEntity
  8
0
100
AcDbLine
 10
366.6640211844657
 20
382.6879753323427
 30
0.0
 11
366.6640211844657
 21
368.6879753323425
 31
0.0
  0
LINE
  5
142
330
2
100
AcDbEntity
  8
0
100
AcDbLine
 10
367.6640211844657
 20
383.6879753323427
 30
0.0
 11
367.6640211844657
 21
367.6879753323425
 31
0.0
  0
ARC
  5
143
330
2
100
AcDbEntity
  8
0
100
AcDbCircle
 10
373.1640211844658
 20
375.6879753323426
 30
0.0
 40
2.5
100
AcDbArc
 50
90.0
 51
270.0
  0
LINE
  5
144
330
2
100
AcDbEntity
  8
0
100
AcDbLine
 10
366.6640211844657
 20
368.6879753323425
 30
0.0
 11
367.6640211844657
 21
367.6879753323425
 31
0.0
  0
LINE
  5
145
330
2
100
AcDbEntity
  8
0
100
AcDbLine
 10
367.6640211844657
 20
383.6879753323427
 30
0.0
 11
366.6640211844657
 21
382.6879753323427
 31
0.0
  0
LINE
  5
146
330
2
100
AcDbEntity
  8
0
100
AcDbLine
 10
406.6640211844656
 20
387.6879753323427
 30
0.0
 11
411.864021184465
 21
387.6879753323427
 31
0.0
  0
ARC
  5
147
330
2
100
AcDbEntity
  8
0
100
AcDbCircle
 10
398.1640211844658
 20
375.6879753323426
 30
0.0
 40
2.5
100
AcDbArc
 50
270.0
 51
90.0
  0
ARC
  5
148
330
2
100
AcDbEntity
  8
0
100
AcDbCircle
 10
405.0640211844656
 20
366.0879753323426
 30
0.0
 40
1.6
100
AcDbArc
 50
0.0
 51
90.00000000000019
  0
LINE
  5
149
330
2
100
AcDbEntity
  8
0
100
AcDbLine
 10
398.5127666055097
 20
378.1910826741148
 30
0.0
 11
398.5127666055097
 21
378.1910826741148
 31
0.0
  0
ARC
  5
14A
330
2
100
AcDbEntity
  8
0
100
AcDbCircle
 10
405.0640211844656
 20
385.2879753323426
 30
0.0
 40
1.6
100
AcDbArc
 50
269.9999999999998
 51
0.0
  0
ARC
  5
14B
330
2
100
AcDbEntity
  8
0
100
AcDbCircle
 10
427.3640211844658
 20
370.6879753323426
 30
0.0
 40
2.5
100
AcDbArc
 50
90.0
 51
180.0
  0
ARC
  5
14C
330
2
100
AcDbEntity
  8
0
100
AcDbCircle
 10
427.3640211844658
 20
383.6879753323426
 30
0.0
 40
2.5
100
AcDbArc
 50
180.0
 51
270.0
  0
ARC
  5
14D
330
2
100
AcDbEntity
  8
0
100
AcDbCircle
 10
427.3640211844658
 20
408.1879753323426
 30
0.0
 40
2.5
100
AcDbArc
 50
180.0
 51
270.0
1001
ACAD
1000
ASC_BOUNDS
1002
{
1070
    19
1005
0
1002
}
  0
ARC
  5
14E
330
2
100
AcDbEntity
  8
0
100
AcDbCircle
 10
432.9145314416826
 20
408.1879753323427
 30
0.0
 40
2.5
100
AcDbArc
 50
270.0
 51
348.4630409671831
  0
ARC
  5
14F
330
2
100
AcDbEntity
  8
0
100
AcDbCircle
 10
427.3640211844658
 20
428.1879753323425
 30
0.0
 40
2.5
100
AcDbArc
 50
180.0
 51
270.0
  0
LINE
  5
150
330
2
100
AcDbEntity
  8
LINIE
  6
GESTRICHELT
 48
7.0
100
AcDbLine
 10
415.8640211844645
 20
430.6879753323426
 30
0.0
 11
411.8640211844645
 21
430.6879753323427
 31
0.0
1001
ACAD
1000
ASC_BOUNDS
1002
{
1070
    19
1005
0
1002
}
  0
LINE
  5
151
330
2
100
AcDbEntity
  8
0
100
AcDbLine
 10
424.8640211844657
 20
430.6879753323426
 30
0.0
 11
423.8640211844657
 21
430.6879753323426
 31
0.0
1001
ACAD
1000
ASC_BOUNDS
1002
{
1070
    19
1005
0
1002
}
  0
LINE
  5
152
330
2
100
AcDbEntity
  8
0
100
AcDbLine
 10
421.364021184466
 20
454.6879753323426
 30
0.0
 11
411.8640211844643
 21
454.6879753323426
 31
0.0
1001
ACAD
1000
ASC_BOUNDS
1002
{
1070
    19
1005
0
1002
}
  0
LINE
  5
153
330
2
100
AcDbEntity
  8
0
100
AcDbLine
 10
423.8640211844659
 20
452.1879753323426
 30
0.0
 11
421.364021184466
 21
454.6879753323426
 31
0.0
1001
ACAD
1000
ASC_BOUNDS
1002
{
1070
    19
1005
0
1002
}
  0
LINE
  5
154
330
2
100
AcDbEntity
  8
0
100
AcDbLine
 10
483.8640211844658
 20
465.1879753323425
 30
0.0
 11
483.8640211844658
 21
334.4792631798205
 31
0.0
1001
ACAD
1000
ASC_BOUNDS
1002
{
1070
    19
1005
0
1002
}
  0
LINE
  5
155
330
2
100
AcDbEntity
  8
0
100
AcDbLine
 10
492.8640211844657
 20
388.2428314474505
 30
0.0
 11
492.8640211844657
 21
333.6879753323426
 31
0.0
1001
ACAD
1000
ASC_BOUNDS
1002
{
1070
    19
1005
0
1002
}
  0
LINE
  5
156
330
2
100
AcDbEntity
  8
0
100
AcDbLine
 10
492.8640211844656
 20
465.4379753323424
 30
0.0
 11
492.8640211844656
 21
333.9379753323426
 31
0.0
  0
LINE
  5
157
330
2
100
AcDbEntity
  8
0
100
AcDbLine
 10
620.8640211844656
 20
441.4379753323425
 30
0.0
 11
620.8640211844655
 21
363.4379753323427
 31
0.0
  0
LINE
  5
158
330
2
100
AcDbEntity
  8
0
100
AcDbLine
 10
624.8640211844655
 20
367.2958397086119
 30
0.0
 11
624.8640211844657
 21
347.9379753323428
 31
0.0
  0
CIRCLE
  5
159
330
2
100
AcDbEntity
  8
0
100
AcDbCircle
 10
733.2387940000696
 20
375.6879753323426
 30
0.0
 40
12.0
  0
CIRCLE
  5
15A
330
2
100
AcDbEntity
  8
0
100
AcDbCircle
 10
733.2387940000696
 20
375.6879753323426
 30
0.0
 40
14.5
  0
CIRCLE
  5
15B
330
2
100
AcDbEntity
  8
0
100
AcDbCircle
 10
733.2387940000696
 20
375.6879753323426
 30
0.0
 40
55.0
  0
CIRCLE
  5
15C
330
2
100
AcDbEntity
  8
0
100
AcDbCircle
 10
733.2387940000696
 20
375.6879753323426
 30
0.0
 40
79.0
  0
LINE
  5
15D
330
2
100
AcDbEntity
  8
MITTE
 48
10.0
100
AcDbLine
 10
733.2387940000696
 20
468.9609257215535
 30
0.0
 11
733.2387940000696
 21
287.2384430256362
 31
0.0
  0
LINE
  5
15E
330
2
100
AcDbEntity
  8
MITTE
 48
7.0
100
AcDbLine
 10
784.870075058137
 20
324.0566942742752
 30
0.0
 11
683.1361410214269
 21
425.7906283109852
 31
0.0
  0
LINE
  5
15F
330
2
100
AcDbEntity
  8
MITTE
 48
7.0
100
AcDbLine
 10
681.6075129420021
 20
324.0566942742752
 30
0.0
 11
783.631412241491
 21
426.0805935737639
 31
0.0
  0
LINE
  5
160
330
2
100
AcDbEntity
  8
MITTE
 48
10.0
100
AcDbLine
 10
552.3640211844656
 20
365.4716338163285
 30
0.0
 11
552.3640211844656
 21
341.0742184197277
 31
0.0
  0
LINE
  5
161
330
2
100
AcDbEntity
  8
LINIE
100
AcDbLine
 10
514.8640211844656
 20
368.3124997252339
 30
0.0
 11
514.8640211844656
 21
357.4272962437598
 31
0.0
  0
LINE
  5
162
330
2
100
AcDbEntity
  8
MITTE
 48
10.0
100
AcDbLine
 10
606.8640211844656
 20
364.9842168227303
 30
0.0
 11
606.8640211844656
 21
333.9379753323426
 31
0.0
  0
ARC
  5
163
330
2
100
AcDbEntity
  8
MITTE
 48
10.0
100
AcDbCircle
 10
733.2387940000696
 20
375.6879753323426
 30
0.0
 40
65.0
100
AcDbArc
 50
185.7355299865741
 51
234.375683162406
  0
LINE
  5
164
330
2
100
AcDbEntity
  8
LINIE
100
AcDbLine
 10
463.8640211844658
 20
367.9509301758117
 30
0.0
 11
463.8640211844658
 21
344.6879753323426
 31
0.0
1001
ACAD
1000
ASC_BOUNDS
1002
{
1070
    19
1002
}
  0
LINE
  5
165
330
2
100
AcDbEntity
  8
LINIE
 48
10.0
100
AcDbLine
 10
476.8776721904668
 20
435.5106153817104
 30
0.0
 11
476.8776721904668
 21
362.135857087485
 31
0.0
  0
LINE
  5
18F
330
2
100
AcDbEntity
  8
0
100
AcDbLine
 10
572.9042065422511
 20
355.4379753323426
 30
0.0
 11
612.8640211844655
 21
355.4379753323427
 31
0.0
  0
LINE
  5
190
330
2
100
AcDbEntity
  8
0
100
AcDbLine
 10
517.3640211844656
 20
353.4379753323426
 30
0.0
 11
587.3640211844656
 21
353.4379753323426
 31
0.0
  0
LINE
  5
1AD
330
2
100
AcDbEntity
  8
0
100
AcDbLine
 10
492.8640211844656
 20
356.4403011366966
 30
0.0
 11
515.3640211844656
 21
356.4403011366966
 31
0.0
  0
LINE
  5
1AE
330
2
100
AcDbEntity
  8
0
100
AcDbLine
 10
502.3640211844657
 20
355.4379753323425
 30
0.0
 11
533.1006440781374
 21
355.4379753323425
 31
0.0
  0
LINE
  5
1AF
330
2
100
AcDbEntity
  8
0
100
AcDbLine
 10
502.3640211844657
 20
352.4379753323424
 30
0.0
 11
517.3640211844656
 21
352.4379753323424
 31
0.0
  0
LINE
  5
1B0
330
2
100
AcDbEntity
  8
0
100
AcDbLine
 10
468.8640211844659
 20
334.6879753323426
 30
0.0
 11
482.8640211844658
 21
334.6879753323426
 31
0.0
1001
ACAD
1000
ASC_BOUNDS
1002
{
1070
    19
1005
0
1002
}
  0
ARC
  5
1B1
330
2
100
AcDbEntity
  8
0
100
AcDbCircle
 10
468.8640211844659
 20
344.6879753323426
 30
0.0
 40
10.0
100
AcDbArc
 50
186.8921025793466
 51
270.0
1001
ACAD
1000
ASC_BOUNDS
1002
{
1070
    19
1005
0
1002
}
  0
ARC
  5
1B2
330
2
100
AcDbEntity
  8
0
100
AcDbCircle
 10
469.707733612846
 20
314.6879753323426
 30
0.0
 40
20.0
100
AcDbArc
 50
90.0000000000001
 51
101.8854606354789
  0
ARC
  5
1B3
330
2
100
AcDbEntity
  8
0
100
AcDbCircle
 10
456.454347538475
 20
343.1879753323426
 30
0.0
 40
2.5
100
AcDbArc
 50
6.892102579346232
 51
90.0
1001
ACAD
1000
ASC_BOUNDS
1002
{
1070
    19
1005
0
1002
}
  0
LINE
  5
1B4
330
2
100
AcDbEntity
  8
0
100
AcDbLine
 10
499.8640211844658
 20
352.9379753323425
 30
0.0
 11
499.8640211844656
 21
336.9379753323425
 31
0.0
  0
LINE
  5
1B5
330
2
100
AcDbEntity
  8
0
100
AcDbLine
 10
492.8640211844656
 20
333.9379753323426
 30
0.0
 11
496.8640211844655
 21
333.9379753323425
 31
0.0
  0
ARC
  5
1B6
330
2
100
AcDbEntity
  8
0
100
AcDbCircle
 10
482.8640211844658
 20
332.1879753323426
 30
0.0
 40
2.5
100
AcDbArc
 50
36.86989764584413
 51
90.0
1001
ACAD
1000
ASC_BOUNDS
1002
{
1070
    19
1005
0
1002
}
  0
LINE
  5
1B7
330
2
100
AcDbEntity
  8
0
100
AcDbLine
 10
484.8640211844658
 20
333.6879753323426
 30
0.0
 11
492.8640211844657
 21
333.6879753323426
 31
0.0
1001
ACAD
1000
ASC_BOUNDS
1002
{
1070
    19
1005
0
1002
}
  0
ARC
  5
1B8
330
2
100
AcDbEntity
  8
0
100
AcDbCircle
 10
496.8640211844656
 20
336.9379753323425
 30
0.0
 40
3.0
100
AcDbArc
 50
269.9999999999993
 51
359.9999999999996
  0
ARC
  5
1B9
330
2
100
AcDbEntity
  8
0
100
AcDbCircle
 10
502.3640211844657
 20
349.9379753323424
 30
0.0
 40
2.5
100
AcDbArc
 50
89.99999999999991
 51
180.0
  0
ARC
  5
1BA
330
2
100
AcDbEntity
  8
0
100
AcDbCircle
 10
502.3640211844657
 20
352.9379753323425
 30
0.0
 40
2.5
100
AcDbArc
 50
90.0000000000001
 51
180.0
  0
LINE
  5
1BB
330
2
100
AcDbEntity
  8
0
100
AcDbLine
 10
544.1760211844656
 20
355.7499753323426
 30
0.0
 11
543.3640211844656
 21
354.9379753323426
 31
0.0
  0
LINE
  5
1BC
330
2
100
AcDbEntity
  8
0
100
AcDbLine
 10
538.3640211844656
 20
354.9379753323426
 30
0.0
 11
566.3640211844656
 21
354.9379753323426
 31
0.0
  0
HATCH
  5
1BD
330
2
100
AcDbEntity
  8
LINIE
 48
10.0
100
AcDbHatch
 10
0.0
 20
0.0
 30
0.0
210
0.0
220
0.0
230
1.0
  2
ANSI31
 70
     0
 71
     0
 91
        4
 92
        5
 93
        5
 72
     4
 94
        3
 73
     0
 74
     0
 95
       10
 96
        6
 40
32.20332906069053
 40
32.20332906069053
 40
32.20332906069053
 40
32.20332906069053
 40
36.07354258304438
 40
41.88446131772932
 40
47.39498654027875
 40
47.39498654027875
 40
47.39498654027875
 40
47.39498654027875
 10
573.3384905226601
 20
353.4379753323426
 10
573.0928476965163
 20
354.784975964633
 10
572.4783852969217
 20
358.1544260469599
 10
566.9122861921319
 20
359.8740141666527
 10
563.167950857246
 20
360.2138104898909
 10
561.3640211844662
 20
360.3108313863722
 72
     1
 10
561.3640211844656
 20
360.3108313863724
 11
561.3640211844656
 21
354.9379753323426
 72
     1
 10
561.3640211844656
 20
354.9379753323426
 11
566.3640211844656
 21
354.9379753323425
 72
     1
 10
566.3640211844656
 20
354.9379753323425
 11
566.3640211844656
 21
353.4379753323426
 72
     1
 10
566.3640211844656
 20
353.4379753323426
 11
573.3384905226601
 21
353.4379753323427
 97
        0
 92
        5
 93
        4
 72
     1
 10
560.5520211844655
 20
355.7499753323427
 11
561.3640211844654
 21
354.9379753323426
 72
     1
 10
561.3640211844654
 20
354.9379753323426
 11
561.3640211844656
 21
360.3108313863722
 72
     4
 94
        3
 73
     0
 74
     0
 95
        8
 96
        4
 40
31.37550076964246
 40
31.37550076964246
 40
31.37550076964246
 40
31.37550076964246
 40
32.20332906069053
 40
32.20332906069053
 40
32.20332906069053
 40
32.20332906069053
 10
561.3640211844662
 20
360.3108313863722
 10
561.0930226937821
 20
360.3254065202635
 10
560.8224431455536
 20
360.3384386898466
 10
560.5520211844654
 20
360.3504524836909
 72
     1
 10
560.5520211844655
 20
360.3504524836909
 11
560.5520211844655
 21
355.7499753323427
 97
        0
 92
        5
 93
        4
 72
     1
 10
543.3640211844656
 20
354.9379753323427
 11
544.1760211844656
 21
355.7499753323426
 72
     1
 10
544.1760211844656
 20
355.7499753323426
 11
544.1760211844656
 21
360.3809110693247
 72
     4
 94
        3
 73
     0
 74
     0
 95
        8
 96
        4
 40
14.07287279079752
 40
14.07287279079752
 40
14.07287279079752
 40
14.07287279079752
 40
14.88854677267786
 40
14.88854677267786
 40
14.88854677267786
 40
14.88854677267786
 10
544.176021184465
 20
360.3809110693247
 10
543.905924486048
 20
360.350586008475
 10
543.6353139304915
 20
360.3186076759997
 10
543.3640211844637
 20
360.2850869825694
 72
     1
 10
543.3640211844656
 20
360.2850869825696
 11
543.3640211844656
 21
354.9379753323427
 97
        0
 92
        5
 93
        5
 72
     1
 10
543.3640211844656
 20
354.9379753323426
 11
543.3640211844656
 21
360.2850869825697
 72
     4
 94
        3
 73
     0
 74
     0
 95
       10
 96
        6
 40
0.0
 40
0.0
 40
0.0
 40
0.0
 40
2.557235650529396
 40
7.727877917640146
 40
14.07287279079752
 40
14.07287279079752
 40
14.07287279079752
 40
14.07287279079752
 10
543.3640211844637
 20
360.2850869825694
 10
542.5134859249314
 20
360.1799955929032
 10
539.92293472651
 20
359.8166005583024
 10
535.0076292198614
 20
358.9595635224299
 10
533.0336424442122
 20
355.3995211909357
 10
531.945996505163
 20
353.4379753323426
 72
     1
 10
531.9459965051631
 20
353.4379753323426
 11
538.3640211844656
 21
353.4379753323426
 72
     1
 10
538.3640211844656
 20
353.4379753323426
 11
538.3640211844656
 21
354.9379753323426
 72
     1
 10
538.3640211844656
 20
354.9379753323426
 11
543.3640211844656
 21
354.9379753323426
 97
        0
 75
     0
 76
     1
 52
0.0
 41
20.0
 77
     0
 78
     1
 53
45.0
 43
33.46449639165872
 44
121.3083291967971
 45
-1.767766952966368
 46
1.767766952966368
 79
     0
 47
0.1339110804423528
 98
        4
 10
567.4444131863476
 20
357.3834407631578
 10
560.8805538492403
 20
358.3208198451193
 10
543.7341511777874
 20
356.9817079642628
 10
540.3852438429896
 20
357.1156195350295
  0
SPLINE
  5
1BE
330
2
100
AcDbEntity
  8
LINIE
 48
10.0
100
AcDbSpline
210
0.0
220
0.0
230
1.0
 70
     8
 71
     3
 72
    14
 73
    10
 74
     8
 42
0.0000000001
 43
0.0000000001
 44
0.0000000001
 40
0.0
 40
0.0
 40
0.0
 40
0.0
 40
6.344994873157406
 40
11.51563714026816
 40
20.12640737688697
 40
28.43601387734805
 40
37.71385428324001
 40
43.52477301792495
 40
47.39498654027879
 40
47.39498654027879
 40
47.39498654027879
 40
47.39498654027879
 10
531.945996505163
 20
353.4379753323426
 30
0.0
 10
533.0336424442121
 20
355.3995211909357
 30
0.0
 10
535.0076292198615
 20
358.9595635224299
 30
0.0
 10
542.0372842504499
 20
360.1852604201044
 30
0.0
 10
549.1994752956263
 20
360.9839458082492
 30
0.0
 10
558.0711110564341
 20
360.3550780200832
 30
0.0
 10
565.531972707732
 20
360.3004475851995
 30
0.0
 10
572.4783852969216
 20
358.1544260469599
 30
0.0
 10
573.0928476965165
 20
354.784975964633
 30
0.0
 10
573.3384905226601
 20
353.4379753323426
 30
0.0
 11
531.945996505163
 21
353.4379753323426
 31
0.0
 11
535.83072783909
 21
358.4547295024809
 31
0.0
 11
540.7871125096314
 21
359.9277510406989
 31
0.0
 11
549.3603151799463
 21
360.7312185518938
 31
0.0
 11
557.6656045161082
 21
360.4633954103604
 31
0.0
 11
566.908589187218
 21
359.6599298125707
 31
0.0
 11
572.1328845227356
 21
357.1156195350295
 31
0.0
 11
573.3384905226601
 21
353.4379753323426
 31
0.0
  0
LINE
  5
1BF
330
2
100
AcDbEntity
  8
BEM
100
AcDbLine
 10
543.3640211844656
 20
354.9379753323426
 30
0.0
 11
543.3640211844656
 21
330.9616083077251
 31
0.0
  0
LINE
  5
1C0
330
2
100
AcDbEntity
  8
0
100
AcDbLine
 10
517.3640211844657
 20
353.4379753323426
 30
0.0
 11
517.3640211844656
 21
352.4379753323424
 31
0.0
  0
ARC
  5
1C1
330
2
100
AcDbEntity
  8
0
100
AcDbCircle
 10
515.3640211844656
 20
353.9403011366966
 30
0.0
 40
2.5
100
AcDbArc
 50
36.80329727510421
 51
90.0
  0
LINE
  5
1C2
330
2
100
AcDbEntity
  8
0
100
AcDbLine
 10
538.3640211844656
 20
354.9379753323426
 30
0.0
 11
538.3640211844656
 21
353.4379753323426
 31
0.0
  0
LINE
  5
1C3
330
2
100
AcDbEntity
  8
LINIE
 48
10.0
100
AcDbLine
 10
543.3640211844656
 20
360.2850869825738
 30
0.0
 11
543.3640211844656
 21
354.9379753323426
 31
0.0
  0
LINE
  5
1C4
330
2
100
AcDbEntity
  8
BEM
100
AcDbLine
 10
561.3640211844656
 20
354.9379753323426
 30
0.0
 11
561.3640211844656
 21
330.9616083077251
 31
0.0
  0
LINE
  5
1C5
330
2
100
AcDbEntity
  8
BEM
100
AcDbLine
 10
552.3640211844656
 20
341.0742184197277
 30
0.0
 11
552.3640211844656
 21
327.926549798271
 31
0.0
  0
LINE
  5
1C6
330
2
100
AcDbEntity
  8
0
100
AcDbLine
 10
560.5520211844655
 20
355.7499753323426
 30
0.0
 11
561.3640211844656
 21
354.9379753323426
 31
0.0
  0
LINE
  5
1C7
330
2
100
AcDbEntity
  8
0
100
AcDbLine
 10
544.1760211844655
 20
355.7499753323426
 30
0.0
 11
560.5520211844655
 21
355.7499753323426
 31
0.0
  0
LINE
  5
1C8
330
2
100
AcDbEntity
  8
0
100
AcDbLine
 10
544.1760211844656
 20
360.3809110693266
 30
0.0
 11
544.1760211844656
 21
355.7499753323426
 31
0.0
  0
LINE
  5
1C9
330
2
100
AcDbEntity
  8
0
100
AcDbLine
 10
560.5520211844655
 20
360.350452483691
 30
0.0
 11
560.5520211844655
 21
355.7499753323426
 31
0.0
  0
LINE
  5
1CA
330
2
100
AcDbEntity
  8
0
100
AcDbLine
 10
566.3640211844656
 20
354.9379753323426
 30
0.0
 11
566.3640211844656
 21
353.4379753323426
 31
0.0
  0
LINE
  5
1CB
330
2
100
AcDbEntity
  8
LINIE
 48
10.0
100
AcDbLine
 10
561.3640211844656
 20
360.3108313863751
 30
0.0
 11
561.3640211844656
 21
354.9379753323426
 31
0.0
  0
LINE
  5
1DD
330
2
100
AcDbEntity
  8
0
100
AcDbLine
 10
591.3640211844655
 20
345.4379753323427
 30
0.0
 11
622.3640211844657
 21
345.4379753323428
 31
0.0
  0
LINE
  5
1DE
330
2
100
AcDbEntity
  8
0
100
AcDbLine
 10
594.8055211844657
 20
346.5999753323428
 30
0.0
 11
618.9225211844658
 21
346.5999753323429
 31
0.0
  0
HATCH
  5
1DF
330
2
100
AcDbEntity
  8
LINIE
 48
10.0
100
AcDbHatch
 10
0.0
 20
0.0
 30
0.0
210
0.0
220
0.0
230
1.0
  2
ANSI31
 70
     0
 71
     0
 91
        4
 92
        5
 93
        5
 72
     1
 10
620.0845211844656
 20
345.4379753323428
 11
622.3640211844657
 21
345.4379753323428
 72
     2
 10
622.3640211844657
 20
347.9379753323428
 40
2.499999999999999
 50
270.0
 51
360.0000000000013
 73
     1
 72
     1
 10
624.8640211844657
 20
347.9379753323429
 11
624.8640211844656
 21
349.6899812729511
 72
     4
 94
        3
 73
     0
 74
     0
 95
        9
 96
        5
 40
31.73585995709382
 40
31.73585995709382
 40
31.73585995709382
 40
31.73585995709382
 40
33.63609640649291
 40
36.857751855649
 40
36.857751855649
 40
36.857751855649
 40
36.857751855649
 10
624.8640211844657
 20
349.6899812729512
 10
624.3057139569079
 20
349.9928929982857
 10
622.8008542502971
 20
350.8093603976235
 10
621.1478646802596
 20
351.2600053568024
 10
620.084521184464
 20
351.45703660368
 72
     1
 10
620.0845211844656
 20
351.4570366036796
 11
620.0845211844656
 21
345.4379753323428
 97
        0
 92
        5
 93
        4
 72
     4
 94
        3
 73
     0
 74
     0
 95
        8
 96
        4
 40
30.57003609658486
 40
30.57003609658486
 40
30.57003609658486
 40
30.57003609658486
 40
31.73585995709381
 40
31.73585995709381
 40
31.73585995709381
 40
31.73585995709381
 10
620.0845211844641
 20
351.4570366036801
 10
619.6997279504017
 20
351.5283365091173
 10
619.3118419558855
 20
351.5883192456607
 10
618.9225211844656
 20
351.6397479591936
 72
     1
 10
618.9225211844656
 20
351.6397479591935
 11
618.9225211844655
 21
346.5999753323428
 72
     1
 10
618.9225211844655
 20
346.5999753323428
 11
620.0845211844657
 21
345.4379753323428
 72
     1
 10
620.0845211844657
 20
345.4379753323428
 11
620.0845211844656
 21
351.4570366036799
 97
        0
 92
        5
 93
        4
 72
     1
 10
593.6435211844657
 20
345.4379753323427
 11
594.8055211844656
 21
346.5999753323426
 72
     1
 10
594.8055211844656
 20
346.5999753323426
 11
594.8055211844656
 21
351.4748015915324
 72
     4
 94
        3
 73
     0
 74
     0
 95
        8
 96
        4
 40
5.132474026507138
 40
5.132474026507138
 40
5.132474026507138
 40
5.132474026507138
 40
6.360436656674873
 40
6.360436656674873
 40
6.360436656674873
 40
6.360436656674873
 10
594.8055211844823
 20
351.4748015915377
 10
594.4163396531457
 20
351.3575714007272
 10
594.0291334398573
 20
351.2293929674462
 10
593.6435211845194
 20
351.0923799881822
 72
     1
 10
593.6435211844655
 20
351.0923799881638
 11
593.6435211844657
 21
345.4379753323427
 97
        0
 92
        5
 93
        5
 72
     4
 94
        3
 73
     0
 74
     0
 95
        8
 96
        4
 40
0.0
 40
0.0
 40
0.0
 40
0.0
 40
5.132474026507137
 40
5.132474026507137
 40
5.132474026507137
 40
5.132474026507137
 10
593.6435211845194
 20
351.0923799881822
 10
592.0317906349061
 20
350.5197114556951
 10
590.4479059096858
 20
349.7927068467927
 10
588.8640211844655
 20
349.0657022378903
 72
     1
 10
588.8640211844655
 20
349.0657022378902
 11
588.8640211844655
 21
347.9379753323427
 72
     2
 10
591.3640211844655
 20
347.9379753323427
 40
2.5
 50
180.0
 51
270.0
 73
     1
 72
     1
 10
591.3640211844655
 20
345.4379753323427
 11
593.6435211844655
 21
345.4379753323427
 72
     1
 10
593.6435211844655
 20
345.4379753323427
 11
593.6435211844655
 21
351.0923799881608
 97
        0
 75
     0
 76
     1
 52
0.0
 41
20.0
 77
     0
 78
     1
 53
45.0
 43
33.46449639165872
 44
121.3083291967971
 45
-1.767766952966368
 46
1.767766952966368
 79
     0
 47
0.1218544639141766
 98
        4
 10
621.3045490059646
 20
347.9245914323133
 10
619.5980104927087
 20
348.6557169227106
 10
594.1218287832737
 20
348.2901551342145
 10
592.6590822488194
 20
347.9245914323133
  0
SPLINE
  5
1E0
330
2
100
AcDbEntity
  8
LINIE
 48
10.0
100
AcDbSpline
210
0.0
220
0.0
230
1.0
 70
     8
 71
     3
 72
    12
 73
     8
 74
     6
 42
0.0000000001
 43
0.0000000001
 44
0.0000000001
 40
0.0
 40
0.0
 40
0.0
 40
0.0
 40
8.823504819814441
 40
17.17642179202402
 40
29.12386730704584
 40
34.9575154062499
 40
36.85775185564901
 40
36.85775185564901
 40
36.85775185564901
 40
36.85775185564901
 10
588.8640211844655
 20
349.0657022378903
 30
0.0
 10
591.5869603430144
 20
350.315533924821
 30
0.0
 10
596.8876149532126
 20
352.7485394778471
 30
0.0
 10
606.7843399718042
 20
351.8352747761078
 30
0.0
 10
615.3913913346719
 20
352.2405124886597
 30
0.0
 10
622.0334263992469
 20
351.2257313184301
 30
0.0
 10
624.3057139569079
 20
349.9928929982856
 30
0.0
 10
624.8640211844657
 20
349.6899812729512
 30
0.0
 11
588.8640211844655
 21
349.0657022378903
 31
0.0
 11
597.1743213085999
 21
352.031026697726
 31
0.0
 11
605.5268737673925
 21
352.1090610987574
 31
0.0
 11
617.4702411006035
 21
351.796921581227
 31
0.0
 11
623.1687104469176
 21
350.5483635111056
 31
0.0
 11
624.8640211844657
 21
349.6899812729512
 31
0.0
  0
ARC
  5
1E1
330
2
100
AcDbEntity
  8
0
100
AcDbCircle
 10
586.3640211844654
 20
349.9379753323425
 30
0.0
 40
2.5
100
AcDbArc
 50
0.0
 51
66.42182152179518
  0
LINE
  5
1E2
330
2
100
AcDbEntity
  8
0
100
AcDbLine
 10
594.8055211844656
 20
351.4748015916304
 30
0.0
 11
594.8055211844656
 21
346.5999753323428
 31
0.0
  0
LINE
  5
1E3
330
2
100
AcDbEntity
  8
0
100
AcDbLine
 10
588.8640211844655
 20
349.9379753323425
 30
0.0
 11
588.8640211844655
 21
347.9379753323427
 31
0.0
  0
ARC
  5
1E4
330
2
100
AcDbEntity
  8
0
100
AcDbCircle
 10
591.3640211844655
 20
347.9379753323427
 30
0.0
 40
2.5
100
AcDbArc
 50
180.0
 51
270.0
  0
LINE
  5
1E5
330
2
100
AcDbEntity
  8
0
100
AcDbLine
 10
594.8055211844656
 20
346.5999753323427
 30
0.0
 11
593.6435211844655
 21
345.4379753323427
 31
0.0
  0
LINE
  5
1E6
330
2
100
AcDbEntity
  8
LINIE
 48
10.0
100
AcDbLine
 10
593.6435211844655
 20
351.092379988163
 30
0.0
 11
593.6435211844655
 21
345.4379753323427
 31
0.0
  0
ARC
  5
1E7
330
2
100
AcDbEntity
  8
0
100
AcDbCircle
 10
583.3640211844656
 20
352.9379753323425
 30
0.0
 40
2.5
100
AcDbArc
 50
90.0000000000001
 51
168.463040967181
  0
LINE
  5
1E8
330
2
100
AcDbEntity
  8
0
100
AcDbLine
 10
587.3640211844656
 20
353.4379753323426
 30
0.0
 11
587.3640211844656
 21
352.2292631798204
 31
0.0
  0
LINE
  5
1EA
330
2
100
AcDbEntity
  8
0
100
AcDbLine
 10
618.9225211844656
 20
351.6397479591941
 30
0.0
 11
618.9225211844656
 21
346.5999753323428
 31
0.0
  0
LINE
  5
1EB
330
2
100
AcDbEntity
  8
0
100
AcDbLine
 10
618.9225211844656
 20
346.5999753323428
 30
0.0
 11
620.0845211844656
 21
345.4379753323428
 31
0.0
  0
LINE
  5
1EC
330
2
100
AcDbEntity
  8
LINIE
 48
10.0
100
AcDbLine
 10
620.0845211844656
 20
351.4570366036861
 30
0.0
 11
620.0845211844656
 21
345.4379753323428
 31
0.0
  0
ARC
  5
1ED
330
2
100
AcDbEntity
  8
0
100
AcDbCircle
 10
622.3640211844657
 20
347.9379753323428
 30
0.0
 40
2.5
100
AcDbArc
 50
269.9999999999999
 51
0.0
  0
ARC
  5
1EE
330
2
100
AcDbEntity
  8
0
100
AcDbCircle
 10
612.8640211844655
 20
363.4379753323427
 30
0.0
 40
8.0
100
AcDbArc
 50
270.0
 51
0.0
  0
CIRCLE
  5
1F0
330
2
100
AcDbEntity
  8
0
100
AcDbCircle
 10
687.2768532229439
 20
329.726034555217
 30
0.0
 40
4.5
  0
ARC
  5
1F1
330
2
100
AcDbEntity
  8
MITTE
 48
10.0
100
AcDbCircle
 10
733.2387940000696
 20
375.6879753323426
 30
0.0
 40
65.0
100
AcDbArc
 50
302.2549487139556
 51
325.7553938016313
  0
CIRCLE
  5
1F2
330
2
100
AcDbEntity
  8
0
100
AcDbCircle
 10
779.2007347771953
 20
329.726034555217
 30
0.0
 40
4.5
  0
LINE
  5
1F3
330
2
100
AcDbEntity
  8
MITTE
 48
10.0
100
AcDbLine
 10
650.8163559777969
 20
375.6879753323426
 30
0.0
 11
815.021188606139
 21
375.6879753323426
 31
0.0
  0
LINE
  5
200
330
2
100
AcDbEntity
  8
0
100
AcDbLine
 10
497.2229201280062
 20
464.4379753323426
 30
0.0
 11
611.5211325312299
 21
464.4379753323426
 31
0.0
  0
LINE
  5
201
330
2
100
AcDbEntity
  8
MITTE
 48
10.0
100
AcDbLine
 10
488.527605334458
 20
410.4379753323426
 30
0.0
 11
624.3867822524109
 21
410.4379753323426
 31
0.0
  0
LINE
  5
202
330
2
100
AcDbEntity
  8
0
100
AcDbLine
 10
492.8640211844657
 20
465.1879753323426
 30
0.0
 11
492.8640211844657
 21
446.4379753323425
 31
0.0
1001
ACAD
1000
ASC_BOUNDS
1002
{
1070
    19
1005
0
1002
}
  0
LINE
  5
203
330
2
100
AcDbEntity
  8
0
100
AcDbLine
 10
492.8640211844656
 20
453.4388987251248
 30
0.0
 11
515.3640211844656
 21
453.4388987251248
 31
0.0
  0
LINE
  5
204
330
2
100
AcDbEntity
  8
0
100
AcDbLine
 10
492.8640211844656
 20
445.557215978441
 30
0.0
 11
515.3640211844656
 21
445.557215978441
 31
0.0
  0
LINE
  5
205
330
2
100
AcDbEntity
  8
0
100
AcDbLine
 10
492.8640211844656
 20
368.9261743376862
 30
0.0
 11
515.3640211844656
 21
368.9261743376862
 31
0.0
  0
LINE
  5
206
330
2
100
AcDbEntity
  8
0
100
AcDbLine
 10
458.8640211844658
 20
423.1879753323426
 30
0.0
 11
458.8640211844658
 21
408.1879753323427
 31
0.0
1001
ACAD
1000
ASC_BOUNDS
1002
{
1070
    19
1005
0
1002
}
  0
LINE
  5
207
330
2
100
AcDbEntity
  8
LINIE
100
AcDbLine
 10
497.2229201280062
 20
444.6064152732861
 30
0.0
 11
497.222920128006
 21
370.162512795711
 31
0.0
  0
LINE
  5
208
330
2
100
AcDbEntity
  8
LINIE
100
AcDbLine
 10
463.8640211844658
 20
423.1879753323426
 30
0.0
 11
463.8640211844658
 21
386.1862033882467
 31
0.0
1001
ACAD
1000
ASC_BOUNDS
1002
{
1070
    19
1005
0
1005
0
1002
}
  0
ARC
  5
209
330
2
100
AcDbEntity
  8
0
100
AcDbCircle
 10
457.3760554171837
 20
391.1879753323426
 30
0.0
 40
10.0
100
AcDbArc
 50
270.0
 51
330.0
  0
ARC
  5
20A
330
2
100
AcDbEntity
  8
0
100
AcDbCircle
 10
457.3760554171837
 20
363.1879753323426
 30
0.0
 40
10.0
100
AcDbArc
 50
29.99999999999999
 51
90.0
  0
LINE
  5
20B
330
2
100
AcDbEntity
  8
LINIE
100
AcDbLine
 10
463.8640211844658
 20
381.369338766094
 30
0.0
 11
463.8640211844658
 21
372.0796712805138
 31
0.0
1001
ACAD
1000
ASC_BOUNDS
1002
{
1070
    19
1002
}
  0
ARC
  5
20C
330
2
100
AcDbEntity
  8
0
100
AcDbCircle
 10
456.3640211844658
 20
408.1879753323427
 30
0.0
 40
2.5
100
AcDbArc
 50
270.0
 51
0.0
1001
ACAD
1000
ASC_BOUNDS
1002
{
1070
    19
1005
0
1002
}
  0
ARC
  5
20D
330
2
100
AcDbEntity
  8
0
100
AcDbCircle
 10
452.8135109272489
 20
408.1879753323427
 30
0.0
 40
2.5
100
AcDbArc
 50
191.5369590328169
 51
270.0
  0
LINE
  5
20E
330
2
100
AcDbEntity
  8
MITTE
 48
5.0
100
AcDbLine
 10
442.8640211844657
 20
411.6542815896753
 30
0.0
 11
442.8640211844657
 21
401.1508606668744
 31
0.0
  0
LINE
  5
20F
330
2
100
AcDbEntity
  8
MITTE
 48
5.0
100
AcDbLine
 10
483.1496960383936
 20
410.4379753323426
 30
0.0
 11
500.7255511926207
 21
410.4379753323426
 31
0.0
  0
ARC
  5
210
330
2
100
AcDbEntity
  8
0
100
AcDbCircle
 10
473.8640211844658
 20
423.1879753323426
 30
0.0
 40
15.0
100
AcDbArc
 50
78.40981768499287
 51
180.0
1001
ACAD
1000
ASC_BOUNDS
1002
{
1070
    19
1005
0
1002
}
  0
ARC
  5
211
330
2
100
AcDbEntity
  8
0
100
AcDbCircle
 10
452.2133860898549
 20
435.6879753323426
 30
0.0
 40
10.0
100
AcDbArc
 50
270.0
 51
330.0
  0
ARC
  5
212
330
2
100
AcDbEntity
  8
0
100
AcDbCircle
 10
481.3640211844658
 20
442.6313510053166
 30
0.0
 40
2.5
100
AcDbArc
 50
300.0
 51
0.0
1001
ACAD
1000
ASC_BOUNDS
1002
{
1070
    19
1005
0
1002
}
  0
ARC
  5
213
330
2
100
AcDbEntity
  8
0
100
AcDbCircle
 10
477.3799473581337
 20
440.3311449092124
 30
0.0
 40
2.5
100
AcDbArc
 50
258.4098176849932
 51
299.9999999999992
1001
ACAD
1000
ASC_BOUNDS
1002
{
1070
    19
1005
0
1002
}
  0
LINE
  5
214
330
2
100
AcDbEntity
  8
0
100
AcDbLine
 10
478.6299473581336
 20
438.1660813997513
 30
0.0
 11
482.6140211844658
 21
440.4662874958555
 31
0.0
1001
ACAD
1000
ASC_BOUNDS
1002
{
1070
    19
1005
0
1002
}
  0
LINE
  5
215
330
2
100
AcDbEntity
  8
LINIE
100
AcDbLine
 10
497.2229201280062
 20
461.4428154464535
 30
0.0
 11
497.2229201280062
 21
454.2280541768791
 31
0.0
  0
ARC
  5
216
330
2
100
AcDbEntity
  8
0
100
AcDbCircle
 10
515.3640211844656
 20
371.4261743376862
 30
0.0
 40
2.5
100
AcDbArc
 50
270.0
 51
0.0
  0
LINE
  5
217
330
2
100
AcDbEntity
  8
LINIE
100
AcDbLine
 10
514.8640211844656
 20
452.8754099971179
 30
0.0
 11
514.8640211844656
 21
446.093337852963
 31
0.0
  0
ARC
  5
218
330
2
100
AcDbEntity
  8
0
100
AcDbCircle
 10
515.3640211844656
 20
443.057215978441
 30
0.0
 40
2.5
100
AcDbArc
 50
0.0
 51
90.0
  0
ARC
  5
219
330
2
100
AcDbEntity
  8
0
100
AcDbCircle
 10
515.3640211844656
 20
455.9388987251248
 30
0.0
 40
2.5
100
AcDbArc
 50
270.0
 51
0.0
  0
LINE
  5
21A
330
2
100
AcDbEntity
  8
0
100
AcDbLine
 10
495.8640211844656
 20
465.4379753323424
 30
0.0
 11
492.8640211844656
 21
465.4379753323424
 31
0.0
  0
LINE
  5
21B
330
2
100
AcDbEntity
  8
0
100
AcDbLine
 10
492.8640211844657
 20
465.1879753323426
 30
0.0
 11
483.8640211844658
 21
465.1879753323425
 31
0.0
1001
ACAD
1000
ASC_BOUNDS
1002
{
1070
    19
1005
0
1002
}
  0
ARC
  5
21C
330
2
100
AcDbEntity
  8
0
100
AcDbCircle
 10
495.785594089225
 20
463.9080976660973
 30
0.0
 40
1.53188657639655
100
AcDbArc
 50
20.23666902886436
 51
87.06537877672884
  0
ARC
  5
21D
330
2
100
AcDbEntity
  8
0
100
AcDbCircle
 10
611.5211325312299
 20
456.4379753323426
 30
0.0
 40
8.0
100
AcDbArc
 50
4.999999999999796
 51
90.0
  0
ARC
  5
21E
330
2
100
AcDbEntity
  8
0
100
AcDbCircle
 10
630.8640211844656
 20
379.2616876438162
 30
0.0
 40
10.0
100
AcDbArc
 50
180.0
 51
219.384207682997
  0
ARC
  5
21F
330
2
100
AcDbEntity
  8
0
100
AcDbCircle
 10
614.8640211844655
 20
367.2958397086118
 30
0.0
 40
10.0
100
AcDbArc
 50
0.0000000000004071
 51
34.19888562142068
  0
LINE
  5
220
330
2
100
AcDbEntity
  8
0
100
AcDbLine
 10
620.8640211844656
 20
441.4379753323426
 30
0.0
 11
619.4906901159638
 21
457.1352212743238
 31
0.0
  0
ARC
  5
221
330
2
100
AcDbEntity
  8
0
100
AcDbCircle
 10
733.2387940000696
 20
410.1879753323426
 30
0.0
 40
55.0
100
AcDbArc
 50
32.26219197885932
 51
147.7378080211406
  0
CIRCLE
  5
222
330
2
100
AcDbEntity
  8
0
100
AcDbCircle
 10
733.2387940000696
 20
375.6879753323426
 30
0.0
 40
7.000000000000113
  0
CIRCLE
  5
223
330
2
100
AcDbEntity
  8
0
100
AcDbCircle
 10
733.2387940000696
 20
375.6879753323426
 30
0.0
 40
8.0
  0
ARC
  5
224
330
2
100
AcDbEntity
  8
MITTE
 48
10.0
100
AcDbCircle
 10
733.2387940000696
 20
375.6879753323426
 30
0.0
 40
65.0
100
AcDbArc
 50
125.8723299999453
 51
147.1814256499878
  0
CIRCLE
  5
225
330
2
100
AcDbEntity
  8
0
100
AcDbCircle
 10
687.2768532229439
 20
421.6499161094682
 30
0.0
 40
4.5
  0
ARC
  5
226
330
2
100
AcDbEntity
  8
0
100
AcDbCircle
 10
699.2976685031152
 20
444.3791008292969
 30
0.0
 40
3.5
100
AcDbArc
 50
68.20870178834252
 51
164.3803798157543
  0
LINE
  5
227
330
2
100
AcDbEntity
  8
MITTE
 48
5.0
100
AcDbLine
 10
697.5232169171257
 20
446.1535524152863
 30
0.0
 11
695.4379810026158
 21
448.2387883297962
 31
0.0
  0
ARC
  5
228
330
2
100
AcDbEntity
  8
MITTE
 48
10.0
100
AcDbCircle
 10
733.2387940000696
 20
375.6879753323426
 30
0.0
 40
65.0
100
AcDbArc
 50
6.608485864232861
 51
59.16610997936128
  0
ARC
  5
229
330
2
100
AcDbEntity
  8
0
100
AcDbCircle
 10
767.1799194970238
 20
444.3791008292969
 30
0.0
 40
3.5
100
AcDbArc
 50
15.61962018424568
 51
111.7912982116557
  0
LINE
  5
22A
330
2
100
AcDbEntity
  8
MITTE
 48
5.0
100
AcDbLine
 10
768.9543710830132
 20
446.1535524152863
 30
0.0
 11
770.9271152311883
 21
448.1262965634613
 31
0.0
  0
CIRCLE
  5
22B
330
2
100
AcDbEntity
  8
0
100
AcDbCircle
 10
779.2007347771953
 20
421.6499161094682
 30
0.0
 40
4.5
  0
ENDSEC
  0
SECTION
  2
OBJECTS
  0
DICTIONARY
  5
1B
330
0
100
AcDbDictionary
281
     1
  3
ACAD_COLOR
350
307
  3
ACAD_GROUP
350
19
  3
ACAD_LAYOUT
350
289
  3
ACAD_MATERIAL
350
306
  3
ACAD_MLEADERSTYLE
350
4A5
  3
ACAD_MLINESTYLE
350
1A
  3
ACAD_PLOTSETTINGS
350
28A
  3
ACAD_PLOTSTYLENAME
350
287
  3
ACAD_SCALELIST
350
483
  3
ACAD_TABLESTYLE
350
3D4
  3
ACAD_VISUALSTYLE
350
3FA
  3
ACDB_RECOMPOSE_DATA
350
4DE
  3
ACDBVARIABLEDICTIONARY
350
24E
  3
ACMDICTIONARY
350
22C
  3
AMG
350
292
  3
AMGSNAPSETTINGS
350
2F1
  3
ASE_INDEX_DICTIONARY
350
79B
  0
DICTIONARY
  5
4C7
330
5
100
AcDbDictionary
280
     1
281
     1
  3
ADSK_XREC_LAYER_RECONCILED
360
4C8
  0
DICTIONARY
  5
4C9
330
1F
100
AcDbDictionary
280
     1
281
     1
  3
ADSK_XREC_LAYER_RECONCILED
360
4CA
  0
DICTIONARY
  5
4CB
330
38
100
AcDbDictionary
280
     1
281
     1
  3
ADSK_XREC_LAYER_RECONCILED
360
4CC
  0
DICTIONARY
  5
4CD
330
7E
100
AcDbDictionary
280
     1
281
     1
  3
ADSK_XREC_LAYER_RECONCILED
360
4CE
  0
DICTIONARY
  5
3
330
2
100
AcDbDictionary
280
     1
281
     1
  3
ACAD_SORTENTS
360
60E
  0
DICTIONARY
  5
307
102
{ACAD_REACTORS
330
1B
102
}
330
1B
100
AcDbDictionary
281
     1
  0
DICTIONARY
  5
19
102
{ACAD_REACTORS
330
1B
102
}
330
1B
100
AcDbDictionary
281
     1
  0
DICTIONARY
  5
289
102
{ACAD_REACTORS
330
1B
102
}
330
1B
100
AcDbDictionary
281
     1
  3
Layout1
350
28C
  3
Model
350
28B
  0
DICTIONARY
  5
306
102
{ACAD_REACTORS
330
1B
102
}
330
1B
100
AcDbDictionary
281
     1
  3
ByBlock
350
3F8
  3
ByLayer
350
3F7
  3
Global
350
3F9
  0
DICTIONARY
  5
4A5
102
{ACAD_REACTORS
330
1B
102
}
330
1B
100
AcDbDictionary
281
     1
  3
Standard
350
4A6
  0
DICTIONARY
  5
1A
102
{ACAD_REACTORS
330
1B
102
}
330
1B
100
AcDbDictionary
281
     1
  3
STANDARD
350
1C
  0
DICTIONARY
  5
28A
102
{ACAD_REACTORS
330
1B
102
}
330
1B
100
AcDbDictionary
281
     1
  0
ACDBDICTIONARYWDFLT
  5
287
102
{ACAD_REACTORS
330
1B
102
}
330
1B
100
AcDbDictionary
281
     1
  3
Normal
350
288
100
AcDbDictionaryWithDefault
340
288
  0
DICTIONARY
  5
483
102
{ACAD_REACTORS
330
1B
102
}
330
1B
100
AcDbDictionary
281
     1
  3
A0
350
484
  3
A1
350
485
  3
A2
350
486
  3
A3
350
487
  3
A4
350
488
  3
A5
350
489
  3
A6
350
48A
  3
A7
350
48B
  3
A8
350
48C
  3
A9
350
48D
  3
B0
350
48E
  3
B1
350
48F
  3
B2
350
490
  3
B3
350
491
  3
B4
350
492
  3
B5
350
493
  3
B6
350
494
  3
B7
350
495
  3
B8
350
496
  3
B9
350
497
  3
C0
350
498
  3
C1
350
499
  3
C2
350
49A
  3
C3
350
49B
  3
C4
350
49C
  3
C5
350
49D
  3
C6
350
49E
  3
C7
350
49F
  3
C8
350
4A0
  3
C9
350
4A1
  3
D0
350
4A2
  3
D1
350
4A3
  3
D2
350
4A4
  0
DICTIONARY
  5
3D4
102
{ACAD_REACTORS
330
1B
102
}
330
1B
100
AcDbDictionary
281
     1
  3
Standard
350
3D5
  0
DICTIONARY
  5
3FA
102
{ACAD_REACTORS
330
1B
102
}
330
1B
100
AcDbDictionary
281
     1
  3
2dWireframe
350
400
  3
3D Hidden
350
402
  3
3dWireframe
350
401
  3
Basic
350
3FF
  3
Brighten
350
406
  3
ColorChange
350
40A
  3
Conceptual
350
403
  3
Dim
350
405
  3
Facepattern
350
409
  3
Flat
350
3FB
  3
FlatWithEdges
350
3FC
  3
Gouraud
350
3FD
  3
GouraudWithEdges
350
3FE
  3
Linepattern
350
408
  3
Realistic
350
404
  3
Thicken
350
407
  0
XRECORD
  5
4DE
102
{ACAD_REACTORS
330
1B
102
}
330
1B
100
AcDbXrecord
280
     1
 90
        1
330
3D5
  0
DICTIONARY
  5
24E
102
{ACAD_REACTORS
330
1B
102
}
330
1B
100
AcDbDictionary
281
     1
  3
CANNOSCALE
350
4E1
  3
CMLEADERSTYLE
350
4DF
  3
CTABLESTYLE
350
3F5
  3
DIMASSOC
350
302
  3
INDEXCTL
350
24F
  3
LIGHTINGUNITS
350
4E2
  3
MSLTSCALE
350
4E0
  0
DICTIONARY
  5
22C
102
{ACAD_REACTORS
330
1B
102
}
330
1B
100
AcDbDictionary
281
     1
  3
ACMSTDDICTIONARY
350
22D
  3
AMDTSECTSYM_ARROWCOLOR
350
3DE
  0
DICTIONARY
  5
292
102
{ACAD_REACTORS
330
1B
102
}
330
1B
100
AcDbDictionary
281
     1
  0
DICTIONARY
  5
2F1
102
{ACAD_REACTORS
330
1B
102
}
330
1B
100
AcDbDictionary
281
     1
  0
DICTIONARY
  5
79B
102
{ACAD_REACTORS
330
1B
102
}
330
1B
100
AcDbDictionary
281
     1
  3
ASEBlockHierarchyIndexRecord
350
79C
1001
DCO15
1040
1724493769.801
  0
XRECORD
  5
4C8
102
{ACAD_REACTORS
330
4C7
102
}
330
4C7
100
AcDbXrecord
280
     1
290
     1
  0
XRECORD
  5
4CA
102
{ACAD_REACTORS
330
4C9
102
}
330
4C9
100
AcDbXrecord
280
     1
290
     1
  0
XRECORD
  5
4CC
102
{ACAD_REACTORS
330
4CB
102
}
330
4CB
100
AcDbXrecord
280
     1
290
     1
  0
XRECORD
  5
4CE
102
{ACAD_REACTORS
330
4CD
102
}
330
4CD
100
AcDbXrecord
280
     1
290
     1
  0
SORTENTSTABLE
  5
60E
102
{ACAD_REACTORS
330
3
102
}
330
3
100
AcDbSortentsTable
330
2
331
75
  5
75
331
1C0
  5
1C0
331
7D
  5
7D
331
F3
  5
F3
331
217
  5
217
331
1C8
  5
1C8
331
B4
  5
B4
331
FB
  5
FB
331
C4
  5
C4
331
142
  5
142
331
21F
  5
21F
331
14A
  5
14A
331
CC
  5
CC
331
1E0
  5
1E0
331
227
  5
227
331
85
  5
85
331
36
  5
36
331
113
  5
113
331
D4
  5
D4
331
152
  5
152
331
1E8
  5
1E8
331
1B1
  5
1B1
331
15A
  5
15A
331
DC
  5
DC
331
11B
  5
11B
331
1F0
  5
1F0
331
1B9
  5
1B9
331
162
  5
162
331
E4
  5
E4
331
123
  5
123
331
200
  5
200
331
EC
  5
EC
331
208
  5
208
331
76
  5
76
331
210
  5
210
331
F4
  5
F4
331
1C1
  5
1C1
331
218
  5
218
331
1C9
  5
1C9
331
FC
  5
FC
331
13B
  5
13B
331
220
  5
220
331
C5
  5
C5
331
143
  5
143
331
228
  5
228
331
CD
  5
CD
331
14B
  5
14B
331
1E1
  5
1E1
331
86
  5
86
331
37
  5
37
331
153
  5
153
331
D5
  5
D5
331
114
  5
114
331
1F1
  5
1F1
331
15B
  5
15B
331
11C
  5
11C
331
DD
  5
DD
331
1B2
  5
1B2
331
1BA
  5
1BA
331
124
  5
124
331
E5
  5
E5
331
163
  5
163
331
201
  5
201
331
ED
  5
ED
331
209
  5
209
331
77
  5
77
331
211
  5
211
331
1C2
  5
1C2
331
F5
  5
F5
331
1CA
  5
1CA
331
13C
  5
13C
331
FD
  5
FD
331
219
  5
219
331
144
  5
144
331
221
  5
221
331
1E2
  5
1E2
331
10D
  5
10D
331
CE
  5
CE
331
14C
  5
14C
331
229
  5
229
331
87
  5
87
331
30
  5
30
331
115
  5
115
331
D6
  5
D6
331
154
  5
154
331
1EA
  5
1EA
331
1B3
  5
1B3
331
15C
  5
15C
331
DE
  5
DE
331
11D
  5
11D
331
1F2
  5
1F2
331
202
  5
202
331
164
  5
164
331
E6
  5
E6
331
125
  5
125
331
1BB
  5
1BB
331
20A
  5
20A
331
EE
  5
EE
331
70
  5
70
331
78
  5
78
331
212
  5
212
331
F6
  5
F6
331
1C3
  5
1C3
331
21A
  5
21A
331
1CB
  5
1CB
331
FE
  5
FE
331
13D
  5
13D
331
145
  5
145
331
222
  5
222
331
14D
  5
14D
331
CF
  5
CF
331
10E
  5
10E
331
1E3
  5
1E3
331
22A
  5
22A
331
80
  5
80
331
31
  5
31
331
88
  5
88
331
155
  5
155
331
D7
  5
D7
331
116
  5
116
331
1EB
  5
1EB
331
1F3
  5
1F3
331
1B4
  5
1B4
331
11E
  5
11E
331
DF
  5
DF
331
15D
  5
15D
331
1BC
  5
1BC
331
126
  5
126
331
E7
  5
E7
331
165
  5
165
331
203
  5
203
331
20B
  5
20B
331
EF
  5
EF
331
71
  5
71
331
79
  5
79
331
213
  5
213
331
1C4
  5
1C4
331
21B
  5
21B
331
13E
  5
13E
331
FF
  5
FF
331
C8
  5
C8
331
146
  5
146
331
223
  5
223
331
1E4
  5
1E4
331
10F
  5
10F
331
14E
  5
14E
331
22B
  5
22B
331
81
  5
81
331
89
  5
89
331
32
  5
32
331
D0
  5
D0
331
1AD
  5
1AD
331
117
  5
117
331
D8
  5
D8
331
156
  5
156
331
1EC
  5
1EC
331
1B5
  5
1B5
331
15E
  5
15E
331
E0
  5
E0
331
11F
  5
11F
331
204
  5
204
331
E8
  5
E8
331
127
  5
127
331
1BD
  5
1BD
331
20C
  5
20C
331
72
  5
72
331
7A
  5
7A
331
F0
  5
F0
331
214
  5
214
331
F8
  5
F8
331
1C5
  5
1C5
331
21C
  5
21C
331
224
  5
224
331
C9
  5
C9
331
147
  5
147
331
1DD
  5
1DD
331
14F
  5
14F
331
1E5
  5
1E5
331
82
  5
82
331
33
  5
33
331
8A
  5
8A
331
D1
  5
D1
331
110
  5
110
331
1ED
  5
1ED
331
157
  5
157
331
D9
  5
D9
331
118
  5
118
331
1AE
  5
1AE
331
1B6
  5
1B6
331
120
  5
120
331
E1
  5
E1
331
15F
  5
15F
331
1BE
  5
1BE
331
E9
  5
E9
331
205
  5
205
331
20D
  5
20D
331
73
  5
73
331
128
  5
128
331
7B
  5
7B
331
F1
  5
F1
331
215
  5
215
331
1C6
  5
1C6
331
F9
  5
F9
331
18F
  5
18F
331
21D
  5
21D
331
CA
  5
CA
331
148
  5
148
331
1DE
  5
1DE
331
225
  5
225
331
1E6
  5
1E6
331
83
  5
83
331
34
  5
34
331
111
  5
111
331
D2
  5
D2
331
150
  5
150
331
1AF
  5
1AF
331
158
  5
158
331
DA
  5
DA
331
119
  5
119
331
1EE
  5
1EE
331
1B7
  5
1B7
331
160
  5
160
331
E2
  5
E2
331
121
  5
121
331
206
  5
206
331
EA
  5
EA
331
1BF
  5
1BF
331
20E
  5
20E
331
74
  5
74
331
7C
  5
7C
331
F2
  5
F2
331
216
  5
216
331
FA
  5
FA
331
1C7
  5
1C7
331
21E
  5
21E
331
190
  5
190
331
141
  5
141
331
226
  5
226
331
CB
  5
CB
331
149
  5
149
331
1DF
  5
1DF
331
1E7
  5
1E7
331
84
  5
84
331
35
  5
35
331
151
  5
151
331
D3
  5
D3
331
112
  5
112
331
159
  5
159
331
DB
  5
DB
331
11A
  5
11A
331
1B0
  5
1B0
331
1B8
  5
1B8
331
122
  5
122
331
E3
  5
E3
331
161
  5
161
331
207
  5
207
331
EB
  5
EB
331
20F
  5
20F
  0
LAYOUT
  5
28C
102
{ACAD_REACTORS
330
289
102
}
330
289
100
AcDbPlotSettings
  1

  2
Kein
  4

  6

 40
0.0
 41
0.0
 42
0.0
 43
0.0
 44
0.0
 45
0.0
 46
0.0
 47
0.0
 48
0.0
 49
0.0
140
0.0
141
0.0
142
1.0
143
1.0
 70
   688
 72
     0
 73
     0
 74
     5
  7
Zeich.ctb
 75
    16
147
1.0
 76
     0
 77
     2
 78
   300
148
0.0
149
0.0
100
AcDbLayout
  1
Layout1
 70
     0
 71
     1
 10
0.0
 20
0.0
 11
420.0
 21
297.0
 12
0.0
 22
0.0
 32
0.0
 14
1.000000000000000E+20
 24
1.000000000000000E+20
 34
1.000000000000000E+20
 15
-1.000000000000000E+20
 25
-1.000000000000000E+20
 35
-1.000000000000000E+20
146
0.0
 13
0.0
 23
0.0
 33
0.0
 16
1.0
 26
0.0
 36
0.0
 17
0.0
 27
1.0
 37
0.0
 76
     0
330
8
  0
LAYOUT
  5
28B
102
{ACAD_REACTORS
330
289
102
}
330
289
100
AcDbPlotSettings
  1

  2
Konstruktion
  4
A4
  6

 40
7.143749713897705
 41
7.186082363128662
 42
7.059066772460937
 43
5.027069091796875
 44
209.9733276367187
 45
296.9683227539062
 46
16.29476104237422
 47
0.0
 48
0.0
 49
0.0
140
0.0
141
0.0
142
1.0
143
2.973858526776925
 70
  3764
 72
     1
 73
     1
 74
     1
  7
Zeich.ctb
 75
     0
147
0.3362634742022521
 76
     0
 77
     2
 78
   300
148
-8.801424155013592
149
-54.14962920377684
100
AcDbLayout
  1
Model
 70
     1
 71
     0
 10
0.0
 20
0.0
 11
12.0
 21
9.0
 12
0.0
 22
0.0
 32
0.0
 14
0.0
 24
0.0
 34
0.0
 15
0.0
 25
0.0
 35
0.0
146
0.0
 13
0.0
 23
0.0
 33
0.0
 16
1.0
 26
0.0
 36
0.0
 17
0.0
 27
1.0
 37
0.0
 76
     0
330
2
331
3F4
1001
ACAD_PSEXT
1000
Konstruktion
1000
Kyocera FS-1030D
1000
IP_192.168.10.181
1000

1070
     0
  0
MATERIAL
  5
3F8
102
{ACAD_XDICTIONARY
360
7FB
102
}
102
{ACAD_REACTORS
330
306
102
}
330
306
100
AcDbMaterial
  1
ByBlock
 73
     1
 78
     1
172
     1
176
     1
270
     1
274
     1
  0
MATERIAL
  5
3F7
102
{ACAD_XDICTIONARY
360
7F9
102
}
102
{ACAD_REACTORS
330
306
102
}
330
306
100
AcDbMaterial
  1
ByLayer
 73
     1
 78
     1
172
     1
176
     1
270
     1
274
     1
  0
MATERIAL
  5
3F9
102
{ACAD_XDICTIONARY
360
7FD
102
}
102
{ACAD_REACTORS
330
306
102
}
330
306
100
AcDbMaterial
  1
Global
 73
     1
 78
     1
172
     1
176
     1
270
     1
274
     1
  0
MLEADERSTYLE
  5
4A6
102
{ACAD_REACTORS
330
4A5
102
}
330
4A5
100
AcDbMLeaderStyle
170
     2
171
     1
172
     0
 90
        2
 40
0.0
 41
0.0
173
     1
 91
-1056964608
340
F
 92
       -2
290
     1
 42
0.09
291
     1
 43
0.36
  3
Standard
 44
0.18
300

342
D
174
     1
178
     6
175
     1
176
     0
 93
-1056964608
 45
0.18
292
     0
297
     0
 46
0.18
 94
-1056964608
 47
1.0
 49
1.0
140
1.0
293
     1
141
0.0
294
     1
177
     0
142
1.0
295
     0
296
     0
143
0.125
1001
ACAD_MLEADERVER
1070
     2
  0
MLINESTYLE
  5
1C
102
{ACAD_REACTORS
330
1A
102
}
330
1A
100
AcDbMlineStyle
  2
STANDARD
 70
     0
  3

 62
     0
 51
90.0
 52
90.0
 71
     2
 49
0.5
 62
   256
  6
BYLAYER
 49
-0.5
 62
   256
  6
BYLAYER
  0
ACDBPLACEHOLDER
  5
288
102
{ACAD_REACTORS
330
287
102
}
330
287
  0
SCALE
  5
484
102
{ACAD_REACTORS
330
483
102
}
330
483
100
AcDbScale
 70
     0
300
1:1
140
1.0
141
1.0
290
     1
  0
SCALE
  5
485
102
{ACAD_REACTORS
330
483
102
}
330
483
100
AcDbScale
 70
     0
300
1:2
140
1.0
141
2.0
290
     0
  0
SCALE
  5
486
102
{ACAD_REACTORS
330
483
102
}
330
483
100
AcDbScale
 70
     0
300
1:4
140
1.0
141
4.0
290
     0
  0
SCALE
  5
487
102
{ACAD_REACTORS
330
483
102
}
330
483
100
AcDbScale
 70
     0
300
1:5
140
1.0
141
5.0
290
     0
  0
SCALE
  5
488
102
{ACAD_REACTORS
330
483
102
}
330
483
100
AcDbScale
 70
     0
300
1:8
140
1.0
141
8.0
290
     0
  0
SCALE
  5
489
102
{ACAD_REACTORS
330
483
102
}
330
483
100
AcDbScale
 70
     0
300
1:10
140
1.0
141
10.0
290
     0
  0
SCALE
  5
48A
102
{ACAD_REACTORS
330
483
102
}
330
483
100
AcDbScale
 70
     0
300
1:16
140
1.0
141
16.0
290
     0
  0
SCALE
  5
48B
102
{ACAD_REACTORS
330
483
102
}
330
483
100
AcDbScale
 70
     0
300
1:20
140
1.0
141
20.0
290
     0
  0
SCALE
  5
48C
102
{ACAD_REACTORS
330
483
102
}
330
483
100
AcDbScale
 70
     0
300
1:30
140
1.0
141
30.0
290
     0
  0
SCALE
  5
48D
102
{ACAD_REACTORS
330
483
102
}
330
483
100
AcDbScale
 70
     0
300
1:40
140
1.0
141
40.0
290
     0
  0
SCALE
  5
48E
102
{ACAD_REACTORS
330
483
102
}
330
483
100
AcDbScale
 70
     0
300
1:50
140
1.0
141
50.0
290
     0
  0
SCALE
  5
48F
102
{ACAD_REACTORS
330
483
102
}
330
483
100
AcDbScale
 70
     0
300
1:100
140
1.0
141
100.0
290
     0
  0
SCALE
  5
490
102
{ACAD_REACTORS
330
483
102
}
330
483
100
AcDbScale
 70
     0
300
2:1
140
2.0
141
1.0
290
     0
  0
SCALE
  5
491
102
{ACAD_REACTORS
330
483
102
}
330
483
100
AcDbScale
 70
     0
300
4:1
140
4.0
141
1.0
290
     0
  0
SCALE
  5
492
102
{ACAD_REACTORS
330
483
102
}
330
483
100
AcDbScale
 70
     0
300
8:1
140
8.0
141
1.0
290
     0
  0
SCALE
  5
493
102
{ACAD_REACTORS
330
483
102
}
330
483
100
AcDbScale
 70
     0
300
10:1
140
10.0
141
1.0
290
     0
  0
SCALE
  5
494
102
{ACAD_REACTORS
330
483
102
}
330
483
100
AcDbScale
 70
     0
300
100:1
140
100.0
141
1.0
290
     0
  0
SCALE
  5
495
102
{ACAD_REACTORS
330
483
102
}
330
483
100
AcDbScale
 70
     0
300
1/128" = 1'-0"
140
0.0078125
141
12.0
290
     0
  0
SCALE
  5
496
102
{ACAD_REACTORS
330
483
102
}
330
483
100
AcDbScale
 70
     0
300
1/64" = 1'-0"
140
0.015625
141
12.0
290
     0
  0
SCALE
  5
497
102
{ACAD_REACTORS
330
483
102
}
330
483
100
AcDbScale
 70
     0
300
1/32" = 1'-0"
140
0.03125
141
12.0
290
     0
  0
SCALE
  5
498
102
{ACAD_REACTORS
330
483
102
}
330
483
100
AcDbScale
 70
     0
300
1/16" = 1'-0"
140
0.0625
141
12.0
290
     0
  0
SCALE
  5
499
102
{ACAD_REACTORS
330
483
102
}
330
483
100
AcDbScale
 70
     0
300
3/32" = 1'-0"
140
0.09375
141
12.0
290
     0
  0
SCALE
  5
49A
102
{ACAD_REACTORS
330
483
102
}
330
483
100
AcDbScale
 70
     0
300
1/8" = 1'-0"
140
0.125
141
12.0
290
     0
  0
SCALE
  5
49B
102
{ACAD_REACTORS
330
483
102
}
330
483
100
AcDbScale
 70
     0
300
3/16" = 1'-0"
140
0.1875
141
12.0
290
     0
  0
SCALE
  5
49C
102
{ACAD_REACTORS
330
483
102
}
330
483
100
AcDbScale
 70
     0
300
1/4" = 1'-0"
140
0.25
141
12.0
290
     0
  0
SCALE
  5
49D
102
{ACAD_REACTORS
330
483
102
}
330
483
100
AcDbScale
 70
     0
300
3/8" = 1'-0"
140
0.375
141
12.0
290
     0
  0
SCALE
  5
49E
102
{ACAD_REACTORS
330
483
102
}
330
483
100
AcDbScale
 70
     0
300
1/2" = 1'-0"
140
0.5
141
12.0
290
     0
  0
SCALE
  5
49F
102
{ACAD_REACTORS
330
483
102
}
330
483
100
AcDbScale
 70
     0
300
3/4" = 1'-0"
140
0.75
141
12.0
290
     0
  0
SCALE
  5
4A0
102
{ACAD_REACTORS
330
483
102
}
330
483
100
AcDbScale
 70
     0
300
1" = 1'-0"
140
1.0
141
12.0
290
     0
  0
SCALE
  5
4A1
102
{ACAD_REACTORS
330
483
102
}
330
483
100
AcDbScale
 70
     0
300
1-1/2" = 1'-0"
140
1.5
141
12.0
290
     0
  0
SCALE
  5
4A2
102
{ACAD_REACTORS
330
483
102
}
330
483
100
AcDbScale
 70
     0
300
3" = 1'-0"
140
3.0
141
12.0
290
     0
  0
SCALE
  5
4A3
102
{ACAD_REACTORS
330
483
102
}
330
483
100
AcDbScale
 70
     0
300
6" = 1'-0"
140
6.0
141
12.0
290
     0
  0
SCALE
  5
4A4
102
{ACAD_REACTORS
330
483
102
}
330
483
100
AcDbScale
 70
     0
300
1'-0" = 1'-0"
140
12.0
141
12.0
290
     0
  0
TABLESTYLE
  5
3D5
102
{ACAD_XDICTIONARY
360
4DC
102
}
102
{ACAD_REACTORS
330
3D4
102
}
330
3D4
100
AcDbTableStyle
  3
Standard
 70
     0
 71
     0
 40
0.06
 41
0.06
280
     0
281
     0
  7
STANDARD
140
0.18
170
     2
 62
     0
 63
     7
283
     0
274
    -2
284
     1
 64
     0
275
    -2
285
     1
 65
     0
276
    -2
286
     1
 66
     0
277
    -2
287
     1
 67
     0
278
    -2
288
     1
 68
     0
279
    -2
289
     1
 69
     0
  7
STANDARD
140
0.25
170
     5
 62
     0
 63
     7
283
     0
274
    -2
284
     1
 64
     0
275
    -2
285
     1
 65
     0
276
    -2
286
     1
 66
     0
277
    -2
287
     1
 67
     0
278
    -2
288
     1
 68
     0
279
    -2
289
     1
 69
     0
  7
STANDARD
140
0.18
170
     5
 62
     0
 63
     7
283
     0
274
    -2
284
     1
 64
     0
275
    -2
285
     1
 65
     0
276
    -2
286
     1
 66
     0
277
    -2
287
     1
 67
     0
278
    -2
288
     1
 68
     0
279
    -2
289
     1
 69
     0
  0
VISUALSTYLE
  5
400
102
{ACAD_REACTORS
330
3FA
102
}
330
3FA
100
AcDbVisualStyle
  2
2dWireframe
 70
     4
 71
     0
 72
     2
 73
     0
 90
        0
 40
-0.6
 41
-30.0
 62
     5
 63
     7
421
 16777215
 74
     1
 91
        4
 64
     7
 65
   257
 75
     1
175
     1
 42
1.0
 92
        0
 66
   257
 43
1.0
 76
     1
 77
     6
 78
     2
 67
     7
 79
     5
170
     0
171
     0
290
     0
174
     0
 93
        1
 44
0.0
173
     0
291
     0
 45
0.0
1001
ACAD
1000
AcDbSavedByObjectVersion
1070
     0
  0
VISUALSTYLE
  5
402
102
{ACAD_REACTORS
330
3FA
102
}
330
3FA
100
AcDbVisualStyle
  2
3D Hidden
 70
     6
 71
     1
 72
     2
 73
     2
 90
        0
 40
-0.6
 41
-30.0
 62
     5
 63
     7
421
 16777215
 74
     2
 91
        2
 64
     7
 65
   257
 75
     2
175
     1
 42
40.0
 92
        0
 66
   257
 43
1.0
 76
     1
 77
     6
 78
     2
 67
     7
 79
     3
170
     0
171
     0
290
     0
174
     0
 93
        1
 44
0.0
173
     0
291
     0
 45
0.0
1001
ACAD
1000
AcDbSavedByObjectVersion
1070
     0
  0
VISUALSTYLE
  5
401
102
{ACAD_REACTORS
330
3FA
102
}
330
3FA
100
AcDbVisualStyle
  2
3dWireframe
 70
     5
 71
     0
 72
     2
 73
     0
 90
        0
 40
-0.6
 41
-30.0
 62
     5
 63
     7
421
 16777215
 74
     1
 91
        4
 64
     7
 65
   257
 75
     1
175
     1
 42
1.0
 92
        0
 66
   257
 43
1.0
 76
     1
 77
     6
 78
     2
 67
     7
 79
     5
170
     0
171
     0
290
     0
174
     0
 93
        1
 44
0.0
173
     0
291
     0
 45
0.0
1001
ACAD
1000
AcDbSavedByObjectVersion
1070
     0
  0
VISUALSTYLE
  5
3FF
102
{ACAD_REACTORS
330
3FA
102
}
330
3FA
100
AcDbVisualStyle
  2
Basic
 70
     7
 71
     1
 72
     0
 73
     1
 90
        0
 40
-0.6
 41
-30.0
 62
     5
 63
     7
421
 16777215
 74
     0
 91
        4
 64
     7
 65
   257
 75
     1
175
     1
 42
1.0
 92
        8
 66
     7
 43
1.0
 76
     1
 77
     6
 78
     2
 67
     7
 79
     5
170
     0
171
     0
290
     0
174
     0
 93
        1
 44
0.0
173
     0
291
     1
 45
0.0
1001
ACAD
1000
AcDbSavedByObjectVersion
1070
     0
  0
VISUALSTYLE
  5
406
102
{ACAD_REACTORS
330
3FA
102
}
330
3FA
100
AcDbVisualStyle
  2
Brighten
 70
    12
 71
     2
 72
     2
 73
     0
 90
        0
 40
-0.6
 41
-30.0
 62
     5
 63
     7
421
 16777215
 74
     1
 91
        4
 64
     7
 65
   257
 75
     1
175
     1
 42
1.0
 92
        8
 66
     7
 43
1.0
 76
     1
 77
     6
 78
     2
 67
     7
 79
     5
170
     0
171
     0
290
     0
174
     0
 93
        1
 44
50.0
173
     0
291
     1
 45
0.0
1001
ACAD
1000
AcDbSavedByObjectVersion
1070
     0
  0
VISUALSTYLE
  5
40A
102
{ACAD_REACTORS
330
3FA
102
}
330
3FA
100
AcDbVisualStyle
  2
ColorChange
 70
    16
 71
     2
 72
     2
 73
     3
 90
        0
 40
-0.6
 41
-30.0
 62
     5
 63
     8
421
  8421504
 74
     1
 91
        4
 64
     7
 65
   257
 75
     1
175
     1
 42
1.0
 92
        8
 66
     8
424
  8421504
 43
1.0
 76
     1
 77
     6
 78
     2
 67
     7
 79
     5
170
     0
171
     0
290
     0
174
     0
 93
        1
 44
0.0
173
     0
291
     1
 45
0.0
1001
ACAD
1000
AcDbSavedByObjectVersion
1070
     0
  0
VISUALSTYLE
  5
403
102
{ACAD_REACTORS
330
3FA
102
}
330
3FA
100
AcDbVisualStyle
  2
Conceptual
 70
     9
 71
     3
 72
     2
 73
     0
 90
        0
 40
-0.6
 41
-30.0
 62
     5
 63
     7
421
 16777215
 74
     2
 91
        2
 64
     7
 65
   257
 75
     1
175
     1
 42
40.0
 92
        8
 66
     7
 43
1.0
 76
     1
 77
     6
 78
     2
 67
     7
 79
     3
170
     0
171
     0
290
     0
174
     0
 93
        1
 44
0.0
173
     0
291
     0
 45
0.0
1001
ACAD
1000
AcDbSavedByObjectVersion
1070
     0
  0
VISUALSTYLE
  5
405
102
{ACAD_REACTORS
330
3FA
102
}
330
3FA
100
AcDbVisualStyle
  2
Dim
 70
    11
 71
     2
 72
     2
 73
     0
 90
        0
 40
-0.6
 41
-30.0
 62
     5
 63
     7
421
 16777215
 74
     1
 91
        4
 64
     7
 65
   257
 75
     1
175
     1
 42
1.0
 92
        8
 66
     7
 43
1.0
 76
     1
 77
     6
 78
     2
 67
     7
 79
     5
170
     0
171
     0
290
     0
174
     0
 93
        1
 44
-50.0
173
     0
291
     1
 45
0.0
1001
ACAD
1000
AcDbSavedByObjectVersion
1070
     0
  0
VISUALSTYLE
  5
409
102
{ACAD_REACTORS
330
3FA
102
}
330
3FA
100
AcDbVisualStyle
  2
Facepattern
 70
    15
 71
     2
 72
     2
 73
     0
 90
        0
 40
-0.6
 41
-30.0
 62
     5
 63
     7
421
 16777215
 74
     1
 91
        4
 64
     7
 65
   257
 75
     1
175
     1
 42
1.0
 92
        8
 66
     7
 43
1.0
 76
     1
 77
     6
 78
     2
 67
     7
 79
     5
170
     0
171
     0
290
     0
174
     0
 93
        1
 44
0.0
173
     0
291
     1
 45
0.0
1001
ACAD
1000
AcDbSavedByObjectVersion
1070
     0
  0
VISUALSTYLE
  5
3FB
102
{ACAD_REACTORS
330
3FA
102
}
330
3FA
100
AcDbVisualStyle
  2
Flat
 70
     0
 71
     2
 72
     1
 73
     1
 90
        2
 40
-0.6
 41
30.0
 62
     5
 63
     7
421
 16777215
 74
     0
 91
        4
 64
     7
 65
   257
 75
     1
175
     1
 42
1.0
 92
        8
 66
     7
 43
1.0
 76
     1
 77
     6
 78
     2
 67
     7
 79
     5
170
     0
171
     0
290
     0
174
     0
 93
       13
 44
0.0
173
     0
291
     1
 45
0.0
1001
ACAD
1000
AcDbSavedByObjectVersion
1070
     0
  0
VISUALSTYLE
  5
3FC
102
{ACAD_REACTORS
330
3FA
102
}
330
3FA
100
AcDbVisualStyle
  2
FlatWithEdges
 70
     1
 71
     2
 72
     1
 73
     1
 90
        2
 40
-0.6
 41
30.0
 62
     5
 63
     7
421
 16777215
 74
     1
 91
        4
 64
     7
 65
   257
 75
     1
175
     1
 42
1.0
 92
        0
 66
   257
 43
1.0
 76
     1
 77
     6
 78
     2
 67
     7
 79
     5
170
     0
171
     0
290
     0
174
     0
 93
       13
 44
0.0
173
     0
291
     1
 45
0.0
1001
ACAD
1000
AcDbSavedByObjectVersion
1070
     0
  0
VISUALSTYLE
  5
3FD
102
{ACAD_REACTORS
330
3FA
102
}
330
3FA
100
AcDbVisualStyle
  2
Gouraud
 70
     2
 71
     2
 72
     2
 73
     1
 90
        2
 40
-0.6
 41
30.0
 62
     5
 63
     7
421
 16777215
 74
     0
 91
        4
 64
     7
 65
   257
 75
     1
175
     1
 42
1.0
 92
        0
 66
     7
 43
1.0
 76
     1
 77
     6
 78
     2
 67
     7
 79
     5
170
     0
171
     0
290
     0
174
     0
 93
       13
 44
0.0
173
     0
291
     1
 45
0.0
1001
ACAD
1000
AcDbSavedByObjectVersion
1070
     0
  0
VISUALSTYLE
  5
3FE
102
{ACAD_REACTORS
330
3FA
102
}
330
3FA
100
AcDbVisualStyle
  2
GouraudWithEdges
 70
     3
 71
     2
 72
     2
 73
     1
 90
        2
 40
-0.6
 41
30.0
 62
     5
 63
     7
421
 16777215
 74
     1
 91
        4
 64
     7
 65
   257
 75
     1
175
     1
 42
1.0
 92
        0
 66
   257
 43
1.0
 76
     1
 77
     6
 78
     2
 67
     7
 79
     5
170
     0
171
     0
290
     0
174
     0
 93
       13
 44
0.0
173
     0
291
     1
 45
0.0
1001
ACAD
1000
AcDbSavedByObjectVersion
1070
     0
  0
VISUALSTYLE
  5
408
102
{ACAD_REACTORS
330
3FA
102
}
330
3FA
100
AcDbVisualStyle
  2
Linepattern
 70
    14
 71
     2
 72
     2
 73
     0
 90
        0
 40
-0.6
 41
-30.0
 62
     5
 63
     7
421
 16777215
 74
     1
 91
        4
 64
     7
 65
   257
 75
     7
175
     7
 42
1.0
 92
        8
 66
     7
 43
1.0
 76
     1
 77
     6
 78
     2
 67
     7
 79
     5
170
     0
171
     0
290
     0
174
     0
 93
        1
 44
0.0
173
     0
291
     1
 45
0.0
1001
ACAD
1000
AcDbSavedByObjectVersion
1070
     0
  0
VISUALSTYLE
  5
404
102
{ACAD_REACTORS
330
3FA
102
}
330
3FA
100
AcDbVisualStyle
  2
Realistic
 70
     8
 71
     2
 72
     2
 73
     0
 90
        0
 40
-0.6
 41
-30.0
 62
     5
 63
     7
421
 16777215
 74
     1
 91
        0
 64
     7
 65
   257
 75
     1
175
     1
 42
1.0
 92
        8
 66
     8
424
  7895160
 43
1.0
 76
     1
 77
     6
 78
     2
 67
     7
 79
     5
170
     0
171
     0
290
     0
174
     0
 93
       13
 44
0.0
173
     0
291
     0
 45
0.0
1001
ACAD
1000
AcDbSavedByObjectVersion
1070
     0
  0
VISUALSTYLE
  5
407
102
{ACAD_REACTORS
330
3FA
102
}
330
3FA
100
AcDbVisualStyle
  2
Thicken
 70
    13
 71
     2
 72
     2
 73
     0
 90
        0
 40
-0.6
 41
-30.0
 62
     5
 63
     7
421
 16777215
 74
     1
 91
        4
 64
     7
 65
   257
 75
     1
175
     1
 42
1.0
 92
       12
 66
     7
 43
1.0
 76
     1
 77
     6
 78
     2
 67
     7
 79
     5
170
     0
171
     0
290
     0
174
     0
 93
        1
 44
0.0
173
     0
291
     1
 45
0.0
1001
ACAD
1000
AcDbSavedByObjectVersion
1070
     0
  0
DICTIONARYVAR
  5
4E1
102
{ACAD_REACTORS
330
24E
102
}
330
24E
100
DictionaryVariables
280
     0
  1
1:1
  0
DICTIONARYVAR
  5
4DF
102
{ACAD_REACTORS
330
24E
102
}
330
24E
100
DictionaryVariables
280
     0
  1
STANDARD
  0
DICTIONARYVAR
  5
3F5
102
{ACAD_REACTORS
330
24E
102
}
330
24E
100
DictionaryVariables
280
     0
  1
STANDARD
  0
DICTIONARYVAR
  5
302
102
{ACAD_REACTORS
330
24E
102
}
330
24E
100
DictionaryVariables
280
     0
  1
1
  0
DICTIONARYVAR
  5
24F
102
{ACAD_REACTORS
330
24E
102
}
330
24E
100
DictionaryVariables
280
     0
  1
1
  0
DICTIONARYVAR
  5
4E2
102
{ACAD_REACTORS
330
24E
102
}
330
24E
100
DictionaryVariables
280
     0
  1
0
  0
DICTIONARYVAR
  5
4E0
102
{ACAD_REACTORS
330
24E
102
}
330
24E
100
DictionaryVariables
280
     0
  1
0
  0
DICTIONARY
  5
22D
102
{ACAD_REACTORS
330
22C
102
}
330
22C
100
AcDbDictionary
281
     1
  0
XRECORD
  5
3DE
102
{ACAD_REACTORS
330
22C
102
}
330
22C
100
AcDbXrecord
280
     1
 90
-1023410169
  0
XRECORD
  5
79C
102
{ACAD_REACTORS
330
79B
102
}
330
79B
100
AcDbXrecord
280
     1
330
604
  0
DICTIONARY
  5
7FB
330
3F8
100
AcDbDictionary
280
     1
281
     1
  3
ACAD_XREC_ROUNDTRIP
360
7FC
  0
DICTIONARY
  5
7F9
330
3F7
100
AcDbDictionary
280
     1
281
     1
  3
ACAD_XREC_ROUNDTRIP
360
7FA
  0
DICTIONARY
  5
7FD
330
3F9
100
AcDbDictionary
280
     1
281
     1
  3
ACAD_XREC_ROUNDTRIP
360
7FE
  0
DICTIONARY
  5
4DC
330
3D5
100
AcDbDictionary
280
     1
281
     1
  3
ACAD_ROUNDTRIP_2008_TABLESTYLE_CELLSTYLEMAP
360
7F7
  3
ACAD_XREC_ROUNDTRIP
360
7F8
  0
XRECORD
  5
7FC
102
{ACAD_REACTORS
330
7FB
102
}
330
7FB
100
AcDbXrecord
280
     1
102
MATERIAL
148
0.0
149
0.0
149
0.0
 93
        0
 94
       63
282
     0
 72
     1
 77
     1
171
     1
175
     1
179
     1
273
     0
  0
XRECORD
  5
7FA
102
{ACAD_REACTORS
330
7F9
102
}
330
7F9
100
AcDbXrecord
280
     1
102
MATERIAL
148
0.0
149
0.0
149
0.0
 93
        0
 94
       63
282
     0
 72
     1
 77
     1
171
     1
175
     1
179
     1
273
     0
  0
XRECORD
  5
7FE
102
{ACAD_REACTORS
330
7FD
102
}
330
7FD
100
AcDbXrecord
280
     1
102
MATERIAL
148
0.0
149
0.0
149
0.0
 93
        0
 94
       63
282
     0
 72
     1
 77
     1
171
     1
175
     1
179
     1
273
     0
  0
CELLSTYLEMAP
  5
7F7
102
{ACAD_REACTORS
330
4DC
102
}
330
4DC
100
AcDbCellStyleMap
 90
        3
300
CELLSTYLE
  1
TABLEFORMAT_BEGIN
 90
        5
170
     1
 91
        0
 92
    32768
 62
   257
 93
        1
300
CONTENTFORMAT
  1
CONTENTFORMAT_BEGIN
 90
        0
 91
        0
 92
        4
 93
        0
300

 40
0.0
140
1.0
 94
        5
 62
     0
340
D
144
0.25
309
CONTENTFORMAT_END
171
     0
 94
        6
 95
        1
302
GRIDFORMAT
  1
GRIDFORMAT_BEGIN
 90
        0
 91
        1
 62
     0
 92
       -2
340
0
 93
        0
 40
0.045
309
GRIDFORMAT_END
 95
        2
302
GRIDFORMAT
  1
GRIDFORMAT_BEGIN
 90
        0
 91
        1
 62
     0
 92
       -2
340
0
 93
        0
 40
0.045
309
GRIDFORMAT_END
 95
        4
302
GRIDFORMAT
  1
GRIDFORMAT_BEGIN
 90
        0
 91
        1
 62
     0
 92
       -2
340
0
 93
        0
 40
0.045
309
GRIDFORMAT_END
 95
        8
302
GRIDFORMAT
  1
GRIDFORMAT_BEGIN
 90
        0
 91
        1
 62
     0
 92
       -2
340
0
 93
        0
 40
0.045
309
GRIDFORMAT_END
 95
       16
302
GRIDFORMAT
  1
GRIDFORMAT_BEGIN
 90
        0
 91
        1
 62
     0
 92
       -2
340
0
 93
        0
 40
0.045
309
GRIDFORMAT_END
 95
       32
302
GRIDFORMAT
  1
GRIDFORMAT_BEGIN
 90
        0
 91
        1
 62
     0
 92
       -2
340
0
 93
        0
 40
0.045
309
GRIDFORMAT_END
309
TABLEFORMAT_END
  1
CELLSTYLE_BEGIN
 90
        1
 91
        1
300
_TITLE
309
CELLSTYLE_END
300
CELLSTYLE
  1
TABLEFORMAT_BEGIN
 90
        5
170
     1
 91
        0
 92
        0
 62
   257
 93
        1
300
CONTENTFORMAT
  1
CONTENTFORMAT_BEGIN
 90
        0
 91
        0
 92
        4
 93
        0
300

 40
0.0
140
1.0
 94
        5
 62
     0
340
D
144
0.18
309
CONTENTFORMAT_END
171
     0
 94
        6
 95
        1
302
GRIDFORMAT
  1
GRIDFORMAT_BEGIN
 90
        0
 91
        1
 62
     0
 92
       -2
340
0
 93
        0
 40
0.045
309
GRIDFORMAT_END
 95
        2
302
GRIDFORMAT
  1
GRIDFORMAT_BEGIN
 90
        0
 91
        1
 62
     0
 92
       -2
340
0
 93
        0
 40
0.045
309
GRIDFORMAT_END
 95
        4
302
GRIDFORMAT
  1
GRIDFORMAT_BEGIN
 90
        0
 91
        1
 62
     0
 92
       -2
340
0
 93
        0
 40
0.045
309
GRIDFORMAT_END
 95
        8
302
GRIDFORMAT
  1
GRIDFORMAT_BEGIN
 90
        0
 91
        1
 62
     0
 92
       -2
340
0
 93
        0
 40
0.045
309
GRIDFORMAT_END
 95
       16
302
GRIDFORMAT
  1
GRIDFORMAT_BEGIN
 90
        0
 91
        1
 62
     0
 92
       -2
340
0
 93
        0
 40
0.045
309
GRIDFORMAT_END
 95
       32
302
GRIDFORMAT
  1
GRIDFORMAT_BEGIN
 90
        0
 91
        1
 62
     0
 92
       -2
340
0
 93
        0
 40
0.045
309
GRIDFORMAT_END
309
TABLEFORMAT_END
  1
CELLSTYLE_BEGIN
 90
        2
 91
        1
300
_HEADER
309
CELLSTYLE_END
300
CELLSTYLE
  1
TABLEFORMAT_BEGIN
 90
        5
170
     1
 91
        0
 92
        0
 62
   257
 93
        1
300
CONTENTFORMAT
  1
CONTENTFORMAT_BEGIN
 90
        0
 91
        0
 92
        4
 93
        0
300

 40
0.0
140
1.0
 94
        2
 62
     0
340
D
144
0.18
309
CONTENTFORMAT_END
171
     0
 94
        6
 95
        1
302
GRIDFORMAT
  1
GRIDFORMAT_BEGIN
 90
        0
 91
        1
 62
     0
 92
       -2
340
0
 93
        0
 40
0.045
309
GRIDFORMAT_END
 95
        2
302
GRIDFORMAT
  1
GRIDFORMAT_BEGIN
 90
        0
 91
        1
 62
     0
 92
       -2
340
0
 93
        0
 40
0.045
309
GRIDFORMAT_END
 95
        4
302
GRIDFORMAT
  1
GRIDFORMAT_BEGIN
 90
        0
 91
        1
 62
     0
 92
       -2
340
0
 93
        0
 40
0.045
309
GRIDFORMAT_END
 95
        8
302
GRIDFORMAT
  1
GRIDFORMAT_BEGIN
 90
        0
 91
        1
 62
     0
 92
       -2
340
0
 93
        0
 40
0.045
309
GRIDFORMAT_END
 95
       16
302
GRIDFORMAT
  1
GRIDFORMAT_BEGIN
 90
        0
 91
        1
 62
     0
 92
       -2
340
0
 93
        0
 40
0.045
309
GRIDFORMAT_END
 95
       32
302
GRIDFORMAT
  1
GRIDFORMAT_BEGIN
 90
        0
 91
        1
 62
     0
 92
       -2
340
0
 93
        0
 40
0.045
309
GRIDFORMAT_END
309
TABLEFORMAT_END
  1
CELLSTYLE_BEGIN
 90
        3
 91
        2
300
_DATA
309
CELLSTYLE_END
  0
XRECORD
  5
7F8
102
{ACAD_REACTORS
330
4DC
102
}
330
4DC
100
AcDbXrecord
280
     1
102
ACAD_ROUNDTRIP_PRE2007_TABLESTYLE
 90
        4
 91
        0
  1

 92
        4
 93
        0
  2

 94
        4
 95
        0
  3

  0
ENDSEC
  0
EOF
