  0
SECTION
  2
HEADER
  9
$ACADVER
  1
AC1015
  9
$ACADMAINTVER
 70
    20
  9
$DWGCODEPAGE
  3
ANSI_1252
  9
$INSBASE
 10
0.0
 20
0.0
 30
0.0
  9
$EXTMIN
 10
35.07167825206386
 20
29.72516067148399
 30
0.0
  9
$EXTMAX
 10
1160.66624616257
 20
527.4166696925245
 30
0.0
  9
$LIMMIN
 10
0.0
 20
0.0
  9
$LIMMAX
 10
1200.0
 20
550.0
  9
$ORTHOMODE
 70
     1
  9
$REGENMODE
 70
     1
  9
$FILLMODE
 70
     1
  9
$QTEXTMODE
 70
     0
  9
$MIRRTEXT
 70
     1
  9
$LTSCALE
 40
1.0
  9
$ATTMODE
 70
     1
  9
$TEXTSIZE
 40
10.0
  9
$TRACEWID
 40
1.0
  9
$TEXTSTYLE
  7
STANDARD
  9
$CLAYER
  8
0
  9
$CELTYPE
  6
BYLAYER
  9
$CECOLOR
 62
   256
  9
$CELTSCALE
 40
10.0
  9
$DISPSILH
 70
     0
  9
$DIMSCALE
 40
1.0
  9
$DIMASZ
 40
7.0
  9
$DIMEXO
 40
0.0
  9
$DIMDLI
 40
7.0
  9
$DIMRND
 40
0.0
  9
$DIMDLE
 40
0.0
  9
$DIMEXE
 40
1.25
  9
$DIMTP
 40
0.0
  9
$DIMTM
 40
0.0
  9
$DIMTXT
 40
10.0
  9
$DIMCEN
 40
0.0
  9
$DIMTSZ
 40
0.0
  9
$DIMTOL
 70
     0
  9
$DIMLIM
 70
     0
  9
$DIMTIH
 70
     0
  9
$DIMTOH
 70
     0
  9
$DIMSE1
 70
     0
  9
$DIMSE2
 70
     0
  9
$DIMTAD
 70
     1
  9
$DIMZIN
 70
     8
  9
$DIMBLK
  1

  9
$DIMASO
 70
     1
  9
$DIMSHO
 70
     1
  9
$DIMPOST
  1

  9
$DIMAPOST
  1

  9
$DIMALT
 70
     0
  9
$DIMALTD
 70
     2
  9
$DIMALTF
 40
25.4
  9
$DIMLFAC
 40
1.0
  9
$DIMTOFL
 70
     1
  9
$DIMTVP
 40
0.0
  9
$DIMTIX
 70
     0
  9
$DIMSOXD
 70
     0
  9
$DIMSAH
 70
     0
  9
$DIMBLK1
  1

  9
$DIMBLK2
  1

  9
$DIMSTYLE
  2
ISO-25
  9
$DIMCLRD
 70
   256
  9
$DIMCLRE
 70
   256
  9
$DIMCLRT
 70
   256
  9
$DIMTFAC
 40
1.0
  9
$DIMGAP
 40
4.0
  9
$DIMJUST
 70
     0
  9
$DIMSD1
 70
     0
  9
$DIMSD2
 70
     0
  9
$DIMTOLJ
 70
     1
  9
$DIMTZIN
 70
     8
  9
$DIMALTZ
 70
     0
  9
$DIMALTTZ
 70
     0
  9
$DIMUPT
 70
     1
  9
$DIMDEC
 70
     4
  9
$DIMTDEC
 70
     4
  9
$DIMALTU
 70
     2
  9
$DIMALTTD
 70
     2
  9
$DIMTXSTY
  7
STANDARD
  9
$DIMAUNIT
 70
     0
  9
$DIMADEC
 70
     0
  9
$DIMALTRND
 40
0.0
  9
$DIMAZIN
 70
     0
  9
$DIMDSEP
 70
    46
  9
$DIMATFIT
 70
     0
  9
$DIMFRAC
 70
     0
  9
$DIMLDRBLK
  1

  9
$DIMLUNIT
 70
     2
  9
$DIMLWD
 70
    -2
  9
$DIMLWE
 70
    -2
  9
$DIMTMOVE
 70
     0
  9
$LUNITS
 70
     2
  9
$LUPREC
 70
     4
  9
$SKETCHINC
 40
1.0
  9
$FILLETRAD
 40
2.5
  9
$AUNITS
 70
     0
  9
$AUPREC
 70
     0
  9
$MENU
  1
.
  9
$ELEVATION
 40
0.0
  9
$PELEVATION
 40
0.0
  9
$THICKNESS
 40
0.0
  9
$LIMCHECK
 70
     0
  9
$CHAMFERA
 40
2.0
  9
$CHAMFERB
 40
2.0
  9
$CHAMFERC
 40
0.0
  9
$CHAMFERD
 40
0.0
  9
$SKPOLY
 70
     0
  9
$TDCREATE
 40
2450848.753473218
  9
$TDUCREATE
 40
2450848.711806551
  9
$TDUPDATE
 40
2455520.465244491
  9
$TDUUPDATE
 40
2455520.423577824
  9
$TDINDWG
 40
1.8948193981
  9
$TDUSRTIMER
 40
1.8948193981
  9
$USRTIMER
 70
     1
  9
$ANGBASE
 50
0.0
  9
$ANGDIR
 70
     0
  9
$PDMODE
 70
     0
  9
$PDSIZE
 40
0.0
  9
$PLINEWID
 40
0.5
  9
$SPLFRAME
 70
     0
  9
$SPLINETYPE
 70
     6
  9
$SPLINESEGS
 70
     8
  9
$HANDSEED
  5
9DF
  9
$SURFTAB1
 70
     6
  9
$SURFTAB2
 70
     6
  9
$SURFTYPE
 70
     6
  9
$SURFU
 70
     6
  9
$SURFV
 70
     6
  9
$UCSBASE
  2

  9
$UCSNAME
  2

  9
$UCSORG
 10
0.0
 20
0.0
 30
0.0
  9
$UCSXDIR
 10
1.0
 20
0.0
 30
0.0
  9
$UCSYDIR
 10
0.0
 20
1.0
 30
0.0
  9
$UCSORTHOREF
  2

  9
$UCSORTHOVIEW
 70
     0
  9
$UCSORGTOP
 10
0.0
 20
0.0
 30
0.0
  9
$UCSORGBOTTOM
 10
0.0
 20
0.0
 30
0.0
  9
$UCSORGLEFT
 10
0.0
 20
0.0
 30
0.0
  9
$UCSORGRIGHT
 10
0.0
 20
0.0
 30
0.0
  9
$UCSORGFRONT
 10
0.0
 20
0.0
 30
0.0
  9
$UCSORGBACK
 10
0.0
 20
0.0
 30
0.0
  9
$PUCSBASE
  2

  9
$PUCSNAME
  2

  9
$PUCSORG
 10
0.0
 20
0.0
 30
0.0
  9
$PUCSXDIR
 10
1.0
 20
0.0
 30
0.0
  9
$PUCSYDIR
 10
0.0
 20
1.0
 30
0.0
  9
$PUCSORTHOREF
  2

  9
$PUCSORTHOVIEW
 70
     0
  9
$PUCSORGTOP
 10
0.0
 20
0.0
 30
0.0
  9
$PUCSORGBOTTOM
 10
0.0
 20
0.0
 30
0.0
  9
$PUCSORGLEFT
 10
0.0
 20
0.0
 30
0.0
  9
$PUCSORGRIGHT
 10
0.0
 20
0.0
 30
0.0
  9
$PUCSORGFRONT
 10
0.0
 20
0.0
 30
0.0
  9
$PUCSORGBACK
 10
0.0
 20
0.0
 30
0.0
  9
$USERI1
 70
     0
  9
$USERI2
 70
     0
  9
$USERI3
 70
     0
  9
$USERI4
 70
     0
  9
$USERI5
 70
     0
  9
$USERR1
 40
0.0
  9
$USERR2
 40
0.0
  9
$USERR3
 40
0.0
  9
$USERR4
 40
0.0
  9
$USERR5
 40
0.0
  9
$WORLDVIEW
 70
     1
  9
$SHADEDGE
 70
     3
  9
$SHADEDIF
 70
    70
  9
$TILEMODE
 70
     1
  9
$MAXACTVP
 70
    16
  9
$PINSBASE
 10
0.0
 20
0.0
 30
0.0
  9
$PLIMCHECK
 70
     0
  9
$PEXTMIN
 10
1.000000000000000E+20
 20
1.000000000000000E+20
 30
1.000000000000000E+20
  9
$PEXTMAX
 10
-1.000000000000000E+20
 20
-1.000000000000000E+20
 30
-1.000000000000000E+20
  9
$PLIMMIN
 10
0.0
 20
0.0
  9
$PLIMMAX
 10
420.0
 20
297.0
  9
$UNITMODE
 70
     0
  9
$VISRETAIN
 70
     0
  9
$PLINEGEN
 70
     0
  9
$PSLTSCALE
 70
     0
  9
$TREEDEPTH
 70
  3020
  9
$CMLSTYLE
  2
STANDARD
  9
$CMLJUST
 70
     0
  9
$CMLSCALE
 40
1.0
  9
$PROXYGRAPHICS
 70
     1
  9
$MEASUREMENT
 70
     0
  9
$CELWEIGHT
370
    -1
  9
$ENDCAPS
280
     0
  9
$JOINSTYLE
280
     0
  9
$LWDISPLAY
290
     0
  9
$INSUNITS
 70
     0
  9
$HYPERLINKBASE
  1

  9
$STYLESHEET
  1
Zeich.ctb
  9
$XEDIT
290
     1
  9
$CEPSNTYPE
380
     0
  9
$PSTYLEMODE
290
     1
  9
$FINGERPRINTGUID
  2
{3A44349B-C1AC-4B89-8FA8-8F06FB0F25F2}
  9
$VERSIONGUID
  2
{CC5A28B3-9FA5-464F-9DAF-B45A5604885B}
  9
$EXTNAMES
290
     1
  9
$PSVPSCALE
 40
0.0
  9
$OLESTARTUP
290
     0
  0
ENDSEC
  0
SECTION
  2
CLASSES
  0
CLASS
  1
IDBUFFER
  2
AcDbIdBuffer
  3
ObjectDBX Classes
 90
    32768
280
     0
281
     0
  0
CLASS
  1
DICTIONARYVAR
  2
AcDbDictionaryVar
  3
ObjectDBX Classes
 90
        0
280
     0
281
     0
  0
CLASS
  1
ACMESTATEMGR
  2
AcMeStateMgr
  3
AcMeServices
 90
     1024
280
     0
281
     0
  0
CLASS
  1
ACMESCOPE
  2
AcMeScope
  3
AcMeServices
 90
     1024
280
     0
281
     0
  0
CLASS
  1
ACMECOMMANDHISTORY
  2
AcMeCommandHistory
  3
AcMeServices
 90
     1024
280
     0
281
     0
  0
CLASS
  1
ACRFINSADJUSTERMGR
  2
AcRfInsAdjusterMgr
  3
AcMeServices
 90
     1024
280
     0
281
     0
  0
CLASS
  1
ACMEDRAWINGMAN
  2
AcMeDrawingMan
  3
AcMeServices
 90
     1024
280
     0
281
     0
  0
CLASS
  1
AMATTR
  2
AcMeAttribute
  3
AcMeServices
 90
    33792
280
     0
281
     0
  0
CLASS
  1
ACMEBOMCOLUMN
  2
AcMeBOMColumn
  3
AcMeServices
 90
    33792
280
     0
281
     0
  0
CLASS
  1
ACMEBOMCONF
  2
AcMeBOMConf
  3
AcMeServices
 90
    33792
280
     0
281
     0
  0
CLASS
  1
ACMEBOMTABLE
  2
AcMeBOMTable
  3
AcMeServices
 90
    33792
280
     0
281
     0
  0
CLASS
  1
ACMEBOMENTRY
  2
AcMeBOMEntry
  3
AcMeServices
 90
    33792
280
     0
281
     0
  0
CLASS
  1
ACMEVIEW
  2
AcMeView
  3
AcMeServices
 90
    33792
280
     0
281
     0
  0
CLASS
  1
LAYER_INDEX
  2
AcDbLayerIndex
  3
ObjectDBX Classes
 90
    32768
280
     0
281
     0
  0
CLASS
  1
ACIMSYSVARMAN
  2
AcImSysVarManager
  3
AcMeServices
 90
     1024
280
     0
281
     0
  0
CLASS
  1
ACIMINTSYSVAR
  2
AcImIntSysVar
  3
AcMeServices
 90
     1024
280
     0
281
     0
  0
CLASS
  1
ACIMSTRSYSVAR
  2
AcImStrSysVar
  3
AcMeServices
 90
     1024
280
     0
281
     0
  0
CLASS
  1
ACMSTANDARDJIS
  2
AcmStandardJIS
  3
"Amdt_StdImp|Product Description: AutoCAD Mechanical|Company: Autodesk, Inc."
 90
     1024
280
     0
281
     0
  0
CLASS
  1
ACMSTANDARDANSI
  2
AcmStandardANSI
  3
"Amdt_StdImp|Product Description: AutoCAD Mechanical|Company: Autodesk, Inc."
 90
     1024
280
     0
281
     0
  0
CLASS
  1
ACMSTANDARDBSI
  2
AcmStandardBSI
  3
"Amdt_StdImp|Product Description: AutoCAD Mechanical|Company: Autodesk, Inc."
 90
     1024
280
     0
281
     0
  0
CLASS
  1
ACMSTANDARDDIN
  2
AcmStandardDIN
  3
"Amdt_StdImp|Product Description: AutoCAD Mechanical|Company: Autodesk, Inc."
 90
     1024
280
     0
281
     0
  0
CLASS
  1
ACMSTANDARDISO
  2
AcmStandardISO
  3
"Amdt_StdImp|Product Description: AutoCAD Mechanical|Company: Autodesk, Inc."
 90
     1024
280
     0
281
     0
  0
CLASS
  1
ACDBDICTIONARYWDFLT
  2
AcDbDictionaryWithDefault
  3
ObjectDBX Classes
 90
        0
280
     0
281
     0
  0
CLASS
  1
ACDBPLACEHOLDER
  2
AcDbPlaceHolder
  3
ObjectDBX Classes
 90
        0
280
     0
281
     0
  0
CLASS
  1
LAYOUT
  2
AcDbLayout
  3
ObjectDBX Classes
 90
        0
280
     0
281
     0
  0
CLASS
  1
ACME_DOCUMENT
  2
AcMeDbDoc
  3
AcMeServices
 90
     1024
280
     0
281
     0
  0
CLASS
  1
AMGSETTINGSOBJ
  2
AmgSettingsObj
  3
"AcadM|Product Description: AutoCAD Mechanical|Company: Autodesk, Inc."
 90
     1024
280
     0
281
     0
  0
CLASS
  1
ACIMREALSYSVAR
  2
AcImRealSysVar
  3
AcMeServices
 90
     1024
280
     0
281
     0
  0
CLASS
  1
ACDBENTITYCACHE
  2
AcMeEntityCache
  3
AcMeServices
 90
     1024
280
     0
281
     0
  0
CLASS
  1
GSMANAGER
  2
AcMeGSManager
  3
AcMeServices
 90
     1024
280
     0
281
     0
  0
CLASS
  1
AMDTINTERNALREACTOR
  2
AmdtInternalReactor
  3
AcMeServices
 90
     1024
280
     0
281
     0
  0
CLASS
  1
ACME_DATABASE
  2
AcMeDbDatabase
  3
AcMeServices
 90
     1024
280
     0
281
     0
  0
CLASS
  1
ACMDATADICTIONARY
  2
AcmDataDictionary
  3
"AcmSymBB|Product Description: AutoCAD Mechanical|Company: Autodesk, Inc."
 90
     1024
280
     0
281
     0
  0
CLASS
  1
ACMDATAENTRYBLOCK
  2
AcmDataEntryBlock
  3
AcmSymBB|Product Description: AutoCAD Mechanical|Company: Autodesk, Inc.
 90
     1024
280
     0
281
     0
  0
CLASS
  1
ACMSURFSTANDARDJIS
  2
AcmSurfTextStdJIS
  3
"Amdt_StdImp|Product Description: AutoCAD Mechanical|Company: Autodesk, Inc."
 90
     1024
280
     0
281
     0
  0
CLASS
  1
ACMFCFSTANDARDJIS
  2
AcmFCFStdJIS
  3
"Amdt_StdImp|Product Description: AutoCAD Mechanical|Company: Autodesk, Inc."
 90
     1024
280
     0
281
     0
  0
CLASS
  1
ACMWELDSTANDARDJIS
  2
AcmWeldingStdJIS
  3
"Amdt_StdImp|Product Description: AutoCAD Mechanical|Company: Autodesk, Inc."
 90
     1024
280
     0
281
     0
  0
CLASS
  1
ACMIDSTANDARDJIS
  2
AcmIdStdJIS
  3
"Amdt_StdImp|Product Description: AutoCAD Mechanical|Company: Autodesk, Inc."
 90
     1024
280
     0
281
     0
  0
CLASS
  1
ACMDATUMSTANDARDJIS
  2
AcmDatumStdJIS
  3
"Amdt_StdImp|Product Description: AutoCAD Mechanical|Company: Autodesk, Inc."
 90
     1024
280
     0
281
     0
  0
CLASS
  1
ACMBOMSTANDARDJIS
  2
AcmBOMStdJIS
  3
"Amdt_StdImp|Product Description: AutoCAD Mechanical|Company: Autodesk, Inc."
 90
     1024
280
     0
281
     0
  0
CLASS
  1
AMGOBJPROPCFG
  2
AmgObjPropCfg
  3
"AmgLay|Product Description: AutoCAD Mechanical|Company: Autodesk, Inc."
 90
     1025
280
     0
281
     0
  0
CLASS
  1
ACMSURFSTANDARDANSI
  2
AcmSurfTextStdANSI
  3
"Amdt_StdImp|Product Description: AutoCAD Mechanical|Company: Autodesk, Inc."
 90
     1024
280
     0
281
     0
  0
CLASS
  1
ACMFCFSTANDARDANSI
  2
AcmFCFStdANSI
  3
"Amdt_StdImp|Product Description: AutoCAD Mechanical|Company: Autodesk, Inc."
 90
     1024
280
     0
281
     0
  0
CLASS
  1
ACMWELDSTANDARDANSI
  2
AcmWeldingStdANSI
  3
"Amdt_StdImp|Product Description: AutoCAD Mechanical|Company: Autodesk, Inc."
 90
     1024
280
     0
281
     0
  0
CLASS
  1
ACMIDSTANDARDANSI
  2
AcmIdStdANSI
  3
"Amdt_StdImp|Product Description: AutoCAD Mechanical|Company: Autodesk, Inc."
 90
     1024
280
     0
281
     0
  0
CLASS
  1
ACMDATUMSTANDARDANSI
  2
AcmDatumStdANSI
  3
"Amdt_StdImp|Product Description: AutoCAD Mechanical|Company: Autodesk, Inc."
 90
     1024
280
     0
281
     0
  0
CLASS
  1
ACMBOMSTANDARDANSI
  2
AcmBOMStdANSI
  3
"Amdt_StdImp|Product Description: AutoCAD Mechanical|Company: Autodesk, Inc."
 90
     1024
280
     0
281
     0
  0
CLASS
  1
ACMSURFSTANDARDBSI
  2
AcmSurfTextStdBSI
  3
"Amdt_StdImp|Product Description: AutoCAD Mechanical|Company: Autodesk, Inc."
 90
     1024
280
     0
281
     0
  0
CLASS
  1
ACMFCFSTANDARDBSI
  2
AcmFCFStdBSI
  3
"Amdt_StdImp|Product Description: AutoCAD Mechanical|Company: Autodesk, Inc."
 90
     1024
280
     0
281
     0
  0
CLASS
  1
ACMWELDSTANDARDBSI
  2
AcmWeldingStdBSI
  3
"Amdt_StdImp|Product Description: AutoCAD Mechanical|Company: Autodesk, Inc."
 90
     1024
280
     0
281
     0
  0
CLASS
  1
ACMIDSTANDARDBSI
  2
AcmIdStdBSI
  3
"Amdt_StdImp|Product Description: AutoCAD Mechanical|Company: Autodesk, Inc."
 90
     1024
280
     0
281
     0
  0
CLASS
  1
ACMDATUMSTANDARDBSI
  2
AcmDatumStdBSI
  3
"Amdt_StdImp|Product Description: AutoCAD Mechanical|Company: Autodesk, Inc."
 90
     1024
280
     0
281
     0
  0
CLASS
  1
ACMBOMSTANDARDBSI
  2
AcmBOMStdBSI
  3
"Amdt_StdImp|Product Description: AutoCAD Mechanical|Company: Autodesk, Inc."
 90
     1024
280
     0
281
     0
  0
CLASS
  1
AMDTEDGESTANDARDDIN
  2
AmdtEdgeStdDIN
  3
"Amdt_StdImp|Product Description: AutoCAD Mechanical|Company: Autodesk, Inc."
 90
     1024
280
     0
281
     0
  0
CLASS
  1
ACMSURFSTANDARDDIN
  2
AcmSurfTextStdDIN
  3
"Amdt_StdImp|Product Description: AutoCAD Mechanical|Company: Autodesk, Inc."
 90
     1024
280
     0
281
     0
  0
CLASS
  1
ACMFCFSTANDARDDIN
  2
AcmFCFStdDIN
  3
"Amdt_StdImp|Product Description: AutoCAD Mechanical|Company: Autodesk, Inc."
 90
     1024
280
     0
281
     0
  0
CLASS
  1
ACMWELDSTANDARDDIN
  2
AcmWeldingStdDIN
  3
"Amdt_StdImp|Product Description: AutoCAD Mechanical|Company: Autodesk, Inc."
 90
     1024
280
     0
281
     0
  0
CLASS
  1
ACMIDSTANDARDDIN
  2
AcmIdStdDIN
  3
"Amdt_StdImp|Product Description: AutoCAD Mechanical|Company: Autodesk, Inc."
 90
     1024
280
     0
281
     0
  0
CLASS
  1
ACMDATUMSTANDARDDIN
  2
AcmDatumStdDIN
  3
"Amdt_StdImp|Product Description: AutoCAD Mechanical|Company: Autodesk, Inc."
 90
     1024
280
     0
281
     0
  0
CLASS
  1
ACMBOMSTANDARDDIN
  2
AcmBOMStdDIN
  3
"Amdt_StdImp|Product Description: AutoCAD Mechanical|Company: Autodesk, Inc."
 90
     1024
280
     0
281
     0
  0
CLASS
  1
AMDTEDGESTANDARDISO
  2
AmdtEdgeStdISO
  3
"Amdt_StdImp|Product Description: AutoCAD Mechanical|Company: Autodesk, Inc."
 90
     1024
280
     0
281
     0
  0
CLASS
  1
ACMSURFSTANDARDISO
  2
AcmSurfTextStdISO
  3
"Amdt_StdImp|Product Description: AutoCAD Mechanical|Company: Autodesk, Inc."
 90
     1024
280
     0
281
     0
  0
CLASS
  1
ACMFCFSTANDARDISO
  2
AcmFCFStdISO
  3
"Amdt_StdImp|Product Description: AutoCAD Mechanical|Company: Autodesk, Inc."
 90
     1024
280
     0
281
     0
  0
CLASS
  1
ACMWELDSTANDARDISO
  2
AcmWeldingStdISO
  3
"Amdt_StdImp|Product Description: AutoCAD Mechanical|Company: Autodesk, Inc."
 90
     1024
280
     0
281
     0
  0
CLASS
  1
ACMIDSTANDARDISO
  2
AcmIdStdISO
  3
"Amdt_StdImp|Product Description: AutoCAD Mechanical|Company: Autodesk, Inc."
 90
     1024
280
     0
281
     0
  0
CLASS
  1
ACMDATUMSTANDARDISO
  2
AcmDatumStdISO
  3
"Amdt_StdImp|Product Description: AutoCAD Mechanical|Company: Autodesk, Inc."
 90
     1024
280
     0
281
     0
  0
CLASS
  1
ACMBOMSTANDARDISO
  2
AcmBOMStdISO
  3
"Amdt_StdImp|Product Description: AutoCAD Mechanical|Company: Autodesk, Inc."
 90
     1024
280
     0
281
     0
  0
CLASS
  1
ACAMGFILTERDAT
  2
AcAmgFilterDat
  3
"AcadM|Product Description: AutoCAD Mechanical|Company: Autodesk, Inc."
 90
     1024
280
     0
281
     0
  0
CLASS
  1
TABLESTYLE
  2
AcDbTableStyle
  3
ObjectDBX Classes
 90
     4095
280
     0
281
     0
  0
CLASS
  1
ACGREFMASTER
  2
AcGrefMaster
  3
AcAttribServices
 90
     1024
280
     0
281
     0
  0
CLASS
  1
AM_DRAWING_MGR
  2
AcDmDwgMgr
  3
AcMechDwgViewMgmt
 90
     1024
280
     0
281
     0
  0
CLASS
  1
AM_DWG_DOCUMENT
  2
AcDmDwgDocument
  3
AcMechDwgViewMgmt
 90
     1024
280
     0
281
     0
  0
CLASS
  1
AM_DWG_SHEET
  2
AcDmSheet
  3
AcMechDwgViewMgmt
 90
     1024
280
     0
281
     0
  0
CLASS
  1
AM_VIEWDIMPARMAP
  2
AcDmViewDimParMap
  3
AcMechDwgViewMgmt
 90
     1024
280
     0
281
     0
  0
CLASS
  1
AM_DWGMGR_NAME
  2
AcDmDwgMgrName
  3
AcMechDwgViewMgmt
 90
     1024
280
     0
281
     0
  0
CLASS
  1
ACGREFACADMASTER
  2
AcGrefacadMaster
  3
AcGrefServices
 90
     1024
280
     0
281
     0
  0
CLASS
  1
AMDTMENUSTATEMGR
  2
AmdtMenuStateMgr
  3
McadcomServices
 90
     1024
280
     0
281
     0
  0
CLASS
  1
AMDTMCOMMENUSTATE
  2
AmdtMcomMenuState
  3
McadcomServices
 90
     1024
280
     0
281
     0
  0
CLASS
  1
AMIMASTER
  2
AmiMaster
  3
AmiServices
 90
     1024
280
     0
281
     0
  0
CLASS
  1
MAPIAMMOUDLE
  2
MApiAmModule
  3
MApiAmServices
 90
     1024
280
     0
281
     0
  0
CLASS
  1
AMDTADMENUSTATE
  2
AmdtAdMenuState
  3
DesignerServices
 90
     1024
280
     0
281
     0
  0
CLASS
  1
ADAPPL
  2
AcAdAppl
  3
DesignerServices
 90
     1024
280
     0
281
     0
  0
CLASS
  1
DEPMGR
  2
AcAdDepMgr
  3
DesignerServices
 90
     1024
280
     0
281
     0
  0
CLASS
  1
PARAMMGR
  2
AcAdParamMgr
  3
DesignerServices
 90
     1024
280
     0
281
     0
  0
CLASS
  1
PARAMSCOPE
  2
AcAdParamScope
  3
DesignerServices
 90
     1024
280
     0
281
     0
  0
CLASS
  1
NAMEDAPPL
  2
AcAdNamedAppl
  3
DesignerServices
 90
     1024
280
     0
281
     0
  0
CLASS
  1
AMDTDMMENUSTATE
  2
AmdtDmMenuState
  3
AcMechDwgViewMgmt
 90
     1024
280
     0
281
     0
  0
CLASS
  1
AMDTAMMENUSTATE
  2
AmdtAmMenuState
  3
DesignerAssemblies
 90
     1024
280
     0
281
     0
  0
CLASS
  1
ACAMPROJECT
  2
AcAmProject
  3
DesignerAssemblies
 90
     1024
280
     0
281
     0
  0
CLASS
  1
ACAMGRCOMPDEF
  2
AcAmGrCompDef
  3
DesignerAssemblies
 90
     1024
280
     0
281
     0
  0
CLASS
  1
ACCMCONTEXT
  2
AcCmContext
  3
DesignerAssemblies
 90
     1024
280
     0
281
     0
  0
CLASS
  1
ACAMCOMPDEF
  2
AcAmCompDef
  3
DesignerAssemblies
 90
     1024
280
     0
281
     0
  0
CLASS
  1
ACAMCOMPDEFMGR
  2
AcAmCompDefMgr
  3
DesignerAssemblies
 90
     1024
280
     0
281
     0
  0
CLASS
  1
AMCONTEXTMGR
  2
AcAmContextMgr
  3
DesignerAssemblies
 90
     1024
280
     0
281
     0
  0
CLASS
  1
ACAMCONTEXTMODELER
  2
AcAmContextModeler
  3
DesignerAssemblies
 90
     1024
280
     0
281
     0
  0
CLASS
  1
ACAMGTITLESTD
  2
AcAmgTitleStd
  3
"AmgTitle|Product Description: AutoCAD Mechanical|Company: Autodesk, Inc."
 90
     4095
280
     0
281
     0
  0
CLASS
  1
ACMDETAILSTANDARDJIS
  2
AmdtDetailSymStdJIS
  3
"Amdt_StdImp|Product Description: AutoCAD Mechanical|Company: Autodesk, Inc."
 90
     1024
280
     0
281
     0
  0
CLASS
  1
ACMSECTIONSTANDARDJIS
  2
AmdtSectionSymStdJIS
  3
"Amdt_StdImp|Product Description: AutoCAD Mechanical|Company: Autodesk, Inc."
 90
     1024
280
     0
281
     0
  0
CLASS
  1
ACMCENTERLINESTANDARDJIS
  2
AmdtCenterLineStdJIS
  3
"Amdt_StdImp|Product Description: AutoCAD Mechanical|Company: Autodesk, Inc."
 90
     1024
280
     0
281
     0
  0
CLASS
  1
ACMTHREADLINESTANDARDJIS
  2
AmdtThreadLineStdJIS
  3
"Amdt_StdImp|Product Description: AutoCAD Mechanical|Company: Autodesk, Inc."
 90
     1024
280
     0
281
     0
  0
CLASS
  1
ACMNOTESTANDARDJIS
  2
AmdtNoteStdJIS
  3
"Amdt_StdImp|Product Description: AutoCAD Mechanical|Company: Autodesk, Inc."
 90
     1024
280
     0
281
     0
  0
CLASS
  1
AMDTNOTETEMPLATEDB
  2
AmdtNoteTemplateDB
  3
AcmSymBB|Product Description: AutoCAD Mechanical|Company: Autodesk, Inc.
 90
     1024
280
     0
281
     0
  0
CLASS
  1
ACMDETAILSTANDARDANSI
  2
AmdtDetailSymStdANSI
  3
"Amdt_StdImp|Product Description: AutoCAD Mechanical|Company: Autodesk, Inc."
 90
     1024
280
     0
281
     0
  0
CLASS
  1
ACMSECTIONSTANDARDANSI
  2
AmdtSectionSymStdANSI
  3
"Amdt_StdImp|Product Description: AutoCAD Mechanical|Company: Autodesk, Inc."
 90
     1024
280
     0
281
     0
  0
CLASS
  1
ACMCENTERLINESTANDARDANSI
  2
AmdtCenterLineStdANSI
  3
"Amdt_StdImp|Product Description: AutoCAD Mechanical|Company: Autodesk, Inc."
 90
     1024
280
     0
281
     0
  0
CLASS
  1
ACMTHREADLINESTANDARDANSI
  2
AmdtThreadLineStdANSI
  3
"Amdt_StdImp|Product Description: AutoCAD Mechanical|Company: Autodesk, Inc."
 90
     1024
280
     0
281
     0
  0
CLASS
  1
ACMNOTESTANDARDANSI
  2
AmdtNoteStdANSI
  3
"Amdt_StdImp|Product Description: AutoCAD Mechanical|Company: Autodesk, Inc."
 90
     1024
280
     0
281
     0
  0
CLASS
  1
ACMDETAILSTANDARDBSI
  2
AmdtDetailSymStdBSI
  3
"Amdt_StdImp|Product Description: AutoCAD Mechanical|Company: Autodesk, Inc."
 90
     1024
280
     0
281
     0
  0
CLASS
  1
ACMSECTIONSTANDARDBSI
  2
AmdtSectionSymStdBSI
  3
"Amdt_StdImp|Product Description: AutoCAD Mechanical|Company: Autodesk, Inc."
 90
     1024
280
     0
281
     0
  0
CLASS
  1
ACMCENTERLINESTANDARDBSI
  2
AmdtCenterLineStdBSI
  3
"Amdt_StdImp|Product Description: AutoCAD Mechanical|Company: Autodesk, Inc."
 90
     1024
280
     0
281
     0
  0
CLASS
  1
ACMTHREADLINESTANDARDBSI
  2
AmdtThreadLineStdBSI
  3
"Amdt_StdImp|Product Description: AutoCAD Mechanical|Company: Autodesk, Inc."
 90
     1024
280
     0
281
     0
  0
CLASS
  1
ACMNOTESTANDARDBSI
  2
AmdtNoteStdBSI
  3
"Amdt_StdImp|Product Description: AutoCAD Mechanical|Company: Autodesk, Inc."
 90
     1024
280
     0
281
     0
  0
CLASS
  1
ACMDETAILSTANDARDDIN
  2
AmdtDetailSymStdDIN
  3
"Amdt_StdImp|Product Description: AutoCAD Mechanical|Company: Autodesk, Inc."
 90
     1024
280
     0
281
     0
  0
CLASS
  1
ACMSECTIONSTANDARDDIN
  2
AmdtSectionSymStdDIN
  3
"Amdt_StdImp|Product Description: AutoCAD Mechanical|Company: Autodesk, Inc."
 90
     1024
280
     0
281
     0
  0
CLASS
  1
ACMCENTERLINESTANDARDDIN
  2
AmdtCenterLineStdDIN
  3
"Amdt_StdImp|Product Description: AutoCAD Mechanical|Company: Autodesk, Inc."
 90
     1024
280
     0
281
     0
  0
CLASS
  1
ACMTHREADLINESTANDARDDIN
  2
AmdtThreadLineStdDIN
  3
"Amdt_StdImp|Product Description: AutoCAD Mechanical|Company: Autodesk, Inc."
 90
     1024
280
     0
281
     0
  0
CLASS
  1
ACMNOTESTANDARDDIN
  2
AmdtNoteStdDIN
  3
"Amdt_StdImp|Product Description: AutoCAD Mechanical|Company: Autodesk, Inc."
 90
     1024
280
     0
281
     0
  0
CLASS
  1
ACMDETAILSTANDARDISO
  2
AmdtDetailSymStdISO
  3
"Amdt_StdImp|Product Description: AutoCAD Mechanical|Company: Autodesk, Inc."
 90
     1024
280
     0
281
     0
  0
CLASS
  1
ACMSECTIONSTANDARDISO
  2
AmdtSectionSymStdISO
  3
"Amdt_StdImp|Product Description: AutoCAD Mechanical|Company: Autodesk, Inc."
 90
     1024
280
     0
281
     0
  0
CLASS
  1
ACMCENTERLINESTANDARDISO
  2
AmdtCenterLineStdISO
  3
"Amdt_StdImp|Product Description: AutoCAD Mechanical|Company: Autodesk, Inc."
 90
     1024
280
     0
281
     0
  0
CLASS
  1
ACMTHREADLINESTANDARDISO
  2
AmdtThreadLineStdISO
  3
"Amdt_StdImp|Product Description: AutoCAD Mechanical|Company: Autodesk, Inc."
 90
     1024
280
     0
281
     0
  0
CLASS
  1
ACMNOTESTANDARDISO
  2
AmdtNoteStdISO
  3
"Amdt_StdImp|Product Description: AutoCAD Mechanical|Company: Autodesk, Inc."
 90
     1024
280
     0
281
     0
  0
CLASS
  1
ACAMGLAYSTD
  2
AcAmgLayStd
  3
"AmgLay|Product Description: AutoCAD Mechanical|Company: Autodesk, Inc."
 90
     1024
280
     0
281
     0
  0
CLASS
  1
ACAMGDIMSTD
  2
AcAmgDimStd
  3
"AmgDim|Product Description: AutoCAD Mechanical|Company: Autodesk, Inc."
 90
     1024
280
     0
281
     0
  0
CLASS
  1
ACAMGHOLECHARTSTDANSI
  2
AcAmgHoleChartStdANSI
  3
AmgDim|Product Description: AutoCAD Mechanical|Company: Autodesk, Inc.
 90
     1024
280
     0
281
     0
  0
CLASS
  1
ACAMGHOLECHARTSTDBSI
  2
AcAmgHoleChartStdBSI
  3
AmgDim|Product Description: AutoCAD Mechanical|Company: Autodesk, Inc.
 90
     1024
280
     0
281
     0
  0
CLASS
  1
ACAMGHOLECHARTSTDDIN
  2
AcAmgHoleChartStdDIN
  3
AmgDim|Product Description: AutoCAD Mechanical|Company: Autodesk, Inc.
 90
     1024
280
     0
281
     0
  0
CLASS
  1
ACAMGHOLECHARTSTDISO
  2
AcAmgHoleChartStdISO
  3
AmgDim|Product Description: AutoCAD Mechanical|Company: Autodesk, Inc.
 90
     1024
280
     0
281
     0
  0
CLASS
  1
ACAMGHOLECHARTSTDJIS
  2
AcAmgHoleChartStdJIS
  3
AmgDim|Product Description: AutoCAD Mechanical|Company: Autodesk, Inc.
 90
     1024
280
     0
281
     0
  0
CLASS
  1
CATALOGSTATE
  2
AcAmCatalogState
  3
DesignerAssemblies
 90
     1024
280
     0
281
     0
  0
CLASS
  1
ACAMGRCOMPDEFSET
  2
AcAmGrCompDefSet
  3
DesignerAssemblies
 90
     1024
280
     0
281
     0
  0
CLASS
  1
AMDTBROWSERDBTAB
  2
AmdtBrowserDbTab
  3
McadcomServices
 90
     1024
280
     0
281
     0
  0
CLASS
  1
CBROWSERAPPOBJECT
  2
CBrowserAppObject
  3
McadcomServices
 90
     1024
280
     0
281
     0
  0
CLASS
  1
DM_PLACEHOLDER
  2
AcDmSelsetPlaceholder
  3
AcMechDwgViewMgmt
 90
     1024
280
     0
281
     0
  0
CLASS
  1
VAACXREFPANELOBJECT
  2
VaAcXREFPanelObject
  3
VAAC_ADDIN
 90
    32768
280
     0
281
     0
  0
CLASS
  1
VAACIMAGEINVENTORY
  2
VaAcImageInventory
  3
VAAC_ADDIN
 90
    32768
280
     0
281
     0
  0
CLASS
  1
MATERIAL
  2
AcDbMaterial
  3
ObjectDBX Classes
 90
     1153
280
     0
281
     0
  0
CLASS
  1
VISUALSTYLE
  2
AcDbVisualStyle
  3
ObjectDBX Classes
 90
     4095
280
     0
281
     0
  0
CLASS
  1
ACRFATTGENMGR
  2
AcRfAttGeneralMgr
  3
AcAttribServices
 90
     1024
280
     0
281
     0
  0
CLASS
  1
ACRFOBJATTMGR
  2
AcRfObjAttGroupMgr
  3
AcAttribServices
 90
     1024
280
     0
281
     0
  0
CLASS
  1
ACRFMCADAPIATTHOLDER
  2
AcRfMCADAPIAttHolder
  3
AcAttribServices
 90
     1024
280
     0
281
     0
  0
CLASS
  1
AMDTSYSATTR
  2
AmdtSystemAttribute
  3
AcAttribServices
 90
     1024
280
     0
281
     0
  0
CLASS
  1
ACMTAPERSTANDARDJIS
  2
AcmTaperStdJIS
  3
"Amdt_StdImp|Product Description: AutoCAD Mechanical|Company: Autodesk, Inc."
 90
     1024
280
     0
281
     0
  0
CLASS
  1
ACMTAPERSTANDARDANSI
  2
AcmTaperStdANSI
  3
"Amdt_StdImp|Product Description: AutoCAD Mechanical|Company: Autodesk, Inc."
 90
     1024
280
     0
281
     0
  0
CLASS
  1
ACMTAPERSTANDARDBSI
  2
AcmTaperStdBSI
  3
"Amdt_StdImp|Product Description: AutoCAD Mechanical|Company: Autodesk, Inc."
 90
     1024
280
     0
281
     0
  0
CLASS
  1
ACMTAPERSTANDARDDIN
  2
AcmTaperStdDIN
  3
"Amdt_StdImp|Product Description: AutoCAD Mechanical|Company: Autodesk, Inc."
 90
     1024
280
     0
281
     0
  0
CLASS
  1
ACMTAPERSTANDARDISO
  2
AcmTaperStdISO
  3
"Amdt_StdImp|Product Description: AutoCAD Mechanical|Company: Autodesk, Inc."
 90
     1024
280
     0
281
     0
  0
CLASS
  1
CAMSSTRUCTBTNSTATE
  2
StructBtnState
  3
DesignerAssemblies
 90
     1024
280
     0
281
     0
  0
CLASS
  1
SCALE
  2
AcDbScale
  3
ObjectDBX Classes
 90
     1153
280
     0
281
     0
  0
CLASS
  1
MLEADERSTYLE
  2
AcDbMLeaderStyle
  3
ACDB_MLEADERSTYLE_CLASS
 90
     4095
280
     0
281
     0
  0
CLASS
  1
ACMANOOTATIONVIEWSTANDARDJIS
  2
AmdtAnViewStdJIS
  3
"Amdt_StdImp|Product Description: AutoCAD Mechanical|Company: Autodesk, Inc."
 90
     1024
280
     0
281
     0
  0
CLASS
  1
ACMANOOTATIONVIEWSTANDARDANSI
  2
AmdtAnViewStdANSI
  3
"Amdt_StdImp|Product Description: AutoCAD Mechanical|Company: Autodesk, Inc."
 90
     1024
280
     0
281
     0
  0
CLASS
  1
ACMANOOTATIONVIEWSTANDARDBSI
  2
AmdtAnViewStdBSI
  3
"Amdt_StdImp|Product Description: AutoCAD Mechanical|Company: Autodesk, Inc."
 90
     1024
280
     0
281
     0
  0
CLASS
  1
ACMANOOTATIONVIEWSTANDARDDIN
  2
AmdtAnViewStdDIN
  3
"Amdt_StdImp|Product Description: AutoCAD Mechanical|Company: Autodesk, Inc."
 90
     1024
280
     0
281
     0
  0
CLASS
  1
ACMANOOTATIONVIEWSTANDARDISO
  2
AmdtAnViewStdISO
  3
"Amdt_StdImp|Product Description: AutoCAD Mechanical|Company: Autodesk, Inc."
 90
     1024
280
     0
281
     0
  0
CLASS
  1
CELLSTYLEMAP
  2
AcDbCellStyleMap
  3
ObjectDBX Classes
 90
     1152
280
     0
281
     0
  0
CLASS
  1
ACMDIMBREAKPERSREACTOR
  2
AcmDimBreakPersReactor
  3
AmgDim|Product Description: AutoCAD Mechanical|Company: Autodesk, Inc.
 90
     4095
280
     0
281
     0
  0
ENDSEC
  0
SECTION
  2
TABLES
  0
TABLE
  2
VPORT
  5
13
330
0
100
AcDbSymbolTable
 70
     1
  0
VPORT
  5
888
330
13
100
AcDbSymbolTableRecord
100
AcDbViewportTableRecord
  2
*Active
 70
     0
 10
0.0
 20
0.0
 11
1.0
 21
1.0
 12
594.4733204514293
 22
282.8921054672437
 13
0.0
 23
0.0
 14
10.0
 24
10.0
 15
10.0
 25
10.0
 16
0.0
 26
0.0
 36
1.0
 17
0.0
 27
0.0
 37
0.0
 40
676.173433932378
 41
1.583072100313479
 42
50.0
 43
0.0
 44
0.0
 50
0.0
 51
0.0
 71
     0
 72
   100
 73
     1
 74
     0
 75
     0
 76
     0
 77
     0
 78
     0
281
     0
 65
     1
110
0.0
120
0.0
130
0.0
111
1.0
121
0.0
131
0.0
112
0.0
122
1.0
132
0.0
 79
     0
146
0.0
  0
ENDTAB
  0
TABLE
  2
LTYPE
  5
E
330
0
100
AcDbSymbolTable
 70
    21
  0
LTYPE
  5
F
330
E
100
AcDbSymbolTableRecord
100
AcDbLinetypeTableRecord
  2
BYBLOCK
 70
     0
  3

 72
    65
 73
     0
 40
0.0
  0
LTYPE
  5
10
330
E
100
AcDbSymbolTableRecord
100
AcDbLinetypeTableRecord
  2
BYLAYER
 70
     0
  3

 72
    65
 73
     0
 40
0.0
  0
LTYPE
  5
6
330
E
100
AcDbSymbolTableRecord
100
AcDbLinetypeTableRecord
  2
CONTINUOUS
 70
     0
  3
Solid line
 72
    65
 73
     0
 40
0.0
  0
LTYPE
  5
3E
330
E
100
AcDbSymbolTableRecord
100
AcDbLinetypeTableRecord
  2
MITTE
 70
     0
  3
____ _ ____ _ ____ _ ____ _ ____ _ ____ _ ____ 
 72
    65
 73
     4
 40
2.0
 49
1.25
 74
     0
 49
-0.25
 74
     0
 49
0.25
 74
     0
 49
-0.25
 74
     0
  0
LTYPE
  5
191
330
E
100
AcDbSymbolTableRecord
100
AcDbLinetypeTableRecord
  2
GESTRICHELT
 70
     0
  3
__ __ __ __ __ __ __ __ __ __ __ __ __ __ __ __
 72
    65
 73
     2
 40
0.75
 49
0.5
 74
     0
 49
-0.25
 74
     0
  0
LTYPE
  5
30E
330
E
100
AcDbSymbolTableRecord
100
AcDbLinetypeTableRecord
  2
ACJISTGB
 70
     0
  3
__ . . __ . .
 72
    65
 73
     6
 40
9.0
 49
4.0
 74
     0
 49
-1.0
 74
     0
 49
1.0
 74
     0
 49
-1.0
 74
     0
 49
1.0
 74
     0
 49
-1.0
 74
     0
  0
LTYPE
  5
30F
330
E
100
AcDbSymbolTableRecord
100
AcDbLinetypeTableRecord
  2
ACJISTGL
 70
     0
  3
_ _ _ _ _
 72
    65
 73
     2
 40
3.0
 49
2.0
 74
     0
 49
-1.0
 74
     0
  0
LTYPE
  5
312
330
E
100
AcDbSymbolTableRecord
100
AcDbLinetypeTableRecord
  2
ACANSTGB
 70
     0
  3
__ . . __ . .
 72
    65
 73
     6
 40
0.35433070866
 49
0.15748031496
 74
     0
 49
-0.03937007874
 74
     0
 49
0.03937007874
 74
     0
 49
-0.03937007874
 74
     0
 49
0.03937007874
 74
     0
 49
-0.03937007874
 74
     0
  0
LTYPE
  5
313
330
E
100
AcDbSymbolTableRecord
100
AcDbLinetypeTableRecord
  2
ACANSTGL
 70
     0
  3
_ _ _ _ _
 72
    65
 73
     2
 40
0.11811023622
 49
0.07874015748
 74
     0
 49
-0.03937007874
 74
     0
  0
LTYPE
  5
316
330
E
100
AcDbSymbolTableRecord
100
AcDbLinetypeTableRecord
  2
ACBSIWELD
 70
     0
  3
_ _ _ _ _
 72
    65
 73
     2
 40
2.0
 49
2.0
 74
     0
 49
-1.0
 74
     0
  0
LTYPE
  5
317
330
E
100
AcDbSymbolTableRecord
100
AcDbLinetypeTableRecord
  2
ACBSITGB
 70
     0
  3
__ . . __ . .
 72
    65
 73
     6
 40
9.0
 49
4.0
 74
     0
 49
-1.0
 74
     0
 49
1.0
 74
     0
 49
-1.0
 74
     0
 49
1.0
 74
     0
 49
-1.0
 74
     0
  0
LTYPE
  5
318
330
E
100
AcDbSymbolTableRecord
100
AcDbLinetypeTableRecord
  2
ACBSITGL
 70
     0
  3
_ _ _ _ _
 72
    65
 73
     2
 40
3.0
 49
2.0
 74
     0
 49
-1.0
 74
     0
  0
LTYPE
  5
31B
330
E
100
AcDbSymbolTableRecord
100
AcDbLinetypeTableRecord
  2
ACDINWELD
 70
     0
  3
_ _ _ _ _
 72
    65
 73
     2
 40
2.0
 49
2.0
 74
     0
 49
-1.0
 74
     0
  0
LTYPE
  5
31C
330
E
100
AcDbSymbolTableRecord
100
AcDbLinetypeTableRecord
  2
ACDINTGB
 70
     0
  3
__ . . __ . .
 72
    65
 73
     6
 40
9.0
 49
4.0
 74
     0
 49
-1.0
 74
     0
 49
1.0
 74
     0
 49
-1.0
 74
     0
 49
1.0
 74
     0
 49
-1.0
 74
     0
  0
LTYPE
  5
31D
330
E
100
AcDbSymbolTableRecord
100
AcDbLinetypeTableRecord
  2
ACDINTGL
 70
     0
  3
_ _ _ _ _
 72
    65
 73
     2
 40
3.0
 49
2.0
 74
     0
 49
-1.0
 74
     0
  0
LTYPE
  5
320
330
E
100
AcDbSymbolTableRecord
100
AcDbLinetypeTableRecord
  2
ACISOWELD
 70
     0
  3
_ _ _ _ _
 72
    65
 73
     2
 40
2.0
 49
2.0
 74
     0
 49
-1.0
 74
     0
  0
LTYPE
  5
321
330
E
100
AcDbSymbolTableRecord
100
AcDbLinetypeTableRecord
  2
ACISOTGB
 70
     0
  3
__ . . __ . .
 72
    65
 73
     6
 40
9.0
 49
4.0
 74
     0
 49
-1.0
 74
     0
 49
1.0
 74
     0
 49
-1.0
 74
     0
 49
1.0
 74
     0
 49
-1.0
 74
     0
  0
LTYPE
  5
322
330
E
100
AcDbSymbolTableRecord
100
AcDbLinetypeTableRecord
  2
ACISOTGL
 70
     0
  3
_ _ _ _ _
 72
    65
 73
     2
 40
3.0
 49
2.0
 74
     0
 49
-1.0
 74
     0
  0
LTYPE
  5
365
330
E
100
AcDbSymbolTableRecord
100
AcDbLinetypeTableRecord
  2
Amconstr
 70
     0
  3
_______________________
 72
    65
 73
     2
 40
9999.0
 49
9999.0
 74
     0
 49
0.0
 74
     0
  0
LTYPE
  5
36B
330
E
100
AcDbSymbolTableRecord
100
AcDbLinetypeTableRecord
  2
PHANTOM2
 70
     0
  3
Phantom (.5x) ___ _ _ ___ _ _ ___ _ _ ___ _ _
 72
    65
 73
     6
 40
1.25
 49
0.625
 74
     0
 49
-0.125
 74
     0
 49
0.125
 74
     0
 49
-0.125
 74
     0
 49
0.125
 74
     0
 49
-0.125
 74
     0
  0
LTYPE
  5
36C
330
E
100
AcDbSymbolTableRecord
100
AcDbLinetypeTableRecord
  2
Amzigzag2
 70
     0
  3
/\/-/\/-/\/-/\/-/\/-/\/
 72
    65
 73
     2
 40
0.4401
 49
0.0001
 74
     4
 75
   135
340
369
 46
0.0016
 50
0.0
 44
0.0
 45
0.0
 49
-0.4400000000000001
 74
     0
  0
LTYPE
  5
3E7
330
E
100
AcDbSymbolTableRecord
100
AcDbLinetypeTableRecord
  2
HIDDEN
 70
     0
  3
Verdeckt
 72
    65
 73
     2
 40
0.375
 49
0.25
 74
     0
 49
-0.125
 74
     0
  0
LTYPE
  5
3E8
330
E
100
AcDbSymbolTableRecord
100
AcDbLinetypeTableRecord
  2
CENTER
 70
     0
  3
Mitte ____ _ ____ _ ____ _ ____ _ ____ _ ____
 72
    65
 73
     4
 40
2.0
 49
1.25
 74
     0
 49
-0.25
 74
     0
 49
0.25
 74
     0
 49
-0.25
 74
     0
  0
ENDTAB
  0
TABLE
  2
LAYER
  5
B
330
0
100
AcDbSymbolTable
 70
     5
  0
LAYER
  5
5
102
{ACAD_XDICTIONARY
360
911
102
}
330
B
100
AcDbSymbolTableRecord
100
AcDbLayerTableRecord
  2
0
 70
     0
 62
     7
  6
CONTINUOUS
370
    -3
390
33A
  0
LAYER
  5
21
102
{ACAD_XDICTIONARY
360
913
102
}
330
B
100
AcDbSymbolTableRecord
100
AcDbLayerTableRecord
  2
BEM
 70
     0
 62
     1
  6
CONTINUOUS
370
    -3
390
33A
  0
LAYER
  5
3D
102
{ACAD_XDICTIONARY
360
915
102
}
330
B
100
AcDbSymbolTableRecord
100
AcDbLayerTableRecord
  2
MITTE
 70
     0
 62
     6
  6
MITTE
370
    -3
390
33A
  0
LAYER
  5
52
102
{ACAD_XDICTIONARY
360
917
102
}
330
B
100
AcDbSymbolTableRecord
100
AcDbLayerTableRecord
  2
LINIE
 70
     0
 62
     6
  6
CONTINUOUS
370
    -3
390
33A
  0
LAYER
  5
2A
330
B
100
AcDbSymbolTableRecord
100
AcDbLayerTableRecord
  2
Defpoints
 70
     0
 62
     7
  6
CONTINUOUS
290
     0
370
    -3
390
33A
  0
ENDTAB
  0
TABLE
  2
STYLE
  5
C
330
0
100
AcDbSymbolTable
 70
    12
  0
STYLE
  5
D
330
C
100
AcDbSymbolTableRecord
100
AcDbTextStyleTableRecord
  2
STANDARD
 70
     0
 40
0.0
 41
1.0
 50
0.0
 71
     0
 42
10.0
  3
romans.shx
  4

  0
STYLE
  5
30C
330
C
100
AcDbSymbolTableRecord
100
AcDbTextStyleTableRecord
  2
ACJISTS
 70
     0
 40
1.0
 41
1.0
 50
0.0
 71
     0
 42
10.0
  3
isocp.shx
  4
bigfont.shx
  0
STYLE
  5
30D
330
C
100
AcDbSymbolTableRecord
100
AcDbTextStyleTableRecord
  2
ACJISGDT
 70
     0
 40
0.0
 41
1.0
 50
0.0
 71
     0
 42
10.0
  3
amgdt.shx
  4

  0
STYLE
  5
310
330
C
100
AcDbSymbolTableRecord
100
AcDbTextStyleTableRecord
  2
ACANSTSB
 70
     0
 40
1.0
 41
1.0
 50
0.0
 71
     0
 42
10.0
  3
romans.shx
  4

  0
STYLE
  5
311
330
C
100
AcDbSymbolTableRecord
100
AcDbTextStyleTableRecord
  2
ACANSGDT
 70
     0
 40
0.0
 41
1.0
 50
0.0
 71
     0
 42
10.0
  3
amgdt.shx
  4

  0
STYLE
  5
314
330
C
100
AcDbSymbolTableRecord
100
AcDbTextStyleTableRecord
  2
ACBSITS
 70
     0
 40
1.0
 41
1.0
 50
0.0
 71
     0
 42
10.0
  3
isocp.shx
  4

  0
STYLE
  5
315
330
C
100
AcDbSymbolTableRecord
100
AcDbTextStyleTableRecord
  2
ACBSIGDT
 70
     0
 40
0.0
 41
1.0
 50
0.0
 71
     0
 42
10.0
  3
amgdt.shx
  4

  0
STYLE
  5
319
330
C
100
AcDbSymbolTableRecord
100
AcDbTextStyleTableRecord
  2
ACDINTS
 70
     0
 40
1.0
 41
1.0
 50
0.0
 71
     0
 42
10.0
  3
isocp.shx
  4

  0
STYLE
  5
31A
330
C
100
AcDbSymbolTableRecord
100
AcDbTextStyleTableRecord
  2
ACDINGDT
 70
     0
 40
0.0
 41
1.0
 50
0.0
 71
     0
 42
10.0
  3
amgdt.shx
  4

  0
STYLE
  5
31E
330
C
100
AcDbSymbolTableRecord
100
AcDbTextStyleTableRecord
  2
ACISOTS
 70
     0
 40
1.0
 41
1.0
 50
0.0
 71
     0
 42
10.0
  3
isocp.shx
  4

  0
STYLE
  5
31F
330
C
100
AcDbSymbolTableRecord
100
AcDbTextStyleTableRecord
  2
ACISOGDT
 70
     0
 40
0.0
 41
1.0
 50
0.0
 71
     0
 42
10.0
  3
amgdt.shx
  4

  0
STYLE
  5
369
330
C
100
AcDbSymbolTableRecord
100
AcDbTextStyleTableRecord
  2

 70
     1
 40
0.0
 41
1.0
 50
0.0
 71
     0
 42
10.0
  3
ltypeshp.shx
  4

  0
ENDTAB
  0
TABLE
  2
VIEW
  5
11
330
0
100
AcDbSymbolTable
 70
     0
  0
ENDTAB
  0
TABLE
  2
UCS
  5
12
330
0
100
AcDbSymbolTable
 70
     0
  0
ENDTAB
  0
TABLE
  2
APPID
  5
15
330
0
100
AcDbSymbolTable
 70
    11
  0
APPID
  5
16
330
15
100
AcDbSymbolTableRecord
100
AcDbRegAppTableRecord
  2
ACAD
 70
     0
  0
APPID
  5
2E9
330
15
100
AcDbSymbolTableRecord
100
AcDbRegAppTableRecord
  2
MCAD_NO_VIS
 70
     0
  0
APPID
  5
349
330
15
100
AcDbSymbolTableRecord
100
AcDbRegAppTableRecord
  2
ACAD_TEMP_GRAPHIC
 70
     0
  0
APPID
  5
3EA
330
15
100
AcDbSymbolTableRecord
100
AcDbRegAppTableRecord
  2
AD_DRAW
 70
     0
  0
APPID
  5
3ED
330
15
100
AcDbSymbolTableRecord
100
AcDbRegAppTableRecord
  2
ACATTRIBSERVICES
 70
     0
  0
APPID
  5
40B
330
15
100
AcDbSymbolTableRecord
100
AcDbRegAppTableRecord
  2
DESIGNERASSEMBLIES
 70
     0
  0
APPID
  5
484
330
15
100
AcDbSymbolTableRecord
100
AcDbRegAppTableRecord
  2
ACADM_DIM_EDIT
 70
     0
  0
APPID
  5
485
330
15
100
AcDbSymbolTableRecord
100
AcDbRegAppTableRecord
  2
AMDT_DM_ADJ
 70
     0
  0
APPID
  5
8F1
330
15
100
AcDbSymbolTableRecord
100
AcDbRegAppTableRecord
  2
ACAD_MLEADERVER
 70
     0
  0
APPID
  5
922
330
15
100
AcDbSymbolTableRecord
100
AcDbRegAppTableRecord
  2
ACAD_PSEXT
 70
     0
  0
APPID
  5
925
330
15
100
AcDbSymbolTableRecord
100
AcDbRegAppTableRecord
  2
DCO15
 70
     0
  0
ENDTAB
  0
TABLE
  2
DIMSTYLE
  5
17
330
0
100
AcDbSymbolTable
 70
    36
100
AcDbDimStyleTable
 71
     1
340
1D
  0
DIMSTYLE
105
1D
330
17
100
AcDbSymbolTableRecord
100
AcDbDimStyleTableRecord
  2
ISO-25
 70
     0
 41
7.0
 42
0.0
 43
7.0
 44
1.25
 73
     0
 74
     0
 77
     1
 78
     8
140
10.0
141
0.0
144
0.5
147
4.0
172
     1
176
   256
177
   256
178
   256
284
     8
288
     1
340
D
  0
DIMSTYLE
105
111
330
17
100
AcDbSymbolTableRecord
100
AcDbDimStyleTableRecord
  2
STANDARD
 70
     0
  4
"
 41
7.0
 42
0.0
 43
7.0
 44
1.25
 47
0.1
 48
0.1
 73
     0
 74
     0
 77
     1
 78
     8
140
10.0
141
0.0
143
0.0393701
144
0.5
147
4.0
172
     1
176
   256
177
   256
178
   256
271
     2
272
     3
274
     4
283
     0
284
     8
288
     1
340
D
  0
DIMSTYLE
105
44C
330
17
100
AcDbSymbolTableRecord
100
AcDbDimStyleTableRecord
  2
AM_ANSI
 70
     0
  4
mm
 41
0.1
 42
0.05
 43
0.5
 44
0.1
 47
0.1
 48
0.1
 78
     7
 79
     2
140
0.12
141
0.0
146
0.71
147
0.06
176
   256
177
   256
178
     2
274
     4
284
     7
340
D
371
    -1
372
    -1
  0
DIMSTYLE
105
44D
330
17
100
AcDbSymbolTableRecord
100
AcDbDimStyleTableRecord
  2
AM_ANSI$3
 70
     0
  4
mm
 41
0.1
 42
0.05
 43
0.5
 44
0.1
 47
0.1
 48
0.1
 78
     7
 79
     2
140
0.12
141
0.0
146
0.71
147
0.06
176
   256
177
   256
178
     2
274
     4
284
     7
288
     1
289
     0
340
D
371
    -1
372
    -1
  0
DIMSTYLE
105
44E
330
17
100
AcDbSymbolTableRecord
100
AcDbDimStyleTableRecord
  2
AM_ANSI$4
 70
     0
  4
mm
 41
0.1
 42
0.05
 43
0.5
 44
0.1
 47
0.1
 48
0.1
 78
     7
 79
     2
140
0.12
141
0.0
146
0.71
147
0.06
176
   256
177
   256
178
     2
274
     4
284
     7
288
     1
289
     0
340
D
371
    -1
372
    -1
  0
DIMSTYLE
105
44F
330
17
100
AcDbSymbolTableRecord
100
AcDbDimStyleTableRecord
  2
AM_ANSI$7
 70
     0
  4
mm
 41
0.1
 42
0.05
 43
0.5
 44
0.1
 47
0.1
 48
0.1
 78
     7
 79
     2
140
0.24
141
0.0
146
0.71
147
0.06
176
   256
177
   256
178
     2
274
     4
284
     7
340
D
371
    -1
372
    -1
  0
DIMSTYLE
105
450
330
17
100
AcDbSymbolTableRecord
100
AcDbDimStyleTableRecord
  2
AM_ANSI$SF
 70
     0
  4
mm
 41
0.1
 42
0.05
 43
0.5
 44
0.1
 47
0.1
 48
0.1
 75
     1
 76
     1
 78
     7
 79
     2
140
0.12
141
0.0
146
0.71
147
0.06
176
   256
177
   256
178
     2
274
     4
284
     7
340
D
371
    -1
372
    -1
  0
DIMSTYLE
105
455
330
17
100
AcDbSymbolTableRecord
100
AcDbDimStyleTableRecord
  2
AM_ANSI$SH
 70
     0
  4
mm
 41
0.1
 42
0.05
 43
0.5
 44
0.1
 47
0.1
 48
0.1
 75
     1
 76
     1
 78
     7
 79
     2
140
0.12
141
0.0
146
0.71
147
0.06
173
     1
176
   256
177
   256
178
     2
274
     4
284
     7
340
D
343
451
371
    -1
372
    -1
  0
DIMSTYLE
105
458
330
17
100
AcDbSymbolTableRecord
100
AcDbDimStyleTableRecord
  2
AM_BSI
 70
     0
  4
mm
 41
0.1574803149606299
 42
0.05
 43
0.5
 44
0.1
 47
0.1
 48
0.1
 73
     0
 74
     0
 77
     1
 78
     7
 79
     2
140
0.12
141
0.0
146
0.71
147
0.06
172
     1
176
   256
177
   256
178
     2
274
     4
283
     0
284
     7
340
D
371
    -1
372
    -1
  0
DIMSTYLE
105
459
330
17
100
AcDbSymbolTableRecord
100
AcDbDimStyleTableRecord
  2
AM_BSI$3
 70
     0
  4
mm
 41
0.1574803149606299
 42
0.05
 43
0.5
 44
0.1
 47
0.1
 48
0.1
 73
     0
 77
     1
 78
     7
 79
     2
140
0.12
141
0.0
146
0.71
147
0.06
176
   256
177
   256
178
     2
274
     4
283
     0
284
     7
288
     1
289
     0
340
D
371
    -1
372
    -1
  0
DIMSTYLE
105
45A
330
17
100
AcDbSymbolTableRecord
100
AcDbDimStyleTableRecord
  2
AM_BSI$4
 70
     0
  4
mm
 41
0.1574803149606299
 42
0.05
 43
0.5
 44
0.1
 47
0.1
 48
0.1
 73
     0
 77
     1
 78
     7
 79
     2
140
0.12
141
0.0
146
0.71
147
0.06
176
   256
177
   256
178
     2
274
     4
283
     0
284
     7
288
     1
289
     0
340
D
371
    -1
372
    -1
  0
DIMSTYLE
105
45B
330
17
100
AcDbSymbolTableRecord
100
AcDbDimStyleTableRecord
  2
AM_BSI$6
 70
     0
  4
mm
 41
0.1574803149606299
 42
0.05
 43
0.5
 44
0.1
 47
0.1
 48
0.1
 73
     0
 74
     0
 78
     7
 79
     2
140
0.12
141
0.0
146
0.71
147
0.06
172
     1
176
   256
177
   256
178
     2
274
     4
283
     0
284
     7
340
D
371
    -1
372
    -1
  0
DIMSTYLE
105
45C
330
17
100
AcDbSymbolTableRecord
100
AcDbDimStyleTableRecord
  2
AM_BSI$7
 70
     0
  4
mm
 41
0.1
 42
0.05
 43
0.5
 44
0.1
 47
0.1
 48
0.1
 73
     0
 74
     0
 77
     1
 78
     7
 79
     2
140
0.24
141
0.0
146
0.71
147
0.06
172
     1
176
   256
177
   256
178
     2
274
     4
283
     0
284
     7
340
D
371
    -1
372
    -1
  0
DIMSTYLE
105
45D
330
17
100
AcDbSymbolTableRecord
100
AcDbDimStyleTableRecord
  2
AM_BSI$SF
 70
     0
  4
mm
 41
0.1574803149606299
 42
0.05
 43
0.5
 44
0.1
 47
0.1
 48
0.1
 73
     0
 74
     0
 75
     1
 76
     1
 77
     1
 78
     7
 79
     2
140
0.12
141
0.0
146
0.71
147
0.06
172
     1
176
   256
177
   256
178
     2
274
     4
283
     0
284
     7
340
D
371
    -1
372
    -1
  0
DIMSTYLE
105
45E
330
17
100
AcDbSymbolTableRecord
100
AcDbDimStyleTableRecord
  2
AM_BSI$SH
 70
     0
  4
mm
 41
0.1574803149606299
 42
0.05
 43
0.5
 44
0.1
 47
0.1
 48
0.1
 73
     0
 74
     0
 75
     1
 76
     1
 77
     1
 78
     7
 79
     2
140
0.12
141
0.0
144
2.0
146
0.71
147
0.06
172
     1
173
     1
176
   256
177
   256
178
     2
274
     4
283
     0
284
     7
340
D
343
451
371
    -1
372
    -1
  0
DIMSTYLE
105
461
330
17
100
AcDbSymbolTableRecord
100
AcDbDimStyleTableRecord
  2
AM_DIN
 70
     0
  4
mm
 41
0.1
 42
0.05
 43
0.5
 44
0.1
 47
0.1
 48
0.1
 73
     0
 74
     0
 77
     1
 78
     7
 79
     2
140
0.12
141
0.0
146
0.71
147
0.06
172
     1
176
   256
177
   256
178
     2
274
     4
283
     0
284
     7
340
D
371
    -1
372
    -1
  0
DIMSTYLE
105
462
330
17
100
AcDbSymbolTableRecord
100
AcDbDimStyleTableRecord
  2
AM_DIN$3
 70
     0
  4
mm
 41
0.1
 42
0.05
 43
0.5
 44
0.1
 47
0.1
 48
0.1
 73
     0
 77
     1
 78
     7
 79
     2
140
0.12
141
0.0
146
0.71
147
0.06
176
   256
177
   256
178
     2
274
     4
283
     0
284
     7
288
     1
289
     0
340
D
371
    -1
372
    -1
  0
DIMSTYLE
105
463
330
17
100
AcDbSymbolTableRecord
100
AcDbDimStyleTableRecord
  2
AM_DIN$4
 70
     0
  4
mm
 41
0.1
 42
0.05
 43
0.5
 44
0.1
 47
0.1
 48
0.1
 73
     0
 77
     1
 78
     7
 79
     2
140
0.12
141
0.0
146
0.71
147
0.06
176
   256
177
   256
178
     2
274
     4
283
     0
284
     7
288
     1
289
     0
340
D
371
    -1
372
    -1
  0
DIMSTYLE
105
464
330
17
100
AcDbSymbolTableRecord
100
AcDbDimStyleTableRecord
  2
AM_DIN$6
 70
     0
  4
mm
 41
0.1
 42
0.05
 43
0.5
 44
0.1
 47
0.1
 48
0.1
 73
     0
 74
     0
 78
     7
 79
     2
140
0.12
141
0.0
146
0.71
147
0.06
172
     1
176
   256
177
   256
178
     2
274
     4
283
     0
284
     7
340
D
371
    -1
372
    -1
  0
DIMSTYLE
105
465
330
17
100
AcDbSymbolTableRecord
100
AcDbDimStyleTableRecord
  2
AM_DIN$7
 70
     0
  4
mm
 41
0.1
 42
0.05
 43
0.5
 44
0.1
 47
0.1
 48
0.1
 73
     0
 74
     0
 77
     1
 78
     7
 79
     2
140
0.24
141
0.0
146
0.71
147
0.06
172
     1
176
   256
177
   256
178
     2
274
     4
283
     0
284
     7
340
D
371
    -1
372
    -1
  0
DIMSTYLE
105
466
330
17
100
AcDbSymbolTableRecord
100
AcDbDimStyleTableRecord
  2
AM_DIN$SF
 70
     0
  4
mm
 41
0.1
 42
0.05
 43
0.5
 44
0.1
 47
0.1
 48
0.1
 73
     0
 74
     0
 75
     1
 76
     1
 77
     1
 78
     7
 79
     2
140
0.12
141
0.0
146
0.71
147
0.06
172
     1
176
   256
177
   256
178
     2
274
     4
283
     0
284
     7
340
D
371
    -1
372
    -1
  0
DIMSTYLE
105
467
330
17
100
AcDbSymbolTableRecord
100
AcDbDimStyleTableRecord
  2
AM_DIN$SH
 70
     0
  4
mm
 41
0.1
 42
0.05
 43
0.5
 44
0.1
 47
0.1
 48
0.1
 73
     0
 74
     0
 75
     1
 76
     1
 77
     1
 78
     7
 79
     2
140
0.12
141
0.0
144
2.0
146
0.71
147
0.06
172
     1
173
     1
176
   256
177
   256
178
     2
274
     4
283
     0
284
     7
340
D
343
451
371
    -1
372
    -1
  0
DIMSTYLE
105
46A
330
17
100
AcDbSymbolTableRecord
100
AcDbDimStyleTableRecord
  2
AM_ISO
 70
     0
  4
mm
 41
0.1
 42
0.05
 43
0.5
 44
0.1
 47
0.1
 48
0.1
 73
     0
 74
     0
 77
     1
 78
     7
 79
     2
140
0.12
141
0.0
146
0.71
147
0.06
172
     1
176
   256
177
   256
178
     2
274
     4
283
     0
284
     7
340
D
371
    -1
372
    -1
  0
DIMSTYLE
105
46B
330
17
100
AcDbSymbolTableRecord
100
AcDbDimStyleTableRecord
  2
AM_ISO$3
 70
     0
  4
mm
 41
0.1
 42
0.05
 43
0.5
 44
0.1
 47
0.1
 48
0.1
 73
     0
 77
     1
 78
     7
 79
     2
140
0.12
141
0.0
146
0.71
147
0.06
176
   256
177
   256
178
     2
274
     4
283
     0
284
     7
288
     1
289
     0
340
D
371
    -1
372
    -1
  0
DIMSTYLE
105
46C
330
17
100
AcDbSymbolTableRecord
100
AcDbDimStyleTableRecord
  2
AM_ISO$4
 70
     0
  4
mm
 41
0.1
 42
0.05
 43
0.5
 44
0.1
 47
0.1
 48
0.1
 73
     0
 77
     1
 78
     7
 79
     2
140
0.12
141
0.0
146
0.71
147
0.06
176
   256
177
   256
178
     2
274
     4
283
     0
284
     7
288
     1
289
     0
340
D
371
    -1
372
    -1
  0
DIMSTYLE
105
46D
330
17
100
AcDbSymbolTableRecord
100
AcDbDimStyleTableRecord
  2
AM_ISO$6
 70
     0
  4
mm
 41
0.1
 42
0.05
 43
0.5
 44
0.1
 47
0.1
 48
0.1
 73
     0
 74
     0
 78
     7
 79
     2
140
0.12
141
0.0
146
0.71
147
0.06
172
     1
176
   256
177
   256
178
     2
274
     4
283
     0
284
     7
340
D
371
    -1
372
    -1
  0
DIMSTYLE
105
46E
330
17
100
AcDbSymbolTableRecord
100
AcDbDimStyleTableRecord
  2
AM_ISO$7
 70
     0
  4
mm
 41
0.1
 42
0.05
 43
0.5
 44
0.1
 47
0.1
 48
0.1
 73
     0
 74
     0
 77
     1
 78
     7
 79
     2
140
0.24
141
0.0
146
0.71
147
0.06
172
     1
176
   256
177
   256
178
     2
274
     4
283
     0
284
     7
340
D
371
    -1
372
    -1
  0
DIMSTYLE
105
46F
330
17
100
AcDbSymbolTableRecord
100
AcDbDimStyleTableRecord
  2
AM_ISO$SF
 70
     0
  4
mm
 41
0.1
 42
0.05
 43
0.5
 44
0.1
 47
0.1
 48
0.1
 73
     0
 74
     0
 75
     1
 76
     1
 77
     1
 78
     7
 79
     2
140
0.12
141
0.0
146
0.71
147
0.06
172
     1
176
   256
177
   256
178
     2
274
     4
283
     0
284
     7
340
D
371
    -1
372
    -1
  0
DIMSTYLE
105
470
330
17
100
AcDbSymbolTableRecord
100
AcDbDimStyleTableRecord
  2
AM_ISO$SH
 70
     0
  4
mm
 41
0.1
 42
0.05
 43
0.5
 44
0.1
 47
0.1
 48
0.1
 73
     0
 74
     0
 75
     1
 76
     1
 77
     1
 78
     7
 79
     2
140
0.12
141
0.0
144
2.0
146
0.71
147
0.06
172
     1
173
     1
176
   256
177
   256
178
     2
274
     4
283
     0
284
     7
340
D
343
451
371
    -1
372
    -1
  0
DIMSTYLE
105
473
330
17
100
AcDbSymbolTableRecord
100
AcDbDimStyleTableRecord
  2
AM_JIS
 70
     0
  4
mm
 41
0.1
 42
0.05
 43
0.5
 44
0.1
 47
0.1
 48
0.1
 73
     0
 74
     0
 77
     3
 78
     7
 79
     2
140
0.12
141
0.0
146
0.71
147
0.06
172
     1
176
   256
177
   256
178
     2
274
     4
283
     0
284
     7
340
D
341
474
342
474
343
474
344
474
371
    -1
372
    -1
  0
DIMSTYLE
105
47A
330
17
100
AcDbSymbolTableRecord
100
AcDbDimStyleTableRecord
  2
AM_JIS$3
 70
     0
  4
mm
 41
0.1
 42
0.05
 43
0.5
 44
0.1
 47
0.1
 48
0.1
 73
     0
 77
     3
 78
     7
 79
     2
140
0.12
141
0.0
146
0.71
147
0.06
176
   256
177
   256
178
     2
274
     4
283
     0
284
     7
288
     1
289
     0
340
D
341
474
342
474
343
474
344
474
371
    -1
372
    -1
  0
DIMSTYLE
105
47B
330
17
100
AcDbSymbolTableRecord
100
AcDbDimStyleTableRecord
  2
AM_JIS$4
 70
     0
  4
mm
 41
0.1
 42
0.05
 43
0.5
 44
0.1
 47
0.1
 48
0.1
 73
     0
 77
     3
 78
     7
 79
     2
140
0.12
141
0.0
146
0.71
147
0.06
176
   256
177
   256
178
     2
274
     4
283
     0
284
     7
288
     1
289
     0
340
D
341
474
342
474
343
474
344
474
371
    -1
372
    -1
  0
DIMSTYLE
105
47C
330
17
100
AcDbSymbolTableRecord
100
AcDbDimStyleTableRecord
  2
AM_JIS$6
 70
     0
  4
mm
 41
0.1
 42
0.05
 43
0.5
 44
0.1
 47
0.1
 48
0.1
 73
     0
 74
     0
 78
     7
 79
     2
140
0.12
141
0.0
146
0.71
147
0.06
172
     1
176
   256
177
   256
178
     2
274
     4
283
     0
284
     7
340
D
341
474
342
474
343
474
344
474
371
    -1
372
    -1
  0
DIMSTYLE
105
47D
330
17
100
AcDbSymbolTableRecord
100
AcDbDimStyleTableRecord
  2
AM_JIS$7
 70
     0
  4
mm
 41
0.1
 42
0.05
 43
0.5
 44
0.1
 47
0.1
 48
0.1
 73
     0
 74
     0
 77
     3
 78
     7
 79
     2
140
0.24
141
0.0
146
0.71
147
0.06
172
     1
176
   256
177
   256
178
     2
274
     4
283
     0
284
     7
340
D
341
474
342
474
343
474
344
474
371
    -1
372
    -1
  0
DIMSTYLE
105
47E
330
17
100
AcDbSymbolTableRecord
100
AcDbDimStyleTableRecord
  2
AM_JIS$SF
 70
     0
  4
mm
 41
0.1
 42
0.05
 43
0.5
 44
0.1
 47
0.1
 48
0.1
 73
     0
 74
     0
 75
     1
 76
     1
 77
     3
 78
     7
 79
     2
140
0.12
141
0.0
146
0.71
147
0.06
172
     1
176
   256
177
   256
178
     2
274
     4
283
     0
284
     7
340
D
341
474
342
474
343
474
344
474
371
    -1
372
    -1
  0
DIMSTYLE
105
47F
330
17
100
AcDbSymbolTableRecord
100
AcDbDimStyleTableRecord
  2
AM_JIS$SH
 70
     0
  4
mm
 41
0.1
 42
0.05
 43
0.5
 44
0.1
 47
0.1
 48
0.1
 73
     0
 74
     0
 75
     1
 76
     1
 77
     3
 78
     7
 79
     2
140
0.12
141
0.0
144
2.0
146
0.71
147
0.06
172
     1
173
     1
176
   256
177
   256
178
     2
274
     4
283
     0
284
     7
340
D
341
474
342
474
343
451
344
474
371
    -1
372
    -1
  0
ENDTAB
  0
TABLE
  2
BLOCK_RECORD
  5
1
330
0
100
AcDbSymbolTable
 70
    26
  0
BLOCK_RECORD
  5
2
102
{ACAD_XDICTIONARY
360
3
102
}
330
1
100
AcDbSymbolTableRecord
100
AcDbBlockTableRecord
  2
*MODEL_SPACE
340
33D
  0
BLOCK_RECORD
  5
8
330
1
100
AcDbSymbolTableRecord
100
AcDbBlockTableRecord
  2
*PAPER_SPACE
340
33E
  0
BLOCK_RECORD
  5
451
330
1
100
AcDbSymbolTableRecord
100
AcDbBlockTableRecord
  2
GENAXEH
340
0
  0
BLOCK_RECORD
  5
474
330
1
100
AcDbSymbolTableRecord
100
AcDbBlockTableRecord
  2
_Open30
340
0
  0
ENDTAB
  0
ENDSEC
  0
SECTION
  2
BLOCKS
  0
BLOCK
  5
4
330
2
100
AcDbEntity
  8
0
100
AcDbBlockBegin
  2
*MODEL_SPACE
 70
     0
 10
0.0
 20
0.0
 30
0.0
  3
*MODEL_SPACE
  1

  0
ENDBLK
  5
7
330
2
100
AcDbEntity
  8
0
100
AcDbBlockEnd
  0
BLOCK
  5
9
330
8
100
AcDbEntity
 67
     1
  8
0
100
AcDbBlockBegin
  2
*PAPER_SPACE
 70
     0
 10
0.0
 20
0.0
 30
0.0
  3
*PAPER_SPACE
  1

  0
ENDBLK
  5
A
330
8
100
AcDbEntity
 67
     1
  8
0
100
AcDbBlockEnd
  0
BLOCK
  5
453
330
451
100
AcDbEntity
  8
0
 48
10.0
100
AcDbBlockBegin
  2
GENAXEH
 70
     0
 10
0.0
 20
0.0
 30
0.0
  3
GENAXEH
  1

  0
LINE
  5
452
330
451
100
AcDbEntity
  8
0
100
AcDbLine
 10
-1.0
 20
0.0
 30
0.0
 11
1.0
 21
0.0
 31
0.0
  0
ENDBLK
  5
454
330
451
100
AcDbEntity
  8
0
 48
10.0
100
AcDbBlockEnd
  0
BLOCK
  5
478
330
474
100
AcDbEntity
  8
0
 48
10.0
100
AcDbBlockBegin
  2
_Open30
 70
     0
 10
0.0
 20
0.0
 30
0.0
  3
_Open30
  1

  0
LINE
  5
475
330
474
100
AcDbEntity
  8
0
  6
ByBlock
 62
     0
370
    -2
100
AcDbLine
 10
-1.0
 20
0.26794919
 30
0.0
 11
0.0
 21
0.0
 31
0.0
  0
LINE
  5
476
330
474
100
AcDbEntity
  8
0
  6
ByBlock
 62
     0
370
    -2
100
AcDbLine
 10
0.0
 20
0.0
 30
0.0
 11
-1.0
 21
-0.26794919
 31
0.0
  0
LINE
  5
477
330
474
100
AcDbEntity
  8
0
  6
ByBlock
 62
     0
370
    -2
100
AcDbLine
 10
0.0
 20
0.0
 30
0.0
 11
-1.0
 21
0.0
 31
0.0
  0
ENDBLK
  5
479
330
474
100
AcDbEntity
  8
0
 48
10.0
100
AcDbBlockEnd
  0
ENDSEC
  0
SECTION
  2
ENTITIES
  0
LINE
  5
3F
330
2
100
AcDbEntity
  8
MITTE
 48
10.0
100
AcDbLine
 10
595.3610360948017
 20
307.4150163517708
 30
0.0
 11
601.1991771202194
 21
307.4150163517708
 31
0.0
  0
LINE
  5
40
330
2
100
AcDbEntity
  8
0
100
AcDbLine
 10
578.0008771489825
 20
383.9713655378747
 30
0.0
 11
626.5008771489826
 21
383.9713655378746
 31
0.0
1001
ACAD
1000
ASC_BOUNDS
1002
{
1070
    19
1002
}
  0
LINE
  5
41
330
2
100
AcDbEntity
  8
0
100
AcDbLine
 10
578.0008771489825
 20
224.9713655378747
 30
0.0
 11
626.5008771489825
 21
224.9713655378747
 31
0.0
1001
ACAD
1000
ASC_BOUNDS
1002
{
1070
    19
1002
}
  0
ARC
  5
50
330
2
100
AcDbEntity
  8
0
100
AcDbCircle
 10
249.277908021871
 20
327.9713655378747
 30
0.0
 40
90.0
100
AcDbArc
 50
317.1708262854205
 51
204.4415405741451
  0
HATCH
  5
51
330
2
100
AcDbEntity
  8
LINIE
 48
10.0
100
AcDbHatch
 10
0.0
 20
0.0
 30
0.0
210
0.0
220
0.0
230
1.0
  2
AR-CONC
 70
     0
 71
     0
 91
        2
 92
        7
 72
     1
 73
     1
 93
        6
 10
188.277908021871
 20
307.4150163517711
 42
0.1965790673635085
 10
222.4489367191827
 20
239.8594607962152
 42
0.1804963181033798
 10
228.9997824849532
 20
237.4150163517708
 42
0.0
 10
269.5560335587887
 20
237.4150163517708
 42
0.1804963181033815
 10
276.1068793245593
 20
239.8594607962152
 42
0.1965790673635087
 10
310.277908021871
 20
307.4150163517711
 42
1.0
 97
        0
 92
        7
 72
     1
 73
     1
 93
       10
 10
271.777908021871
 20
234.9150163517708
 42
-0.4142135623730951
 10
274.277908021871
 20
237.4150163517708
 42
0.0
 10
264.777908021871
 20
237.4150163517708
 42
0.0
 10
224.277908021871
 20
237.4150163517708
 42
-0.4142135623730951
 10
226.777908021871
 20
234.9150163517708
 42
0.0
 10
226.777908021871
 20
226.9150163517708
 42
0.0503820444849804
 10
226.828418279088
 20
226.4150163517698
 42
0.0
 10
271.727397764654
 20
226.4150163517698
 42
0.0568446423399838
 10
271.7770775514831
 20
226.9794497457417
 42
-0.0000090034323923
 10
271.777908021871
 20
226.9796388327761
 42
0.0
 97
        0
 75
     0
 76
     1
 52
0.0
 41
2.0
 77
     0
 78
    13
 53
50.0
 43
292.446166432814
 44
-18.29469336998261
 45
14.34520365201507
 46
-1.255042699651902
 79
     2
 49
1.5
 49
-16.5
 53
355.0
 43
292.446166432814
 44
-18.29469336998261
 45
-2.77502667226
 46
15.04384267400024
 79
     2
 49
1.199999999999999
 49
-13.2
 53
100.4514
 43
293.641600032814
 44
-18.3992801699826
 45
11.57018763428043
 46
13.78879084121907
 79
     2
 49
1.274803799999997
 49
-14.02284223999998
 53
46.1842
 43
292.446166432814
 44
-14.29469336998261
 45
21.34482097251289
 46
-3.310380286580361
 79
     2
 49
2.25
 49
-24.75
 53
96.63559999999996
 43
294.2249013328141
 44
-14.57055950998261
 45
18.69325411097406
 46
19.48235741800883
 79
     2
 49
1.912205759999997
 49
-21.03425999999996
 53
351.1842000000001
 43
292.446166432814
 44
-14.29469336998261
 45
18.69323890267254
 46
19.48237201850649
 79
     2
 49
1.8
 49
-19.8
 53
21.0
 43
294.4461664328141
 44
-15.29469336998261
 45
11.93814104236923
 46
-8.052377813306776
 79
     2
 49
1.5
 49
-16.5
 53
326.0
 43
294.4461664328141
 44
-15.29469336998261
 45
4.866306638431634
 46
14.50300090093706
 79
     2
 49
1.199999999999999
 49
-13.2
 53
71.45140000000001
 43
295.4410110928141
 44
-15.96572548998262
 45
16.8044525716298
 46
6.450609934199047
 79
     2
 49
1.2748038
 49
-14.02284224
 53
37.5
 43
292.446166432814
 44
-18.29469336998261
 45
0.2431971063458134
 46
6.657877076626229
 79
     6
 49
0.0
 49
-13.04
 49
0.0
 49
-13.4
 49
0.0
 49
-13.25
 53
7.499999999999999
 43
292.446166432814
 44
-18.29469336998261
 45
5.261390748842972
 46
7.888234237647204
 79
     6
 49
0.0
 49
-7.639999999999999
 49
0.0
 49
-12.74
 49
0.0
 49
-5.049999999999999
 53
327.5
 43
287.986166432814
 44
-18.29469336998261
 45
10.67644872344818
 46
-0.451097434687596
 79
     6
 49
0.0
 49
-5.0
 49
0.0
 49
-15.6
 49
0.0
 49
-20.7
 53
317.5
 43
285.9861664328141
 44
-18.29469336998261
 45
11.66372338684772
 46
2.002099646646352
 79
     6
 49
0.0
 49
-6.5
 49
0.0
 49
-10.36
 49
0.0
 49
-14.7
 47
0.4120896387672359
 98
        2
 10
262.9081295819991
 20
316.1699907507715
 10
251.3657708963318
 20
232.5157935689682
  0
LINE
  5
53
330
2
100
AcDbEntity
  8
LINIE
 48
10.0
100
AcDbLine
 10
548.0008771489827
 20
237.9713655378747
 30
0.0
 11
548.0008771489827
 21
341.5751416437531
 31
0.0
  0
LINE
  5
54
330
2
100
AcDbEntity
  8
LINIE
 48
10.0
100
AcDbLine
 10
578.0008771489825
 20
377.9804807542798
 30
0.0
 11
578.0008771489827
 21
231.0272539147106
 31
0.0
  0
LINE
  5
7E
330
2
100
AcDbEntity
  8
MITTE
 48
20.0
100
AcDbLine
 10
249.277908021871
 20
424.6009742058775
 30
0.0
 11
249.277908021871
 21
202.2445086273371
 31
0.0
  0
ARC
  5
7F
330
2
100
AcDbEntity
  8
0
100
AcDbCircle
 10
287.9573943768879
 20
315.4150163517708
 30
0.0
 40
100.0
100
AcDbArc
 50
184.5885657357856
 51
229.0739366903954
1001
ACAD
1000
ASC_BOUNDS
1002
{
1070
    19
1005
0
1002
}
  0
LINE
  5
80
330
2
100
AcDbEntity
  8
0
100
AcDbLine
 10
179.4732894211043
 20
357.1279785514763
 30
0.0
 11
160.4732894211043
 21
253.1279785514763
 31
0.0
  0
LINE
  5
81
330
2
100
AcDbEntity
  8
0
100
AcDbLine
 10
188.277908021871
 20
307.4150163517708
 30
0.0
 11
188.277908021871
 21
239.9150163517707
 31
0.0
  0
LINE
  5
82
330
2
100
AcDbEntity
  8
0
100
AcDbLine
 10
188.277908021871
 20
307.4150163517712
 30
0.0
 11
188.277908021871
 21
239.9150163517707
 31
0.0
  0
ARC
  5
83
330
2
100
AcDbEntity
  8
0
100
AcDbCircle
 10
210.5984216668541
 20
315.4150163517708
 30
0.0
 40
100.0
100
AcDbArc
 50
310.9260633096046
 51
355.4114342642145
1001
ACAD
1000
ASC_BOUNDS
1002
{
1070
    19
1005
0
1002
}
  0
LINE
  5
84
330
2
100
AcDbEntity
  8
0
100
AcDbLine
 10
310.277908021871
 20
307.4150163517708
 30
0.0
 11
310.277908021871
 21
239.9150163517707
 31
0.0
  0
LINE
  5
85
330
2
100
AcDbEntity
  8
0
100
AcDbLine
 10
310.277908021871
 20
307.4150163517713
 30
0.0
 11
310.277908021871
 21
239.9150163517707
 31
0.0
  0
ARC
  5
86
330
2
100
AcDbEntity
  8
0
100
AcDbCircle
 10
249.277908021871
 20
297.9713655378747
 30
0.0
 40
73.0
100
AcDbArc
 50
326.6800806293917
 51
3.593995493095905
  0
LINE
  5
87
330
2
100
AcDbEntity
  8
0
100
AcDbLine
 10
447.5008771489825
 20
417.9713655378747
 30
0.0
 11
447.5008771489826
 21
237.9713655378747
 31
0.0
1001
ACAD
1000
ASC_BOUNDS
1002
{
1070
    19
1002
}
  0
LINE
  5
88
330
2
100
AcDbEntity
  8
0
100
AcDbLine
 10
461.0008771489827
 20
415.9713655378746
 30
0.0
 11
461.0008771489822
 21
239.9713655378743
 31
0.0
1001
ACAD
1000
ASC_BOUNDS
1002
{
1070
    19
1002
}
  0
LINE
  5
89
330
2
100
AcDbEntity
  8
0
100
AcDbLine
 10
459.0008771489826
 20
417.9713655378747
 30
0.0
 11
459.0008771489825
 21
237.9713655378747
 31
0.0
  0
LINE
  5
8A
330
2
100
AcDbEntity
  8
0
100
AcDbLine
 10
506.0008771489823
 20
322.9713655378747
 30
0.0
 11
506.0008771489828
 21
253.9713655378748
 31
0.0
1001
ACAD
1000
ASC_BOUNDS
1002
{
1070
    19
1002
}
  0
LINE
  5
8D
330
2
100
AcDbEntity
  8
0
100
AcDbLine
 10
190.7779080218709
 20
227.415016351771
 30
0.0
 11
188.777908021871
 21
228.5697168901503
 31
0.0
1001
ACAD
1000
ASC_BOUNDS
1002
{
1070
    19
1002
}
  0
ARC
  5
8E
330
2
100
AcDbEntity
  8
0
100
AcDbCircle
 10
190.7779080218709
 20
239.9150163517707
 30
0.0
 40
2.5
100
AcDbArc
 50
180.0
 51
270.0
  0
ARC
  5
8F
330
2
100
AcDbEntity
  8
0
100
AcDbCircle
 10
190.7779080218709
 20
239.9150163517707
 30
0.0
 40
2.5
100
AcDbArc
 50
180.0
 51
270.0
  0
LINE
  5
9D
330
2
100
AcDbEntity
  8
0
100
AcDbLine
 10
188.777908021871
 20
228.5697168901503
 30
0.0
 11
226.7779080218712
 21
228.5697168901502
 31
0.0
  0
LINE
  5
9E
330
2
100
AcDbEntity
  8
0
100
AcDbLine
 10
233.777908021871
 20
237.4150163517708
 30
0.0
 11
188.777908021871
 21
237.4150163517708
 31
0.0
1001
ACAD
1000
ASC_BOUNDS
1002
{
1070
    19
1002
}
  0
ARC
  5
9F
330
2
100
AcDbEntity
  8
0
100
AcDbCircle
 10
172.277908021871
 20
250.9713655378747
 30
0.0
 40
12.0
100
AcDbArc
 50
169.6466799560705
 51
251.9738691867126
  0
LINE
  5
A0
330
2
100
AcDbEntity
  8
MITTE
 48
10.0
100
AcDbLine
 10
172.277908021871
 20
257.017307780713
 30
0.0
 11
172.277908021871
 21
238.5132146623902
 31
0.0
  0
LINE
  5
A1
330
2
100
AcDbEntity
  8
0
100
AcDbLine
 10
188.777908021871
 20
232.9824517122217
 30
0.0
 11
168.564499509574
 21
239.5603797250362
 31
0.0
  0
LINE
  5
A2
330
2
100
AcDbEntity
  8
0
100
AcDbLine
 10
188.777908021871
 20
228.5697168901503
 30
0.0
 11
188.777908021871
 21
237.4150163517708
 31
0.0
1001
ACAD
1000
ASC_BOUNDS
1002
{
1070
    19
1002
}
  0
ARC
  5
A3
330
2
100
AcDbEntity
  8
LINIE
 48
10.0
100
AcDbCircle
 10
172.277908021871
 20
250.9713655378747
 30
0.0
 40
4.0
100
AcDbArc
 50
81.14562423575737
 51
16.6507017804859
  0
LINE
  5
A4
330
2
100
AcDbEntity
  8
MITTE
 48
10.0
100
AcDbLine
 10
177.0148509234298
 20
250.9713655378747
 30
0.0
 11
158.5416909321876
 21
250.9713655378747
 31
0.0
  0
CIRCLE
  5
A5
330
2
100
AcDbEntity
  8
0
100
AcDbCircle
 10
172.277908021871
 20
250.9713655378747
 30
0.0
 40
3.3235
  0
ARC
  5
B5
330
2
100
AcDbEntity
  8
0
100
AcDbCircle
 10
277.027908021871
 20
231.065016351771
 30
0.0
 40
23.65000000000001
100
AcDbArc
 50
250.1483977684151
 51
289.8516022315849
  0
LINE
  5
B6
330
2
100
AcDbEntity
  8
0
100
AcDbLine
 10
306.777908021871
 20
207.4150163517709
 30
0.0
 11
267.777908021871
 21
207.4150163517709
 31
0.0
1001
ACAD
1000
ASC_BOUNDS
1002
{
1070
    19
1005
0
1002
}
  0
ARC
  5
B7
330
2
100
AcDbEntity
  8
0
100
AcDbCircle
 10
277.027908021871
 20
204.9197168901503
 30
0.0
 40
23.65000000000001
100
AcDbArc
 50
70.14839776841511
 51
102.8257844304605
  0
LINE
  5
B8
330
2
100
AcDbEntity
  8
0
100
AcDbLine
 10
309.777908021871
 20
237.4150163517708
 30
0.0
 11
264.777908021871
 21
237.4150163517708
 31
0.0
1001
ACAD
1000
ASC_BOUNDS
1002
{
1070
    19
1002
}
  0
LINE
  5
B9
330
2
100
AcDbEntity
  8
0
100
AcDbLine
 10
271.777908021871
 20
228.5697168901503
 30
0.0
 11
309.777908021871
 21
228.5697168901502
 31
0.0
  0
LINE
  5
BA
330
2
100
AcDbEntity
  8
0
100
AcDbLine
 10
190.7779080218709
 20
237.4150163517708
 30
0.0
 11
307.777908021871
 21
237.4150163517708
 31
0.0
1001
ACAD
1000
ASC_BOUNDS
1002
{
1070
    19
1005
0
1002
}
  0
LINE
  5
BB
330
2
100
AcDbEntity
  8
MITTE
 48
7.0
100
AcDbLine
 10
211.277908021871
 20
204.3572557441645
 30
0.0
 11
211.277908021871
 21
240.7482905822616
 31
0.0
  0
LINE
  5
BC
330
2
100
AcDbEntity
  8
0
100
AcDbLine
 10
266.777908021871
 20
208.4150163517709
 30
0.0
 11
266.777908021871
 21
226.4150163517698
 31
0.0
1001
ACAD
1000
ASC_BOUNDS
1002
{
1070
    19
1002
}
  0
LINE
  5
BD
330
2
100
AcDbEntity
  8
0
100
AcDbLine
 10
268.9967188197664
 20
208.8204102640021
 30
0.0
 11
268.9967188197664
 21
226.4150163517698
 31
0.0
  0
LINE
  5
BE
330
2
100
AcDbEntity
  8
0
100
AcDbLine
 10
231.777908021871
 20
208.4150163517709
 30
0.0
 11
231.777908021871
 21
226.4150163517698
 31
0.0
1001
ACAD
1000
ASC_BOUNDS
1002
{
1070
    19
1002
}
  0
LINE
  5
BF
330
2
100
AcDbEntity
  8
0
100
AcDbLine
 10
229.5590972239755
 20
208.8204102640021
 30
0.0
 11
229.5590972239755
 21
226.4150163517698
 31
0.0
  0
LINE
  5
C0
330
2
100
AcDbEntity
  8
0
100
AcDbLine
 10
209.0590972239755
 20
208.8204102640021
 30
0.0
 11
209.0590972239755
 21
227.164322977919
 31
0.0
  0
LINE
  5
C1
330
2
100
AcDbEntity
  8
0
100
AcDbLine
 10
213.4967188197665
 20
208.8204102640021
 30
0.0
 11
213.4967188197665
 21
227.164322977919
 31
0.0
  0
LINE
  5
C2
330
2
100
AcDbEntity
  8
0
100
AcDbLine
 10
192.9967188197664
 20
208.8204102640021
 30
0.0
 11
192.9967188197664
 21
227.164322977919
 31
0.0
  0
LINE
  5
C3
330
2
100
AcDbEntity
  8
0
100
AcDbLine
 10
190.7779080218709
 20
208.4150163517709
 30
0.0
 11
190.7779080218709
 21
227.415016351771
 31
0.0
1001
ACAD
1000
ASC_BOUNDS
1002
{
1070
    19
1002
}
  0
LINE
  5
C6
330
2
100
AcDbEntity
  8
0
100
AcDbLine
 10
209.0590972239755
 20
208.8204102640021
 30
0.0
 11
213.4967188197665
 21
208.8204102640021
 31
0.0
  0
LINE
  5
C7
330
2
100
AcDbEntity
  8
0
100
AcDbLine
 10
230.777908021871
 20
207.4150163517709
 30
0.0
 11
191.777908021871
 21
207.4150163517709
 31
0.0
1001
ACAD
1000
ASC_BOUNDS
1002
{
1070
    19
1005
0
1002
}
  0
ARC
  5
C8
330
2
100
AcDbEntity
  8
0
100
AcDbCircle
 10
201.027908021871
 20
231.065016351771
 30
0.0
 40
23.65000000000001
100
AcDbArc
 50
250.1483977684151
 51
289.8516022315849
  0
LINE
  5
CA
330
2
100
AcDbEntity
  8
0
100
AcDbLine
 10
190.7779080218709
 20
208.4150163517709
 30
0.0
 11
192.9967188197664
 21
208.8204102640021
 31
0.0
  0
LINE
  5
CB
330
2
100
AcDbEntity
  8
0
100
AcDbLine
 10
190.7779080218709
 20
208.4150163517709
 30
0.0
 11
191.777908021871
 21
207.4150163517709
 31
0.0
1001
ACAD
1000
ASC_BOUNDS
1002
{
1070
    19
1002
}
  0
ARC
  5
CC
330
2
100
AcDbEntity
  8
0
100
AcDbCircle
 10
221.527908021871
 20
231.065016351771
 30
0.0
 40
23.65000000000001
100
AcDbArc
 50
250.1483977684151
 51
289.8516022315849
  0
LINE
  5
CD
330
2
100
AcDbEntity
  8
0
100
AcDbLine
 10
229.5590972239755
 20
208.8204102640021
 30
0.0
 11
231.777908021871
 21
208.4150163517709
 31
0.0
  0
LINE
  5
CE
330
2
100
AcDbEntity
  8
0
100
AcDbLine
 10
231.777908021871
 20
208.4150163517709
 30
0.0
 11
230.777908021871
 21
207.4150163517709
 31
0.0
1001
ACAD
1000
ASC_BOUNDS
1002
{
1070
    19
1002
}
  0
LINE
  5
D0
330
2
100
AcDbEntity
  8
0
100
AcDbLine
 10
266.777908021871
 20
208.4150163517709
 30
0.0
 11
267.777908021871
 21
207.4150163517709
 31
0.0
1001
ACAD
1000
ASC_BOUNDS
1002
{
1070
    19
1002
}
  0
LINE
  5
D1
330
2
100
AcDbEntity
  8
0
100
AcDbLine
 10
266.777908021871
 20
208.4150163517709
 30
0.0
 11
268.9967188197664
 21
208.8204102640021
 31
0.0
  0
LINE
  5
D2
330
2
100
AcDbEntity
  8
0
100
AcDbLine
 10
249.2779080218709
 20
224.9713655378747
 30
0.0
 11
231.777908021871
 21
224.9713655378747
 31
0.0
  0
LINE
  5
D3
330
2
100
AcDbEntity
  8
0
100
AcDbLine
 10
226.8284182790881
 20
226.4150163517698
 30
0.0
 11
271.727397764654
 21
226.4150163517698
 31
0.0
  0
LINE
  5
D4
330
2
100
AcDbEntity
  8
0
100
AcDbLine
 10
222.8318624412941
 20
237.4150163517708
 30
0.0
 11
276.4898050466709
 21
237.4150163517708
 31
0.0
  0
ARC
  5
D5
330
2
100
AcDbEntity
  8
0
100
AcDbCircle
 10
228.9997824849532
 20
247.4150163517708
 30
0.0
 40
10.0
100
AcDbArc
 50
229.0739366903954
 51
270.0
1001
ACAD
1000
ASC_BOUNDS
1002
{
1070
    19
1005
0
1002
}
  0
LINE
  5
D6
330
2
100
AcDbEntity
  8
0
100
AcDbLine
 10
209.0590972239755
 20
227.164322977919
 30
0.0
 11
213.4967188197665
 21
227.164322977919
 31
0.0
  0
ARC
  5
D7
330
2
100
AcDbEntity
  8
0
100
AcDbCircle
 10
201.027908021871
 20
204.9197168901503
 30
0.0
 40
23.65000000000001
100
AcDbArc
 50
70.14839776841511
 51
109.8516022315848
  0
LINE
  5
D8
330
2
100
AcDbEntity
  8
0
100
AcDbLine
 10
190.7779080218709
 20
227.415016351771
 30
0.0
 11
192.9967188197664
 21
227.164322977919
 31
0.0
  0
ARC
  5
D9
330
2
100
AcDbEntity
  8
0
100
AcDbCircle
 10
229.277908021871
 20
226.9150163517708
 30
0.0
 40
2.5
100
AcDbArc
 50
180.0
 51
191.5369590328368
  0
ARC
  5
DA
330
2
100
AcDbEntity
  8
0
100
AcDbCircle
 10
221.527908021871
 20
204.9197168901503
 30
0.0
 40
23.65000000000001
100
AcDbArc
 50
77.17421556953865
 51
109.8516022315849
  0
ARC
  5
DB
330
2
100
AcDbEntity
  8
0
100
AcDbCircle
 10
224.277908021871
 20
234.9150163517708
 30
0.0
 40
2.5
100
AcDbArc
 50
0.0
 51
90.0
  0
LINE
  5
DC
330
2
100
AcDbEntity
  8
0
100
AcDbLine
 10
226.777908021871
 20
234.9150163517708
 30
0.0
 11
226.777908021871
 21
226.9150163517708
 31
0.0
  0
ARC
  5
DD
330
2
100
AcDbEntity
  8
0
100
AcDbCircle
 10
269.5560335587887
 20
247.4150163517708
 30
0.0
 40
10.0
100
AcDbArc
 50
270.0
 51
310.9260633096046
1001
ACAD
1000
ASC_BOUNDS
1002
{
1070
    19
1005
0
1002
}
  0
ARC
  5
DE
330
2
100
AcDbEntity
  8
0
100
AcDbCircle
 10
249.277908021871
 20
297.9713655378747
 30
0.0
 40
73.0
100
AcDbArc
 50
270.0
 51
281.4136777865659
  0
ARC
  5
DF
330
2
100
AcDbEntity
  8
0
100
AcDbCircle
 10
269.277908021871
 20
226.9150163517708
 30
0.0
 40
2.5
100
AcDbArc
 50
348.4630409671634
 51
0.0
  0
LINE
  5
E0
330
2
100
AcDbEntity
  8
0
100
AcDbLine
 10
271.777908021871
 20
234.9150163517708
 30
0.0
 11
271.777908021871
 21
226.9150163517708
 31
0.0
  0
ARC
  5
E1
330
2
100
AcDbEntity
  8
0
100
AcDbCircle
 10
274.277908021871
 20
234.9150163517708
 30
0.0
 40
2.5
100
AcDbArc
 50
90.0
 51
180.0
  0
LINE
  5
E2
330
2
100
AcDbEntity
  8
MITTE
 48
7.0
100
AcDbLine
 10
287.277908021871
 20
204.3572557441645
 30
0.0
 11
287.277908021871
 21
240.7482905822616
 31
0.0
  0
LINE
  5
E3
330
2
100
AcDbEntity
  8
0
100
AcDbLine
 10
289.4967188197664
 20
208.8204102640021
 30
0.0
 11
289.4967188197664
 21
227.164322977919
 31
0.0
  0
LINE
  5
E4
330
2
100
AcDbEntity
  8
0
100
AcDbLine
 10
285.0590972239755
 20
208.8204102640021
 30
0.0
 11
285.0590972239755
 21
227.164322977919
 31
0.0
  0
LINE
  5
E5
330
2
100
AcDbEntity
  8
0
100
AcDbLine
 10
307.777908021871
 20
208.4150163517709
 30
0.0
 11
307.777908021871
 21
227.415016351771
 31
0.0
1001
ACAD
1000
ASC_BOUNDS
1002
{
1070
    19
1002
}
  0
LINE
  5
E6
330
2
100
AcDbEntity
  8
0
100
AcDbLine
 10
305.5590972239755
 20
208.8204102640021
 30
0.0
 11
305.5590972239755
 21
227.164322977919
 31
0.0
  0
ARC
  5
E9
330
2
100
AcDbEntity
  8
0
100
AcDbCircle
 10
297.527908021871
 20
231.065016351771
 30
0.0
 40
23.65000000000001
100
AcDbArc
 50
250.1483977684151
 51
289.8516022315849
  0
LINE
  5
EA
330
2
100
AcDbEntity
  8
0
100
AcDbLine
 10
285.0590972239755
 20
208.8204102640021
 30
0.0
 11
289.4967188197664
 21
208.8204102640021
 31
0.0
  0
LINE
  5
EC
330
2
100
AcDbEntity
  8
0
100
AcDbLine
 10
305.5590972239755
 20
208.8204102640021
 30
0.0
 11
307.777908021871
 21
208.4150163517709
 31
0.0
  0
LINE
  5
ED
330
2
100
AcDbEntity
  8
0
100
AcDbLine
 10
307.777908021871
 20
208.4150163517709
 30
0.0
 11
306.777908021871
 21
207.4150163517709
 31
0.0
1001
ACAD
1000
ASC_BOUNDS
1002
{
1070
    19
1002
}
  0
ARC
  5
EE
330
2
100
AcDbEntity
  8
0
100
AcDbCircle
 10
307.777908021871
 20
239.9150163517707
 30
0.0
 40
2.5
100
AcDbArc
 50
270.0
 51
0.0
  0
ARC
  5
EF
330
2
100
AcDbEntity
  8
0
100
AcDbCircle
 10
307.777908021871
 20
239.9150163517707
 30
0.0
 40
2.5
100
AcDbArc
 50
270.0
 51
0.0
  0
ARC
  5
F0
330
2
100
AcDbEntity
  8
0
100
AcDbCircle
 10
297.527908021871
 20
204.9197168901503
 30
0.0
 40
23.65000000000001
100
AcDbArc
 50
70.14839776841509
 51
109.8516022315849
  0
LINE
  5
F1
330
2
100
AcDbEntity
  8
0
100
AcDbLine
 10
285.0590972239755
 20
227.164322977919
 30
0.0
 11
289.4967188197664
 21
227.164322977919
 31
0.0
  0
LINE
  5
F2
330
2
100
AcDbEntity
  8
0
100
AcDbLine
 10
307.777908021871
 20
227.415016351771
 30
0.0
 11
309.777908021871
 21
228.5697168901502
 31
0.0
1001
ACAD
1000
ASC_BOUNDS
1002
{
1070
    19
1002
}
  0
LINE
  5
F3
330
2
100
AcDbEntity
  8
0
100
AcDbLine
 10
307.777908021871
 20
227.415016351771
 30
0.0
 11
305.5590972239755
 21
227.164322977919
 31
0.0
  0
LINE
  5
F4
330
2
100
AcDbEntity
  8
0
100
AcDbLine
 10
309.777908021871
 20
228.5697168901502
 30
0.0
 11
309.777908021871
 21
237.4150163517708
 31
0.0
1001
ACAD
1000
ASC_BOUNDS
1002
{
1070
    19
1002
}
  0
ARC
  5
104
330
2
100
AcDbEntity
  8
0
100
AcDbCircle
 10
512.0008771489827
 20
253.9713655378748
 30
0.0
 40
6.0
100
AcDbArc
 50
180.0000000000001
 51
269.9999999999997
1001
ACAD
1000
ASC_BOUNDS
1002
{
1070
    19
1002
}
  0
LINE
  5
105
330
2
100
AcDbEntity
  8
0
100
AcDbLine
 10
507.5287411939832
 20
249.9713655378747
 30
0.0
 11
461.0008771489827
 21
249.9713655378747
 31
0.0
  0
LINE
  5
106
330
2
100
AcDbEntity
  8
0
100
AcDbLine
 10
461.0008771489825
 20
239.9713655378747
 30
0.0
 11
459.0008771489825
 21
237.9713655378747
 31
0.0
  0
LINE
  5
107
330
2
100
AcDbEntity
  8
0
100
AcDbLine
 10
447.5008771489828
 20
237.9713655378747
 30
0.0
 11
459.0008771489825
 21
237.9713655378747
 31
0.0
  0
ARC
  5
108
330
2
100
AcDbEntity
  8
0
100
AcDbCircle
 10
554.0008771489826
 20
231.9713655378747
 30
0.0
 40
6.0
100
AcDbArc
 50
180.0000000000002
 51
269.9999999999999
1001
ACAD
1000
ASC_BOUNDS
1002
{
1070
    19
1002
}
  0
LINE
  5
109
330
2
100
AcDbEntity
  8
0
100
AcDbLine
 10
525.0008771489827
 20
247.9713655378747
 30
0.0
 11
550.1986825134483
 21
227.3298877609686
 31
0.0
  0
ARC
  5
10A
330
2
100
AcDbEntity
  8
0
100
AcDbCircle
 10
538.0008771489826
 20
237.9713655378747
 30
0.0
 40
10.0
100
AcDbArc
 50
0.0000000000000254
 51
89.99999999999998
1001
ACAD
1000
ASC_BOUNDS
1002
{
1070
    19
1002
}
  0
LINE
  5
10B
330
2
100
AcDbEntity
  8
0
100
AcDbLine
 10
548.0008771489825
 20
237.9713655378747
 30
0.0
 11
548.0008771489825
 21
231.9713655378747
 31
0.0
1001
ACAD
1000
ASC_BOUNDS
1002
{
1070
    19
1002
}
  0
LINE
  5
10C
330
2
100
AcDbEntity
  8
0
100
AcDbLine
 10
512.0008771489827
 20
247.9713655378748
 30
0.0
 11
538.0008771489826
 21
247.9713655378747
 31
0.0
1001
ACAD
1000
ASC_BOUNDS
1002
{
1070
    19
1002
}
  0
LINE
  5
10D
330
2
100
AcDbEntity
  8
0
100
AcDbLine
 10
554.0008771489826
 20
225.9713655378747
 30
0.0
 11
576.0008771489825
 21
225.9713655378747
 31
0.0
1001
ACAD
1000
ASC_BOUNDS
1002
{
1070
    19
1002
}
  0
ARC
  5
10E
330
2
100
AcDbEntity
  8
0
100
AcDbCircle
 10
576.0008771489825
 20
223.4713655378747
 30
0.0
 40
2.5
100
AcDbArc
 50
36.86989764584426
 51
89.99999999999998
1001
ACAD
1000
ASC_BOUNDS
1002
{
1070
    19
1002
}
  0
ARC
  5
112
330
2
100
AcDbEntity
  8
LINIE
 48
10.0
100
AcDbCircle
 10
191.277908021871
 20
354.9713655378747
 30
0.0
 40
4.0
100
AcDbArc
 50
81.14562423575737
 51
16.6507017804859
  0
CIRCLE
  5
113
330
2
100
AcDbEntity
  8
0
100
AcDbCircle
 10
191.277908021871
 20
354.9713655378747
 30
0.0
 40
3.3235
  0
LINE
  5
114
330
2
100
AcDbEntity
  8
MITTE
 48
5.0
100
AcDbLine
 10
191.9885676788844
 20
337.9713655378747
 30
0.0
 11
183.3270412758099
 21
337.9713655378747
 31
0.0
  0
ARC
  5
115
330
2
100
AcDbEntity
  8
MITTE
 48
15.0
100
AcDbCircle
 10
249.277908021871
 20
327.9713655378747
 30
0.0
 40
72.5
100
AcDbArc
 50
126.5931189888055
 51
144.1811683713762
  0
ARC
  5
116
330
2
100
AcDbEntity
  8
0
100
AcDbCircle
 10
249.277908021871
 20
327.9713655378747
 30
0.0
 40
89.0
100
AcDbArc
 50
105.2685646988464
 51
164.7314353011536
  0
LINE
  5
118
330
2
100
AcDbEntity
  8
MITTE
 48
20.0
100
AcDbLine
 10
285.0820519586714
 20
327.9713655378747
 30
0.0
 11
155.5508318322189
 21
327.9713655378747
 31
0.0
  0
LINE
  5
119
330
2
100
AcDbEntity
  8
MITTE
 48
10.0
100
AcDbLine
 10
180.2514052680143
 20
307.4150163517708
 30
0.0
 11
316.7961867905598
 21
307.4150163517708
 31
0.0
  0
LINE
  5
11A
330
2
100
AcDbEntity
  8
MITTE
 48
10.0
100
AcDbLine
 10
195.9100851679362
 20
354.9713655378747
 30
0.0
 11
177.1018275014419
 21
354.9713655378747
 31
0.0
  0
ARC
  5
11B
330
2
100
AcDbEntity
  8
0
100
AcDbCircle
 10
249.277908021871
 20
307.4150163517708
 30
0.0
 40
61.0
100
AcDbArc
 50
0.0
 51
180.0
1001
ACAD
1000
ASC_BOUNDS
1002
{
1070
    19
1005
0
1002
}
  0
LINE
  5
11C
330
2
100
AcDbEntity
  8
0
100
AcDbLine
 10
187.4723127522824
 20
366.3519386624623
 30
0.0
 11
231.5184634304577
 21
381.0807067859501
 31
0.0
  0
ARC
  5
11D
330
2
100
AcDbEntity
  8
0
100
AcDbCircle
 10
191.277908021871
 20
354.9713655378747
 30
0.0
 40
12.0
100
AcDbArc
 50
108.4896255071067
 51
169.6466799560706
  0
ARC
  5
11E
330
2
100
AcDbEntity
  8
0
100
AcDbCircle
 10
249.277908021871
 20
327.9713655378747
 30
0.0
 40
88.0
100
AcDbArc
 50
164.5202251796851
 51
202.5209141936015
  0
ARC
  5
11F
330
2
100
AcDbEntity
  8
0
100
AcDbCircle
 10
191.4584781482503
 20
307.6242147153824
 30
0.0
 40
8.0
100
AcDbArc
 50
109.6254537415547
 51
181.4984437231788
  0
ARC
  5
120
330
2
100
AcDbEntity
  8
0
100
AcDbCircle
 10
249.277908021871
 20
307.415016351771
 30
0.0
 40
65.81669415865359
100
AcDbArc
 50
179.5853943548263
 51
202.0561142201632
  0
LINE
  5
121
330
2
100
AcDbEntity
  8
MITTE
 48
5.0
100
AcDbLine
 10
187.277908021871
 20
342.2654926046345
 30
0.0
 11
187.277908021871
 21
333.6466591513416
 31
0.0
  0
CIRCLE
  5
122
330
2
100
AcDbEntity
  8
0
100
AcDbCircle
 10
187.277908021871
 20
337.9713655378747
 30
0.0
 40
1.95
  0
ARC
  5
123
330
2
100
AcDbEntity
  8
0
100
AcDbCircle
 10
160.8895603735526
 20
416.3597131861932
 30
0.0
 40
65.0
100
AcDbArc
 50
272.2305728409485
 51
286.0711476672093
  0
ARC
  5
124
330
2
100
AcDbEntity
  8
0
100
AcDbCircle
 10
249.277908021871
 20
327.9713655378747
 30
0.0
 40
89.0
100
AcDbArc
 50
15.26856469884635
 51
74.73143530115361
  0
LINE
  5
125
330
2
100
AcDbEntity
  8
0
100
AcDbLine
 10
317.7813895664045
 20
355.6349339316619
 30
0.0
 11
274.9608218963611
 21
377.7346847088818
 31
0.0
  0
ARC
  5
126
330
2
100
AcDbEntity
  8
0
100
AcDbCircle
 10
249.277908021871
 20
327.9713655378747
 30
0.0
 40
48.0
100
AcDbArc
 50
30.25955070531863
 51
149.7404492946814
  0
LINE
  5
127
330
2
100
AcDbEntity
  8
MITTE
 48
10.0
100
AcDbLine
 10
191.277908021871
 20
368.6750130149511
 30
0.0
 11
191.277908021871
 21
349.3967093465595
 31
0.0
  0
ARC
  5
128
330
2
100
AcDbEntity
  8
0
100
AcDbCircle
 10
307.0973378954917
 20
307.6242147153824
 30
0.0
 40
8.0
100
AcDbArc
 50
293.4264341163755
 51
70.37454625844524
  0
ARC
  5
129
330
2
100
AcDbEntity
  8
0
100
AcDbCircle
 10
249.277908021871
 20
327.9713655378747
 30
0.0
 40
88.0
100
AcDbArc
 50
321.1089922459286
 51
356.6614237975703
  0
LINE
  5
12A
330
2
100
AcDbEntity
  8
0
100
AcDbLine
 10
334.7631893961095
 20
319.4860841636362
 30
0.0
 11
324.7526778613569
 21
309.4755726288836
 31
0.0
  0
ARC
  5
12B
330
2
100
AcDbEntity
  8
0
100
AcDbCircle
 10
331.1166388920358
 20
303.1116115982046
 30
0.0
 40
9.0
100
AcDbArc
 50
135.0000000000002
 51
183.5939954930959
  0
LINE
  5
12C
330
2
100
AcDbEntity
  8
MITTE
 48
20.0
100
AcDbLine
 10
342.3585882226797
 20
327.9713655378747
 30
0.0
 11
296.3335431935434
 21
327.9713655378747
 31
0.0
  0
LINE
  5
12D
330
2
100
AcDbEntity
  8
0
100
AcDbLine
 10
335.5410708492755
 20
335.5998525722079
 30
0.0
 11
321.5410708492756
 21
352.5998525722079
 31
0.0
  0
ARC
  5
12E
330
2
100
AcDbEntity
  8
0
100
AcDbCircle
 10
337.6662556701895
 20
416.359713186193
 30
0.0
 40
65.0
100
AcDbArc
 50
254.7469712997374
 51
267.7694271590507
  0
ARC
  5
12F
330
2
100
AcDbEntity
  8
0
100
AcDbCircle
 10
312.277908021871
 20
344.9713655378747
 30
0.0
 40
12.0
100
AcDbArc
 50
39.47245984834387
 51
62.70168236142314
  0
ARC
  5
130
330
2
100
AcDbEntity
  8
0
100
AcDbCircle
 10
249.277908021871
 20
327.9713655378747
 30
0.0
 40
88.0
100
AcDbArc
 50
3.338576202429692
 51
15.47977482031475
  0
LINE
  5
131
330
2
100
AcDbEntity
  8
MITTE
 48
10.0
100
AcDbLine
 10
326.277908021871
 20
342.0002779019727
 30
0.0
 11
326.277908021871
 21
315.1266443300814
 31
0.0
  0
ARC
  5
132
330
2
100
AcDbEntity
  8
0
100
AcDbCircle
 10
326.277908021871
 20
327.9713655378747
 30
0.0
 40
12.0
100
AcDbArc
 50
315.0000000000002
 51
39.47245984834387
  0
ARC
  5
133
330
2
100
AcDbEntity
  8
LINIE
 48
10.0
100
AcDbCircle
 10
326.277908021871
 20
327.9713655378747
 30
0.0
 40
4.0
100
AcDbArc
 50
81.14562423575737
 51
16.6507017804859
  0
CIRCLE
  5
134
330
2
100
AcDbEntity
  8
0
100
AcDbCircle
 10
326.277908021871
 20
327.9713655378747
 30
0.0
 40
3.3235
  0
ARC
  5
135
330
2
100
AcDbEntity
  8
0
100
AcDbCircle
 10
337.6662556701895
 20
416.359713186193
 30
0.0
 40
65.0
100
AcDbArc
 50
182.2305728409488
 51
228.7467412799729
  0
ARC
  5
136
330
2
100
AcDbEntity
  8
0
100
AcDbCircle
 10
160.8895603735526
 20
416.3597131861932
 30
0.0
 40
65.0
100
AcDbArc
 50
319.2477660926265
 51
357.769427159051
  0
ARC
  5
137
330
2
100
AcDbEntity
  8
0
100
AcDbCircle
 10
249.277908021871
 20
327.9713655378747
 30
0.0
 40
56.0
100
AcDbArc
 50
62.70168236142314
 51
108.4896255071067
  0
LINE
  5
138
330
2
100
AcDbEntity
  8
MITTE
 48
10.0
100
AcDbLine
 10
204.3862202718579
 20
372.8630532878872
 30
0.0
 11
190.4024974753405
 21
386.8467760844045
 31
0.0
  0
CIRCLE
  5
139
330
2
100
AcDbEntity
  8
0
100
AcDbCircle
 10
198.0126663858463
 20
379.2366071738994
 30
0.0
 40
5.75
  0
LINE
  5
13A
330
2
100
AcDbEntity
  8
0
100
AcDbLine
 10
244.277908021871
 20
403.4713655378748
 30
0.0
 11
244.277908021871
 21
383.7477046074121
 31
0.0
  0
LINE
  5
13B
330
2
100
AcDbEntity
  8
0
100
AcDbLine
 10
254.277908021871
 20
403.4713655378746
 30
0.0
 11
254.277908021871
 21
383.7477046074121
 31
0.0
  0
ARC
  5
13C
330
2
100
AcDbEntity
  8
0
100
AcDbCircle
 10
249.6891248530761
 20
365.2416665318236
 30
0.0
 40
8.0
100
AcDbArc
 50
19.35914998622957
 51
159.8259803411059
  0
ARC
  5
13D
330
2
100
AcDbEntity
  8
0
100
AcDbCircle
 10
246.777908021871
 20
403.4713655378748
 30
0.0
 40
2.5
100
AcDbArc
 50
90.0
 51
180.0
  0
ARC
  5
13E
330
2
100
AcDbEntity
  8
0
100
AcDbCircle
 10
251.777908021871
 20
403.4713655378746
 30
0.0
 40
2.5
100
AcDbArc
 50
0.0
 51
90.0
  0
LINE
  5
13F
330
2
100
AcDbEntity
  8
0
100
AcDbLine
 10
246.777908021871
 20
405.9713655378748
 30
0.0
 11
251.777908021871
 21
405.9713655378747
 31
0.0
  0
ARC
  5
140
330
2
100
AcDbEntity
  8
0
100
AcDbCircle
 10
249.277908021871
 20
327.9713655378747
 30
0.0
 40
88.0
100
AcDbArc
 50
74.52022517968521
 51
105.4797748203147
  0
ARC
  5
141
330
2
100
AcDbEntity
  8
MITTE
 48
15.0
100
AcDbCircle
 10
249.277908021871
 20
327.9713655378747
 30
0.0
 40
72.5
100
AcDbArc
 50
36.42334422562012
 51
53.51171634009422
  0
LINE
  5
142
330
2
100
AcDbEntity
  8
MITTE
 48
10.0
100
AcDbLine
 10
294.0642304605556
 20
372.7576879765597
 30
0.0
 11
306.9424099776433
 21
385.6358674936475
 31
0.0
  0
CIRCLE
  5
143
330
2
100
AcDbEntity
  8
0
100
AcDbCircle
 10
300.5431496578957
 20
379.2366071738993
 30
0.0
 40
5.75
  0
LINE
  5
178
330
2
100
AcDbEntity
  8
MITTE
 48
10.0
100
AcDbLine
 10
372.3568398654697
 20
327.9713655378747
 30
0.0
 11
630.7131650039178
 21
327.9713655378747
 31
0.0
  0
LINE
  5
179
330
2
100
AcDbEntity
  8
0
100
AcDbLine
 10
378.5508771489828
 20
345.4713655378747
 30
0.0
 11
444.0508771489827
 21
345.4713655378747
 31
0.0
  0
LINE
  5
17A
330
2
100
AcDbEntity
  8
0
100
AcDbLine
 10
386.5508771489828
 20
348.7713655378747
 30
0.0
 11
436.5508771489827
 21
348.7713655378747
 31
0.0
  0
LINE
  5
17B
330
2
100
AcDbEntity
  8
0
100
AcDbLine
 10
378.5508771489828
 20
310.4713655378747
 30
0.0
 11
444.0508771489827
 21
310.4713655378747
 31
0.0
  0
LINE
  5
18B
330
2
100
AcDbEntity
  8
0
100
AcDbLine
 10
378.5508771489828
 20
310.4713655378747
 30
0.0
 11
376.5508771489828
 21
312.4713655378747
 31
0.0
  0
LINE
  5
18C
330
2
100
AcDbEntity
  8
0
100
AcDbLine
 10
378.5508771489828
 20
345.4713655378747
 30
0.0
 11
378.5508771489828
 21
310.4713655378747
 31
0.0
  0
LINE
  5
18D
330
2
100
AcDbEntity
  8
0
100
AcDbLine
 10
378.5508771489828
 20
345.4713655378747
 30
0.0
 11
376.5508771489828
 21
343.4713655378747
 31
0.0
  0
LINE
  5
18E
330
2
100
AcDbEntity
  8
0
100
AcDbLine
 10
376.5508771489828
 20
343.4713655378747
 30
0.0
 11
376.5508771489828
 21
312.4713655378748
 31
0.0
  0
LINE
  5
18F
330
2
100
AcDbEntity
  8
0
100
AcDbLine
 10
386.5508771489828
 20
345.4713655378748
 30
0.0
 11
386.5508771489828
 21
348.7713655378747
 31
0.0
  0
LINE
  5
190
330
2
100
AcDbEntity
  8
LINIE
  6
GESTRICHELT
 48
10.0
100
AcDbLine
 10
452.5008771489827
 20
390.2713655378747
 30
0.0
 11
452.5008771489828
 21
265.6713655378748
 31
0.0
1001
ACAD
1000
ASC_BOUNDS
1002
{
1070
    19
1002
}
  0
ARC
  5
19F
330
2
100
AcDbEntity
  8
0
100
AcDbCircle
 10
482.6430127727136
 20
371.4713655378747
 30
0.0
 40
10.0
100
AcDbArc
 50
225.0
 51
270.0
1001
ACAD
1000
ASC_BOUNDS
1002
{
1070
    19
1002
}
  0
ARC
  5
1A0
330
2
100
AcDbEntity
  8
0
100
AcDbCircle
 10
493.0008771489825
 20
363.9713655378747
 30
0.0
 40
2.5
100
AcDbArc
 50
270.0000000000026
 51
0.0000000000000127
  0
LINE
  5
1A1
330
2
100
AcDbEntity
  8
0
100
AcDbLine
 10
521.0008771489825
 20
376.9713655378747
 30
0.0
 11
521.0008771489825
 21
284.4381222779909
 31
0.0
  0
ARC
  5
1A2
330
2
100
AcDbEntity
  8
0
100
AcDbCircle
 10
511.0008771489825
 20
371.4713655378747
 30
0.0
 40
10.0
100
AcDbArc
 50
270.0
 51
0.0
1001
ACAD
1000
ASC_BOUNDS
1002
{
1070
    19
1002
}
  0
LINE
  5
1A3
330
2
100
AcDbEntity
  8
0
100
AcDbLine
 10
511.0008771489825
 20
322.9713655378747
 30
0.0
 11
471.0008771489824
 21
322.9713655378747
 31
0.0
  0
LINE
  5
1A4
330
2
100
AcDbEntity
  8
0
100
AcDbLine
 10
511.0008771489825
 20
332.9713655378747
 30
0.0
 11
471.0008771489824
 21
332.9713655378747
 31
0.0
  0
LINE
  5
1A5
330
2
100
AcDbEntity
  8
0
100
AcDbLine
 10
446.5508771489827
 20
350.124955376361
 30
0.0
 11
446.5508771489827
 21
305.8177756993885
 31
0.0
  0
LINE
  5
1A6
330
2
100
AcDbEntity
  8
0
100
AcDbLine
 10
447.1508771489827
 20
350.4713655378747
 30
0.0
 11
447.1508771489827
 21
305.4713655378747
 31
0.0
  0
ARC
  5
1A7
330
2
100
AcDbEntity
  8
0
100
AcDbCircle
 10
471.0008771489825
 20
276.9713655378747
 30
0.0
 40
10.0
100
AcDbArc
 50
103.6002851900802
 51
179.9999999999999
1001
ACAD
1000
ASC_BOUNDS
1002
{
1070
    19
1002
}
  0
ARC
  5
1A8
330
2
100
AcDbEntity
  8
LINIE
  6
GESTRICHELT
 48
10.0
100
AcDbCircle
 10
452.3008771489827
 20
265.6713655378748
 30
0.0
 40
0.2
100
AcDbArc
 50
270.0
 51
0.0000000000000509
1001
ACAD
1000
ASC_BOUNDS
1002
{
1070
    19
1002
}
  0
LINE
  5
1A9
330
2
100
AcDbEntity
  8
LINIE
  6
GESTRICHELT
 48
10.0
100
AcDbLine
 10
447.5008771489828
 20
265.4713655378747
 30
0.0
 11
452.3008771489827
 21
265.4713655378747
 31
0.0
  0
LINE
  5
1AA
330
2
100
AcDbEntity
  8
0
100
AcDbLine
 10
447.1508771489827
 20
305.4713655378747
 30
0.0
 11
447.5008771489826
 21
305.4713655378747
 31
0.0
  0
LINE
  5
1AB
330
2
100
AcDbEntity
  8
0
100
AcDbLine
 10
447.1508771489829
 20
305.4713655378747
 30
0.0
 11
446.5508771489827
 21
305.8177756993885
 31
0.0
  0
ARC
  5
1AC
330
2
100
AcDbEntity
  8
0
100
AcDbCircle
 10
444.0508771489827
 20
307.9713655378747
 30
0.0
 40
2.5
100
AcDbArc
 50
0.0
 51
90.0
  0
ARC
  5
1AD
330
2
100
AcDbEntity
  8
0
100
AcDbCircle
 10
496.0008771489825
 20
284.4713655378747
 30
0.0
 40
10.0
100
AcDbArc
 50
0.0000000000000254
 51
89.99999999999996
1001
ACAD
1000
ASC_BOUNDS
1002
{
1070
    19
1002
}
  0
ARC
  5
1AE
330
2
100
AcDbEntity
  8
0
100
AcDbCircle
 10
466.2979381281568
 20
296.4105621407797
 30
0.0
 40
10.0
100
AcDbArc
 50
283.6002851900806
 51
315.0000000000004
1001
ACAD
1000
ASC_BOUNDS
1002
{
1070
    19
1002
}
  0
LINE
  5
1AF
330
2
100
AcDbEntity
  8
0
100
AcDbLine
 10
496.0008771489825
 20
294.4713655378747
 30
0.0
 11
482.6430127727136
 21
294.4713655378747
 31
0.0
1001
ACAD
1000
ASC_BOUNDS
1002
{
1070
    19
1002
}
  0
ARC
  5
1B0
330
2
100
AcDbEntity
  8
0
100
AcDbCircle
 10
482.6430127727136
 20
284.4713655378747
 30
0.0
 40
10.0
100
AcDbArc
 50
89.99999999999998
 51
134.9999999999999
1001
ACAD
1000
ASC_BOUNDS
1002
{
1070
    19
1002
}
  0
LINE
  5
1B1
330
2
100
AcDbEntity
  8
0
100
AcDbLine
 10
473.3690059400223
 20
289.3394943289142
 30
0.0
 11
475.5719449608482
 21
291.5424333497402
 31
0.0
1001
ACAD
1000
ASC_BOUNDS
1002
{
1070
    19
1002
}
  0
ARC
  5
1B3
330
2
100
AcDbEntity
  8
0
100
AcDbCircle
 10
471.0008771489824
 20
342.9713655378747
 30
0.0
 40
10.0
100
AcDbArc
 50
179.9999999999999
 51
270.0
  0
ARC
  5
1B4
330
2
100
AcDbEntity
  8
0
100
AcDbCircle
 10
471.0008771489824
 20
312.9713655378747
 30
0.0
 40
10.0
100
AcDbArc
 50
89.99999999999998
 51
180.0
  0
LINE
  5
1B5
330
2
100
AcDbEntity
  8
0
100
AcDbLine
 10
436.5508771489827
 20
345.4713655378747
 30
0.0
 11
436.5508771489827
 21
348.7713655378747
 31
0.0
  0
ARC
  5
1B6
330
2
100
AcDbEntity
  8
0
100
AcDbCircle
 10
444.0508771489827
 20
347.9713655378747
 30
0.0
 40
2.5
100
AcDbArc
 50
270.0
 51
0.0
  0
LINE
  5
1B7
330
2
100
AcDbEntity
  8
0
100
AcDbLine
 10
447.1508771489827
 20
350.4713655378747
 30
0.0
 11
447.5008771489825
 21
350.4713655378747
 31
0.0
  0
LINE
  5
1B8
330
2
100
AcDbEntity
  8
0
100
AcDbLine
 10
447.1508771489827
 20
350.4713655378747
 30
0.0
 11
446.5508771489827
 21
350.124955376361
 31
0.0
  0
ARC
  5
1B9
330
2
100
AcDbEntity
  8
0
100
AcDbCircle
 10
511.0008771489825
 20
342.9713655378747
 30
0.0
 40
10.0
100
AcDbArc
 50
270.0
 51
0.0
  0
ARC
  5
1BA
330
2
100
AcDbEntity
  8
0
100
AcDbCircle
 10
511.0008771489825
 20
312.9713655378747
 30
0.0
 40
10.0
100
AcDbArc
 50
0.0
 51
89.99999999999998
  0
LINE
  5
1BB
330
2
100
AcDbEntity
  8
0
100
AcDbLine
 10
511.5008771489825
 20
364.9713655378747
 30
0.0
 11
495.5008771489826
 21
364.9713655378747
 31
0.0
  0
LINE
  5
1BC
330
2
100
AcDbEntity
  8
0
100
AcDbLine
 10
511.0008771489825
 20
361.4713655378747
 30
0.0
 11
482.6430127727136
 21
361.4713655378747
 31
0.0
1001
ACAD
1000
ASC_BOUNDS
1002
{
1070
    19
1002
}
  0
LINE
  5
1BD
330
2
100
AcDbEntity
  8
0
100
AcDbLine
 10
461.0008771489827
 20
405.9713655378747
 30
0.0
 11
521.9396055131404
 21
382.0631310453921
 31
0.0
  0
ARC
  5
1BE
330
2
100
AcDbEntity
  8
0
100
AcDbCircle
 10
471.0008771489825
 20
378.9713655378747
 30
0.0
 40
10.0
100
AcDbArc
 50
180.0
 51
256.3997148099197
1001
ACAD
1000
ASC_BOUNDS
1002
{
1070
    19
1002
}
  0
ARC
  5
1BF
330
2
100
AcDbEntity
  8
LINIE
  6
GESTRICHELT
 48
10.0
100
AcDbCircle
 10
452.3008771489827
 20
390.2713655378747
 30
0.0
 40
0.2
100
AcDbArc
 50
0.0000000000000636
 51
89.99999999999998
  0
LINE
  5
1C0
330
2
100
AcDbEntity
  8
LINIE
  6
GESTRICHELT
 48
10.0
100
AcDbLine
 10
447.5008771489826
 20
390.4713655378747
 30
0.0
 11
452.3008771489827
 21
390.4713655378747
 31
0.0
  0
LINE
  5
1C1
330
2
100
AcDbEntity
  8
0
100
AcDbLine
 10
473.3690059400223
 20
366.603236746835
 30
0.0
 11
475.5719449608482
 21
364.4002977260092
 31
0.0
1001
ACAD
1000
ASC_BOUNDS
1002
{
1070
    19
1002
}
  0
ARC
  5
1C2
330
2
100
AcDbEntity
  8
0
100
AcDbCircle
 10
466.2979381281568
 20
359.5321689349697
 30
0.0
 40
10.0
100
AcDbArc
 50
44.99999999999958
 51
76.39971480991937
1001
ACAD
1000
ASC_BOUNDS
1002
{
1070
    19
1002
}
  0
LINE
  5
1C3
330
2
100
AcDbEntity
  8
0
100
AcDbLine
 10
506.5008771489825
 20
367.9713655378747
 30
0.0
 11
498.5008771489825
 21
367.9713655378747
 31
0.0
  0
LINE
  5
1C4
330
2
100
AcDbEntity
  8
0
100
AcDbLine
 10
507.5008771489826
 20
366.9713655378748
 30
0.0
 11
497.5008771489825
 21
366.9713655378748
 31
0.0
  0
LINE
  5
1C5
330
2
100
AcDbEntity
  8
0
100
AcDbLine
 10
497.5008771489825
 20
366.9713655378748
 30
0.0
 11
497.5008771489825
 21
364.9713655378747
 31
0.0
1001
ACAD
1000
ASC_BOUNDS
1002
{
1070
    19
1002
}
  0
LINE
  5
1C6
330
2
100
AcDbEntity
  8
0
100
AcDbLine
 10
495.5008771489826
 20
364.9713655378747
 30
0.0
 11
495.5008771489826
 21
363.9713655378747
 31
0.0
1001
ACAD
1000
ASC_BOUNDS
1002
{
1070
    19
1005
0
1002
}
  0
LINE
  5
1C7
330
2
100
AcDbEntity
  8
0
100
AcDbLine
 10
498.5008771489825
 20
367.9713655378747
 30
0.0
 11
497.5008771489825
 21
366.9713655378748
 31
0.0
  0
LINE
  5
1C8
330
2
100
AcDbEntity
  8
0
100
AcDbLine
 10
507.5008771489826
 20
366.9713655378748
 30
0.0
 11
507.5008771489826
 21
364.9713655378748
 31
0.0
1001
ACAD
1000
ASC_BOUNDS
1002
{
1070
    19
1002
}
  0
LINE
  5
1C9
330
2
100
AcDbEntity
  8
0
100
AcDbLine
 10
507.5008771489826
 20
366.9713655378748
 30
0.0
 11
506.5008771489825
 21
367.9713655378747
 31
0.0
  0
LINE
  5
1CA
330
2
100
AcDbEntity
  8
0
100
AcDbLine
 10
447.5008771489825
 20
417.9713655378747
 30
0.0
 11
459.0008771489826
 21
417.9713655378747
 31
0.0
  0
LINE
  5
1CB
330
2
100
AcDbEntity
  8
0
100
AcDbLine
 10
461.0008771489827
 20
415.9713655378746
 30
0.0
 11
459.0008771489826
 21
417.9713655378747
 31
0.0
  0
LINE
  5
1CC
330
2
100
AcDbEntity
  8
0
100
AcDbLine
 10
527.0008771489825
 20
382.9713655378747
 30
0.0
 11
576.0008771489825
 21
382.9713655378747
 31
0.0
1001
ACAD
1000
ASC_BOUNDS
1002
{
1070
    19
1002
}
  0
LINE
  5
1CD
330
2
100
AcDbEntity
  8
0
100
AcDbLine
 10
511.5008771489825
 20
364.9713655378747
 30
0.0
 11
511.5008771489825
 21
363.9713655378747
 31
0.0
1001
ACAD
1000
ASC_BOUNDS
1002
{
1070
    19
1005
0
1002
}
  0
ARC
  5
1CE
330
2
100
AcDbEntity
  8
0
100
AcDbCircle
 10
514.0008771489825
 20
363.9713655378747
 30
0.0
 40
2.5
100
AcDbArc
 50
180.0
 51
246.682866155961
  0
ARC
  5
1CF
330
2
100
AcDbEntity
  8
0
100
AcDbCircle
 10
527.0008771489825
 20
376.9713655378747
 30
0.0
 40
6.0
100
AcDbArc
 50
119.210747604311
 51
180.0000000000006
1001
ACAD
1000
ASC_BOUNDS
1002
{
1070
    19
1002
}
  0
ARC
  5
1D0
330
2
100
AcDbEntity
  8
0
100
AcDbCircle
 10
527.0008771489825
 20
376.9713655378747
 30
0.0
 40
6.0
100
AcDbArc
 50
89.99999999999998
 51
119.210747604311
1001
ACAD
1000
ASC_BOUNDS
1002
{
1070
    19
1002
}
  0
ARC
  5
1D1
330
2
100
AcDbEntity
  8
0
100
AcDbCircle
 10
522.8526782980922
 20
384.3904252015701
 30
0.0
 40
2.5
100
AcDbArc
 50
248.5783165533324
 51
299.2107476043108
  0
ARC
  5
1D2
330
2
100
AcDbEntity
  8
0
100
AcDbCircle
 10
576.0008771489825
 20
385.4713655378747
 30
0.0
 40
2.5
100
AcDbArc
 50
270.0
 51
323.1301023541557
1001
ACAD
1000
ASC_BOUNDS
1002
{
1070
    19
1002
}
  0
LINE
  5
1D3
330
2
100
AcDbEntity
  8
LINIE
 48
10.0
100
AcDbLine
 10
650.1781323952069
 20
306.2582255585086
 30
0.0
 11
650.1781323952069
 21
248.5539782964551
 31
0.0
  0
ARC
  5
20A
330
2
100
AcDbEntity
  8
0
100
AcDbCircle
 10
926.7095078261176
 20
327.9713655378746
 30
0.0
 40
90.0
100
AcDbArc
 50
346.796880321182
 51
218.3212863366507
  0
LINE
  5
20B
330
2
100
AcDbEntity
  8
0
100
AcDbLine
 10
626.5008771489826
 20
373.4150163517707
 30
0.0
 11
626.5008771489824
 21
241.4150163517709
 31
0.0
1001
ACAD
1000
ASC_BOUNDS
1002
{
1070
    19
1005
0
1002
}
  0
LINE
  5
20C
330
2
100
AcDbEntity
  8
0
100
AcDbLine
 10
626.5008771489826
 20
383.9713655378747
 30
0.0
 11
626.500877148982
 21
224.9713655378747
 31
0.0
1001
ACAD
1000
ASC_BOUNDS
1002
{
1070
    19
1002
}
  0
LINE
  5
20D
330
2
100
AcDbEntity
  8
0
100
AcDbLine
 10
604.5008771489833
 20
383.9713655378746
 30
0.0
 11
604.5008771489826
 21
224.9713655378747
 31
0.0
1001
ACAD
1000
ASC_BOUNDS
1002
{
1070
    19
1002
}
  0
LINE
  5
20E
330
2
100
AcDbEntity
  8
0
100
AcDbLine
 10
726.5008771489825
 20
304.4823384731275
 30
0.0
 11
726.5008771489825
 21
240.9150163517708
 31
0.0
1001
ACAD
1000
ASC_BOUNDS
1002
{
1070
    19
1002
}
  0
LINE
  5
20F
330
2
100
AcDbEntity
  8
0
100
AcDbLine
 10
798.5008771489825
 20
363.4150163517708
 30
0.0
 11
798.5008771489825
 21
242.4150163517708
 31
0.0
1001
ACAD
1000
ASC_BOUNDS
1002
{
1070
    19
1002
}
  0
LINE
  5
210
330
2
100
AcDbEntity
  8
MITTE
 48
20.0
100
AcDbLine
 10
926.7095078261176
 20
429.610727917124
 30
0.0
 11
926.7095078261176
 21
192.404593251973
 31
0.0
  0
ARC
  5
211
330
2
100
AcDbEntity
  8
0
100
AcDbCircle
 10
926.7095078261176
 20
297.9713655378746
 30
0.0
 40
73.0
100
AcDbArc
 50
205.2880282852063
 51
270.0
  0
ARC
  5
212
330
2
100
AcDbEntity
  8
0
100
AcDbCircle
 10
926.7095078261176
 20
327.9713655378746
 30
0.0
 40
90.0
100
AcDbArc
 50
218.3212863366507
 51
346.796880321182
  0
LINE
  5
213
330
2
100
AcDbEntity
  8
0
100
AcDbLine
 10
1008.644059959445
 20
290.7325528995656
 30
0.0
 11
1015.514126426884
 21
253.1279785514762
 31
0.0
  0
SPLINE
  5
214
102
{ACAD_REACTORS
330
215
102
}
330
2
100
AcDbEntity
  8
LINIE
 48
10.0
100
AcDbSpline
210
0.0
220
0.0
230
1.0
 70
     8
 71
     3
 72
    12
 73
     8
 74
     6
 42
0.0000000001
 43
0.0000000001
 44
0.0000000001
 40
0.0
 40
0.0
 40
0.0
 40
0.0
 40
4.851711911382247
 40
18.01859907913513
 40
32.66528729343511
 40
43.80667159575175
 40
46.09696782555251
 40
46.09696782555251
 40
46.09696782555251
 40
46.09696782555251
 10
739.0008771489824
 20
234.4223829650124
 30
0.0
 10
740.4850809793339
 20
235.0643086064917
 30
0.0
 10
745.9972124206256
 20
237.4483332525752
 30
0.0
 10
757.117754964004
 20
239.1065750575216
 30
0.0
 10
769.8474589969596
 20
235.4731923670542
 30
0.0
 10
779.3430291362697
 20
237.5340138258538
 30
0.0
 10
783.7241095573456
 20
236.5434424483422
 30
0.0
 10
784.4711472751391
 20
236.3745356696381
 30
0.0
 11
739.0008771489824
 21
234.4223829650124
 31
0.0
 11
743.4985922911764
 21
236.2416319778548
 31
0.0
 11
756.5288332562462
 21
238.133651555066
 31
0.0
 11
771.0877642098401
 21
236.532712725692
 31
0.0
 11
782.2253455024277
 21
236.8237919638917
 31
0.0
 11
784.4711472751391
 21
236.3745356696381
 31
0.0
  0
HATCH
  5
215
330
2
100
AcDbEntity
  8
LINIE
 48
10.0
100
AcDbHatch
 10
0.0
 20
0.0
 30
0.0
210
0.0
220
0.0
230
1.0
  2
ANSI31
 70
     0
 71
     1
 91
        4
 92
        5
 93
        6
 72
     1
 10
780.1253771489825
 20
226.4150163517708
 11
783.9503668917656
 21
226.4150163517708
 72
     2
 10
781.5008771489824
 20
226.9150163517709
 40
2.499999999999964
 50
348.4630409671819
 51
359.9999999999974
 73
     1
 72
     1
 10
784.0008771489825
 20
226.9150163517708
 11
784.0008771489825
 21
234.9150163517708
 72
     2
 10
786.5008771489824
 20
234.9150163517707
 40
2.499999999999997
 50
180.0000000000013
 51
215.718805985772
 73
     0
 72
     4
 94
        3
 73
     0
 74
     0
 95
        9
 96
        5
 40
41.68509778057305
 40
41.68509778057305
 40
41.68509778057305
 40
41.68509778057305
 40
43.97539401037382
 40
46.09696782555252
 40
46.09696782555252
 40
46.09696782555252
 40
46.09696782555252
 10
784.4711472751391
 20
236.3745356696381
 10
783.7241095573455
 20
236.5434424483422
 10
782.2850671807664
 20
236.8688129168705
 10
780.8286264935604
 20
236.98094849052
 10
780.125377148982
 20
237.0004918063957
 72
     1
 10
780.1253771489825
 20
237.0004918063957
 11
780.1253771489825
 21
226.4150163517708
 97
        6
330
264
330
214
330
261
330
219
330
262
330
266
 92
        5
 93
        4
 72
     4
 94
        3
 73
     0
 74
     0
 95
        8
 96
        4
 40
40.20165906937301
 40
40.20165906937301
 40
40.20165906937301
 40
40.20165906937301
 40
41.68509778057305
 40
41.68509778057305
 40
41.68509778057305
 40
41.68509778057305
 10
780.125377148982
 20
237.0004918063957
 10
779.633653837773
 20
237.0141568088141
 10
779.1405233599382
 20
237.0110131807251
 10
778.6463771489824
 20
236.9961644055649
 72
     1
 10
778.6463771489825
 20
236.9961644055649
 11
778.6463771489823
 21
227.8940163517708
 72
     1
 10
778.6463771489823
 20
227.8940163517708
 11
780.1253771489824
 21
226.415016351771
 72
     1
 10
780.1253771489824
 20
226.415016351771
 11
780.1253771489825
 21
237.0004918063957
 97
        4
330
214
330
265
330
263
330
261
 92
        5
 93
        4
 72
     1
 10
746.8763771489824
 20
226.4150163517709
 11
748.3553771489823
 21
227.8940163517706
 72
     1
 10
748.3553771489823
 20
227.8940163517706
 11
748.3553771489823
 21
237.5528050361293
 72
     4
 94
        3
 73
     0
 74
     0
 95
        8
 96
        4
 40
8.357331474458064
 40
8.357331474458064
 40
8.357331474458064
 40
8.357331474458064
 40
9.859576091809579
 40
9.859576091809579
 40
9.859576091809579
 40
9.859576091809579
 10
748.3553771489855
 20
237.55280503613
 10
747.8599125394789
 20
237.456989490873
 10
747.3667059388954
 20
237.3504003836265
 10
746.8763771489866
 20
237.2332058603912
 72
     1
 10
746.8763771489824
 20
237.2332058603902
 11
746.8763771489824
 21
226.4150163517709
 97
        4
330
214
330
251
330
253
330
258
 92
        5
 93
        5
 72
     4
 94
        3
 73
     0
 74
     0
 95
        9
 96
        5
 40
0.0
 40
0.0
 40
0.0
 40
0.0
 40
3.505619563075816
 40
8.357331474458064
 40
8.357331474458064
 40
8.357331474458064
 40
8.357331474458064
 10
746.8763771489866
 20
237.2332058603912
 10
745.7321519153663
 20
236.9597221623344
 10
743.0417009131777
 20
236.1700596209348
 10
740.4850809793339
 20
235.0643086064917
 10
739.0008771489824
 20
234.4223829650124
 72
     1
 10
739.0008771489824
 20
234.4223829650123
 11
739.0008771489825
 21
226.9150163517708
 72
     2
 10
741.5008771489826
 20
226.9150163517709
 40
2.500000000000019
 50
180.0000000000025
 51
191.5369590328181
 73
     1
 72
     1
 10
739.0513874061994
 20
226.4150163517708
 11
746.8763771489824
 21
226.4150163517707
 72
     1
 10
746.8763771489824
 20
226.4150163517707
 11
746.8763771489826
 21
237.2332058603899
 97
        5
330
214
330
257
330
252
330
219
330
251
 75
     0
 76
     1
 52
0.0
 41
25.0
 77
     0
 78
     1
 53
45.0
 43
204.6761225667338
 44
-18.29469336998261
 45
-2.20970869120796
 46
2.209708691207961
 79
     0
 47
0.3395931865206437
 98
        4
 10
781.1455575813678
 20
230.2017249532904
 10
779.7867239130754
 20
230.8809108488482
 10
747.5144306262135
 20
231.5600982540435
 10
743.7776380384088
 20
230.8809108488482
  0
LINE
  5
217
330
2
100
AcDbEntity
  8
0
100
AcDbLine
 10
793.5008771489825
 20
237.4150163517708
 30
0.0
 11
762.6140247745734
 21
237.4150163517708
 31
0.0
1001
ACAD
1000
ASC_BOUNDS
1002
{
1070
    19
1002
}
  0
LINE
  5
218
330
2
100
AcDbEntity
  8
0
100
AcDbLine
 10
748.3553771489824
 20
227.8940163517708
 30
0.0
 11
778.6463771489827
 21
227.8940163517708
 31
0.0
1001
ACAD
1000
ASC_BOUNDS
1002
{
1070
    19
1002
}
  0
LINE
  5
219
102
{ACAD_REACTORS
330
215
102
}
330
2
100
AcDbEntity
  8
0
100
AcDbLine
 10
739.0513874061994
 20
226.4150163517708
 30
0.0
 11
783.9503668917656
 21
226.4150163517708
 31
0.0
1001
ACAD
1000
ASC_BOUNDS
1002
{
1070
    19
1005
0
1002
}
  0
ARC
  5
229
330
2
100
AcDbEntity
  8
0
100
AcDbCircle
 10
690.5008771489825
 20
242.8900163517709
 30
0.0
 40
35.475
100
AcDbArc
 50
254.8460917587442
 51
285.1539082412557
  0
LINE
  5
22A
330
2
100
AcDbEntity
  8
0
100
AcDbLine
 10
711.4919586844695
 20
207.4150163517709
 30
0.0
 11
669.5097956134954
 21
207.4150163517709
 31
0.0
  0
ARC
  5
22B
330
2
100
AcDbEntity
  8
0
100
AcDbCircle
 10
690.5008771489825
 20
193.09471689015
 30
0.0
 40
35.475
100
AcDbArc
 50
74.84609175874429
 51
105.1539082412558
  0
LINE
  5
22C
330
2
100
AcDbEntity
  8
0
100
AcDbLine
 10
651.0008771489825
 20
238.4150163517708
 30
0.0
 11
733.5008771489825
 21
238.4150163517708
 31
0.0
1001
ACAD
1000
ASC_BOUNDS
1002
{
1070
    19
1002
}
  0
LINE
  5
22D
330
2
100
AcDbEntity
  8
0
100
AcDbLine
 10
713.0008771489825
 20
238.4150163517709
 30
0.0
 11
668.0008771489825
 21
238.4150163517706
 31
0.0
1001
ACAD
1000
ASC_BOUNDS
1002
{
1070
    19
1002
}
  0
LINE
  5
22E
330
2
100
AcDbEntity
  8
0
100
AcDbLine
 10
713.0008771489825
 20
228.5697168901502
 30
0.0
 11
668.0008771489825
 21
228.5697168901502
 31
0.0
  0
LINE
  5
22F
330
2
100
AcDbEntity
  8
0
100
AcDbLine
 10
681.2272586534868
 20
208.6485849418548
 30
0.0
 11
681.2272586534868
 21
227.3361483000662
 31
0.0
  0
LINE
  5
230
330
2
100
AcDbEntity
  8
0
100
AcDbLine
 10
677.3841656191494
 20
208.9239348162838
 30
0.0
 11
677.3841656191494
 21
227.0607984256372
 31
0.0
  0
LINE
  5
231
330
2
100
AcDbEntity
  8
0
100
AcDbLine
 10
668.0008771489825
 20
208.9239348162838
 30
0.0
 11
668.0008771489825
 21
227.0607984256372
 31
0.0
  0
ARC
  5
232
330
2
100
AcDbEntity
  8
0
100
AcDbCircle
 10
672.692521384066
 20
215.463284410105
 30
0.0
 40
8.048268058334087
100
AcDbArc
 50
234.342521810184
 51
305.6574781898164
  0
LINE
  5
233
330
2
100
AcDbEntity
  8
0
100
AcDbLine
 10
668.0008771489825
 20
208.9239348162838
 30
0.0
 11
669.5097956134954
 21
207.4150163517709
 31
0.0
1001
ACAD
1000
ASC_BOUNDS
1002
{
1070
    19
1002
}
  0
LINE
  5
234
330
2
100
AcDbEntity
  8
0
100
AcDbLine
 10
677.3841656191494
 20
208.9239348162838
 30
0.0
 11
681.2272586534868
 21
208.9239348162838
 31
0.0
  0
LINE
  5
235
330
2
100
AcDbEntity
  8
LINIE
 48
10.0
100
AcDbLine
 10
627.8738979405196
 20
246.4150163517707
 30
0.0
 11
650.8289333671362
 21
246.4150163517707
 31
0.0
  0
ARC
  5
236
330
2
100
AcDbEntity
  8
0
100
AcDbCircle
 10
639.840623111138
 20
251.4150163517709
 30
0.0
 40
10.0
100
AcDbArc
 50
269.9999999999997
 51
311.4096221092712
1001
ACAD
1000
ASC_BOUNDS
1002
{
1070
    19
1002
}
  0
LINE
  5
237
330
2
100
AcDbEntity
  8
0
100
AcDbLine
 10
626.5008771489824
 20
241.4150163517709
 30
0.0
 11
639.840623111138
 21
241.4150163517708
 31
0.0
1001
ACAD
1000
ASC_BOUNDS
1002
{
1070
    19
1002
}
  0
LINE
  5
238
330
2
100
AcDbEntity
  8
0
100
AcDbLine
 10
626.5008771489825
 20
241.4150163517708
 30
0.0
 11
626.5008771489825
 21
241.4150163517708
 31
0.0
1001
ACAD
1000
ASC_BOUNDS
1002
{
1070
    19
1005
0
1002
}
  0
ARC
  5
239
330
2
100
AcDbEntity
  8
0
100
AcDbCircle
 10
653.0008771489825
 20
239.9150163517707
 30
0.0
 40
2.5
100
AcDbArc
 50
180.0
 51
216.869897645844
  0
ARC
  5
23A
330
2
100
AcDbEntity
  8
0
100
AcDbCircle
 10
670.5008771489826
 20
241.4150163517708
 30
0.0
 40
4.0
100
AcDbArc
 50
180.0
 51
228.590377890729
1001
ACAD
1000
ASC_BOUNDS
1002
{
1070
    19
1002
}
  0
ARC
  5
23B
330
2
100
AcDbEntity
  8
0
100
AcDbCircle
 10
672.692521384066
 20
220.5214488318161
 30
0.0
 40
8.048268058334087
100
AcDbArc
 50
54.3425218101836
 51
125.6574781898159
  0
LINE
  5
23C
330
2
100
AcDbEntity
  8
0
100
AcDbLine
 10
668.0008771489825
 20
228.5697168901502
 30
0.0
 11
668.0008771489825
 21
238.4150163517708
 31
0.0
1001
ACAD
1000
ASC_BOUNDS
1002
{
1070
    19
1002
}
  0
LINE
  5
23D
330
2
100
AcDbEntity
  8
0
100
AcDbLine
 10
668.0008771489825
 20
227.0607984256372
 30
0.0
 11
669.5097956134954
 21
228.5697168901502
 31
0.0
1001
ACAD
1000
ASC_BOUNDS
1002
{
1070
    19
1002
}
  0
LINE
  5
23E
330
2
100
AcDbEntity
  8
0
100
AcDbLine
 10
677.3841656191494
 20
227.0607984256372
 30
0.0
 11
681.2272586534868
 21
227.0607984256372
 31
0.0
  0
ARC
  5
23F
330
2
100
AcDbEntity
  8
0
100
AcDbCircle
 10
662.5008771489826
 20
242.4150163517709
 30
0.0
 40
4.0
100
AcDbArc
 50
0.0000000000001018
 51
90.0
1001
ACAD
1000
ASC_BOUNDS
1002
{
1070
    19
1002
}
  0
ARC
  5
240
330
2
100
AcDbEntity
  8
0
100
AcDbCircle
 10
653.069379666461
 20
236.4150163517709
 30
0.0
 40
10.0
100
AcDbArc
 50
90.0
 51
131.4096221092712
1001
ACAD
1000
ASC_BOUNDS
1002
{
1070
    19
1002
}
  0
LINE
  5
241
330
2
100
AcDbEntity
  8
0
100
AcDbLine
 10
650.5008771489825
 20
239.9150163517707
 30
0.0
 11
650.5008771489825
 21
246.0795284872956
 31
0.0
  0
LINE
  5
242
330
2
100
AcDbEntity
  8
0
100
AcDbLine
 10
653.069379666461
 20
246.4150163517709
 30
0.0
 11
662.5008771489826
 21
246.4150163517709
 31
0.0
1001
ACAD
1000
ASC_BOUNDS
1002
{
1070
    19
1002
}
  0
LINE
  5
243
330
2
100
AcDbEntity
  8
0
100
AcDbLine
 10
666.5008771489826
 20
241.4150163517708
 30
0.0
 11
666.5008771489826
 21
242.4150163517709
 31
0.0
1001
ACAD
1000
ASC_BOUNDS
1002
{
1070
    19
1002
}
  0
LINE
  5
244
330
2
100
AcDbEntity
  8
MITTE
 48
8.0
100
AcDbLine
 10
690.5008771489825
 20
243.9409859480704
 30
0.0
 11
690.5008771489825
 21
204.2058822162035
 31
0.0
  0
LINE
  5
245
330
2
100
AcDbEntity
  8
0
100
AcDbLine
 10
703.6175886788156
 20
208.9239348162838
 30
0.0
 11
703.6175886788157
 21
227.0607984256372
 31
0.0
  0
LINE
  5
246
330
2
100
AcDbEntity
  8
0
100
AcDbLine
 10
699.7744956444782
 20
208.6485849418548
 30
0.0
 11
699.7744956444782
 21
227.3361483000667
 31
0.0
  0
LINE
  5
247
330
2
100
AcDbEntity
  8
0
100
AcDbLine
 10
713.0008771489825
 20
208.9239348162839
 30
0.0
 11
713.0008771489825
 21
227.0607984256372
 31
0.0
  0
ARC
  5
248
330
2
100
AcDbEntity
  8
0
100
AcDbCircle
 10
708.3092329138991
 20
215.463284410105
 30
0.0
 40
8.048268058334087
100
AcDbArc
 50
234.3425218101836
 51
305.6574781898159
  0
LINE
  5
249
330
2
100
AcDbEntity
  8
0
100
AcDbLine
 10
703.6175886788156
 20
208.9239348162838
 30
0.0
 11
699.7744956444782
 21
208.9239348162838
 31
0.0
  0
LINE
  5
24A
330
2
100
AcDbEntity
  8
0
100
AcDbLine
 10
713.0008771489825
 20
208.9239348162839
 30
0.0
 11
711.4919586844695
 21
207.4150163517709
 31
0.0
1001
ACAD
1000
ASC_BOUNDS
1002
{
1070
    19
1002
}
  0
ARC
  5
24B
330
2
100
AcDbEntity
  8
0
100
AcDbCircle
 10
724.0008771489826
 20
240.9150163517708
 30
0.0
 40
2.5
100
AcDbArc
 50
270.0
 51
0.0
1001
ACAD
1000
ASC_BOUNDS
1002
{
1070
    19
1002
}
  0
ARC
  5
24C
330
2
100
AcDbEntity
  8
0
100
AcDbCircle
 10
708.3092329138991
 20
220.5214488318161
 30
0.0
 40
8.048268058334087
100
AcDbArc
 50
54.34252181018408
 51
125.6574781898164
  0
LINE
  5
24D
330
2
100
AcDbEntity
  8
0
100
AcDbLine
 10
703.6175886788156
 20
227.0607984256372
 30
0.0
 11
699.7744956444782
 21
227.0607984256372
 31
0.0
  0
LINE
  5
24E
330
2
100
AcDbEntity
  8
0
100
AcDbLine
 10
713.0008771489825
 20
227.0607984256372
 30
0.0
 11
711.4919586844696
 21
228.5697168901502
 31
0.0
1001
ACAD
1000
ASC_BOUNDS
1002
{
1070
    19
1002
}
  0
LINE
  5
24F
330
2
100
AcDbEntity
  8
0
100
AcDbLine
 10
713.0008771489825
 20
228.5697168901501
 30
0.0
 11
713.0008771489825
 21
238.4150163517708
 31
0.0
1001
ACAD
1000
ASC_BOUNDS
1002
{
1070
    19
1002
}
  0
LINE
  5
250
330
2
100
AcDbEntity
  8
MITTE
 48
10.0
100
AcDbLine
 10
763.5008771489825
 20
243.1163606788319
 30
0.0
 11
763.5008771489825
 21
222.3158856283224
 31
0.0
  0
LINE
  5
251
102
{ACAD_REACTORS
330
215
102
}
330
2
100
AcDbEntity
  8
LINIE
 48
10.0
100
AcDbLine
 10
746.8763771489825
 20
237.2332058604061
 30
0.0
 11
746.8763771489824
 21
226.4150163517708
 31
0.0
1001
ACAD
1000
ASC_BOUNDS
1002
{
1070
    19
1002
}
  0
ARC
  5
252
102
{ACAD_REACTORS
330
215
102
}
330
2
100
AcDbEntity
  8
0
100
AcDbCircle
 10
741.5008771489826
 20
226.9150163517708
 30
0.0
 40
2.5
100
AcDbArc
 50
180.0000000000001
 51
191.5369590328155
1001
ACAD
1000
ASC_BOUNDS
1002
{
1070
    19
1002
}
  0
LINE
  5
253
102
{ACAD_REACTORS
330
215
102
}
330
2
100
AcDbEntity
  8
0
100
AcDbLine
 10
748.3553771489824
 20
227.8940163517708
 30
0.0
 11
746.8763771489824
 21
226.4150163517708
 31
0.0
1001
ACAD
1000
ASC_BOUNDS
1002
{
1070
    19
1002
}
  0
LINE
  5
254
330
2
100
AcDbEntity
  8
0
100
AcDbLine
 10
747.6790099982475
 20
237.4150163517708
 30
0.0
 11
733.5008771489823
 21
237.4150163517708
 31
0.0
1001
ACAD
1000
ASC_BOUNDS
1002
{
1070
    19
1002
}
  0
LINE
  5
255
330
2
100
AcDbEntity
  8
0
100
AcDbLine
 10
733.5008771489825
 20
238.4150163517708
 30
0.0
 11
733.5008771489823
 21
237.4150163517708
 31
0.0
1001
ACAD
1000
ASC_BOUNDS
1002
{
1070
    19
1002
}
  0
ARC
  5
256
330
2
100
AcDbEntity
  8
0
100
AcDbCircle
 10
736.5008771489824
 20
234.9150163517708
 30
0.0
 40
2.5
100
AcDbArc
 50
0.0000000000001018
 51
90.0
1001
ACAD
1000
ASC_BOUNDS
1002
{
1070
    19
1002
}
  0
LINE
  5
257
102
{ACAD_REACTORS
330
215
102
}
330
2
100
AcDbEntity
  8
0
100
AcDbLine
 10
739.0008771489824
 20
234.9150163517708
 30
0.0
 11
739.0008771489825
 21
226.9150163517708
 31
0.0
1001
ACAD
1000
ASC_BOUNDS
1002
{
1070
    19
1002
}
  0
LINE
  5
258
102
{ACAD_REACTORS
330
215
102
}
330
2
100
AcDbEntity
  8
0
100
AcDbLine
 10
748.3553771489824
 20
237.5528050361446
 30
0.0
 11
748.3553771489823
 21
227.8940163517707
 31
0.0
1001
ACAD
1000
ASC_BOUNDS
1002
{
1070
    19
1002
}
  0
ARC
  5
25F
330
2
100
AcDbEntity
  8
0
100
AcDbCircle
 10
793.5008771489825
 20
242.4150163517708
 30
0.0
 40
5.0
100
AcDbArc
 50
270.0
 51
0.0
1001
ACAD
1000
ASC_BOUNDS
1002
{
1070
    19
1002
}
  0
LINE
  5
260
330
2
100
AcDbEntity
  8
BEM
100
AcDbLine
 10
793.5008771489825
 20
237.4150163517708
 30
0.0
 11
807.2396024020513
 21
237.4150163517708
 31
0.0
  0
LINE
  5
261
102
{ACAD_REACTORS
330
215
102
}
330
2
100
AcDbEntity
  8
LINIE
 48
10.0
100
AcDbLine
 10
780.1253771489825
 20
237.0004918064047
 30
0.0
 11
780.1253771489824
 21
226.4150163517708
 31
0.0
1001
ACAD
1000
ASC_BOUNDS
1002
{
1070
    19
1002
}
  0
ARC
  5
262
102
{ACAD_REACTORS
330
215
102
}
330
2
100
AcDbEntity
  8
0
100
AcDbCircle
 10
781.5008771489824
 20
226.9150163517708
 30
0.0
 40
2.5
100
AcDbArc
 50
348.4630409671844
 51
0.0000000000001145
1001
ACAD
1000
ASC_BOUNDS
1002
{
1070
    19
1002
}
  0
LINE
  5
263
102
{ACAD_REACTORS
330
215
102
}
330
2
100
AcDbEntity
  8
0
100
AcDbLine
 10
778.6463771489825
 20
227.8940163517708
 30
0.0
 11
780.1253771489824
 21
226.4150163517708
 31
0.0
1001
ACAD
1000
ASC_BOUNDS
1002
{
1070
    19
1002
}
  0
ARC
  5
264
102
{ACAD_REACTORS
330
215
102
}
330
2
100
AcDbEntity
  8
0
100
AcDbCircle
 10
786.5008771489824
 20
234.9150163517708
 30
0.0
 40
2.5
100
AcDbArc
 50
90.0
 51
180.0000000000001
1001
ACAD
1000
ASC_BOUNDS
1002
{
1070
    19
1002
}
  0
LINE
  5
265
102
{ACAD_REACTORS
330
215
102
}
330
2
100
AcDbEntity
  8
0
100
AcDbLine
 10
778.6463771489825
 20
236.9961644055674
 30
0.0
 11
778.6463771489824
 21
227.8940163517708
 31
0.0
1001
ACAD
1000
ASC_BOUNDS
1002
{
1070
    19
1002
}
  0
LINE
  5
266
102
{ACAD_REACTORS
330
215
102
}
330
2
100
AcDbEntity
  8
0
100
AcDbLine
 10
784.0008771489825
 20
234.9150163517708
 30
0.0
 11
784.0008771489825
 21
226.9150163517708
 31
0.0
1001
ACAD
1000
ASC_BOUNDS
1002
{
1070
    19
1002
}
  0
ARC
  5
268
330
2
100
AcDbEntity
  8
0
100
AcDbCircle
 10
1003.709507826118
 20
250.9713655378746
 30
0.0
 40
12.0
100
AcDbArc
 50
288.0261308132874
 51
10.35332004392946
  0
LINE
  5
269
330
2
100
AcDbEntity
  8
0
100
AcDbLine
 10
926.7095078261176
 20
224.9713655378746
 30
0.0
 11
953.7095078261177
 21
224.9713655378746
 31
0.0
  0
LINE
  5
26A
330
2
100
AcDbEntity
  8
MITTE
 48
7.0
100
AcDbLine
 10
888.7095078261177
 20
204.3572557441645
 30
0.0
 11
888.7095078261177
 21
240.7482905822616
 31
0.0
  0
LINE
  5
26B
330
2
100
AcDbEntity
  8
0
100
AcDbLine
 10
906.9906970282222
 20
208.8204102640021
 30
0.0
 11
906.9906970282222
 21
226.4150163517698
 31
0.0
  0
LINE
  5
26C
330
2
100
AcDbEntity
  8
0
100
AcDbLine
 10
909.2095078261177
 20
208.4150163517709
 30
0.0
 11
909.2095078261177
 21
226.4150163517698
 31
0.0
1001
ACAD
1000
ASC_BOUNDS
1002
{
1070
    19
1002
}
  0
LINE
  5
26D
330
2
100
AcDbEntity
  8
0
100
AcDbLine
 10
868.2095078261177
 20
208.4150163517709
 30
0.0
 11
868.2095078261177
 21
227.415016351771
 31
0.0
1001
ACAD
1000
ASC_BOUNDS
1002
{
1070
    19
1002
}
  0
LINE
  5
26E
330
2
100
AcDbEntity
  8
0
100
AcDbLine
 10
870.4283186240131
 20
208.8204102640021
 30
0.0
 11
870.4283186240131
 21
227.164322977919
 31
0.0
  0
LINE
  5
26F
330
2
100
AcDbEntity
  8
0
100
AcDbLine
 10
890.9283186240131
 20
208.8204102640021
 30
0.0
 11
890.9283186240131
 21
227.164322977919
 31
0.0
  0
LINE
  5
270
330
2
100
AcDbEntity
  8
0
100
AcDbLine
 10
886.4906970282222
 20
208.8204102640021
 30
0.0
 11
886.4906970282222
 21
227.164322977919
 31
0.0
  0
ARC
  5
271
330
2
100
AcDbEntity
  8
0
100
AcDbCircle
 10
878.4595078261176
 20
231.065016351771
 30
0.0
 40
23.65000000000001
100
AcDbArc
 50
250.1483977684143
 51
289.8516022315858
  0
LINE
  5
272
330
2
100
AcDbEntity
  8
0
100
AcDbLine
 10
869.2095078261177
 20
207.4150163517709
 30
0.0
 11
908.2095078261177
 21
207.4150163517709
 31
0.0
1001
ACAD
1000
ASC_BOUNDS
1002
{
1070
    19
1005
0
1002
}
  0
LINE
  5
273
330
2
100
AcDbEntity
  8
0
100
AcDbLine
 10
868.2095078261177
 20
208.4150163517709
 30
0.0
 11
869.2095078261177
 21
207.4150163517709
 31
0.0
1001
ACAD
1000
ASC_BOUNDS
1002
{
1070
    19
1002
}
  0
LINE
  5
274
330
2
100
AcDbEntity
  8
0
100
AcDbLine
 10
870.4283186240131
 20
208.8204102640021
 30
0.0
 11
868.2095078261177
 21
208.4150163517709
 31
0.0
  0
LINE
  5
275
330
2
100
AcDbEntity
  8
0
100
AcDbLine
 10
909.2095078261177
 20
208.4150163517709
 30
0.0
 11
906.9906970282222
 21
208.8204102640021
 31
0.0
  0
ARC
  5
276
330
2
100
AcDbEntity
  8
0
100
AcDbCircle
 10
898.9595078261176
 20
231.065016351771
 30
0.0
 40
23.65000000000001
100
AcDbArc
 50
250.1483977684151
 51
289.8516022315849
  0
LINE
  5
277
330
2
100
AcDbEntity
  8
0
100
AcDbLine
 10
890.9283186240131
 20
208.8204102640021
 30
0.0
 11
886.4906970282222
 21
208.8204102640021
 31
0.0
  0
LINE
  5
278
330
2
100
AcDbEntity
  8
0
100
AcDbLine
 10
909.2095078261177
 20
208.4150163517709
 30
0.0
 11
908.2095078261177
 21
207.4150163517709
 31
0.0
1001
ACAD
1000
ASC_BOUNDS
1002
{
1070
    19
1002
}
  0
ARC
  5
279
330
2
100
AcDbEntity
  8
0
100
AcDbCircle
 10
878.4595078261176
 20
204.9197168901503
 30
0.0
 40
23.65000000000001
100
AcDbArc
 50
70.14839776841426
 51
109.8516022315857
  0
LINE
  5
27A
330
2
100
AcDbEntity
  8
0
100
AcDbLine
 10
904.2095078261176
 20
228.5697168901503
 30
0.0
 11
866.2095078261177
 21
228.5697168901502
 31
0.0
  0
ARC
  5
27B
330
2
100
AcDbEntity
  8
0
100
AcDbCircle
 10
868.2095078261177
 20
239.9150163517707
 30
0.0
 40
2.5
100
AcDbArc
 50
180.0
 51
270.0
  0
ARC
  5
27C
330
2
100
AcDbEntity
  8
0
100
AcDbCircle
 10
868.2095078261177
 20
239.9150163517707
 30
0.0
 40
2.5
100
AcDbArc
 50
180.0
 51
270.0
  0
LINE
  5
27D
330
2
100
AcDbEntity
  8
0
100
AcDbLine
 10
866.2095078261177
 20
237.4150163517708
 30
0.0
 11
885.9427496369919
 21
237.4150163517708
 31
0.0
1001
ACAD
1000
ASC_BOUNDS
1002
{
1070
    19
1002
}
  0
LINE
  5
27E
330
2
100
AcDbEntity
  8
0
100
AcDbLine
 10
885.9427496369919
 20
237.4150163517708
 30
0.0
 11
868.2095078261177
 21
237.4150163517708
 31
0.0
1001
ACAD
1000
ASC_BOUNDS
1002
{
1070
    19
1005
0
1002
}
  0
LINE
  5
27F
330
2
100
AcDbEntity
  8
0
100
AcDbLine
 10
866.2095078261177
 20
228.5697168901502
 30
0.0
 11
866.2095078261177
 21
237.4150163517708
 31
0.0
1001
ACAD
1000
ASC_BOUNDS
1002
{
1070
    19
1002
}
  0
LINE
  5
280
330
2
100
AcDbEntity
  8
0
100
AcDbLine
 10
868.2095078261177
 20
227.415016351771
 30
0.0
 11
866.2095078261177
 21
228.5697168901502
 31
0.0
1001
ACAD
1000
ASC_BOUNDS
1002
{
1070
    19
1002
}
  0
LINE
  5
281
330
2
100
AcDbEntity
  8
0
100
AcDbLine
 10
868.2095078261177
 20
227.415016351771
 30
0.0
 11
870.4283186240131
 21
227.164322977919
 31
0.0
  0
LINE
  5
282
330
2
100
AcDbEntity
  8
0
100
AcDbLine
 10
865.7095078261177
 20
257.8714902263477
 30
0.0
 11
865.7095078261177
 21
239.9150163517707
 31
0.0
  0
LINE
  5
283
330
2
100
AcDbEntity
  8
0
100
AcDbLine
 10
865.7095078261177
 20
257.8714902263477
 30
0.0
 11
865.7095078261177
 21
239.9150163517707
 31
0.0
  0
LINE
  5
284
330
2
100
AcDbEntity
  8
0
100
AcDbLine
 10
912.2634394628486
 20
226.4150163517698
 30
0.0
 11
904.2600180833346
 21
226.4150163517698
 31
0.0
  0
ARC
  5
285
330
2
100
AcDbEntity
  8
0
100
AcDbCircle
 10
906.7095078261177
 20
226.9150163517708
 30
0.0
 40
2.5
100
AcDbArc
 50
180.0
 51
191.5369590328365
  0
ARC
  5
286
330
2
100
AcDbEntity
  8
0
100
AcDbCircle
 10
898.9595078261176
 20
204.9197168901503
 30
0.0
 40
23.65000000000001
100
AcDbArc
 50
77.17421556953945
 51
109.8516022315849
  0
LINE
  5
287
330
2
100
AcDbEntity
  8
0
100
AcDbLine
 10
890.9283186240131
 20
227.164322977919
 30
0.0
 11
886.4906970282222
 21
227.164322977919
 31
0.0
  0
LINE
  5
288
330
2
100
AcDbEntity
  8
0
100
AcDbLine
 10
904.2095078261176
 20
228.5253433335755
 30
0.0
 11
904.2095078261176
 21
226.9150163517708
 31
0.0
  0
LINE
  5
289
330
2
100
AcDbEntity
  8
MITTE
 48
7.0
100
AcDbLine
 10
964.7095078261177
 20
204.3572557441645
 30
0.0
 11
964.7095078261177
 21
240.7482905822616
 31
0.0
  0
LINE
  5
28A
330
2
100
AcDbEntity
  8
0
100
AcDbLine
 10
966.9283186240132
 20
208.8204102640021
 30
0.0
 11
966.9283186240132
 21
226.5538771624502
 31
0.0
  0
LINE
  5
28B
330
2
100
AcDbEntity
  8
0
100
AcDbLine
 10
962.4906970282223
 20
208.8204102640021
 30
0.0
 11
962.4906970282223
 21
225.6641262631029
 31
0.0
  0
LINE
  5
28C
330
2
100
AcDbEntity
  8
0
100
AcDbLine
 10
946.4283186240132
 20
208.8204102640021
 30
0.0
 11
946.4283186240132
 21
224.9713655378746
 31
0.0
  0
LINE
  5
28D
330
2
100
AcDbEntity
  8
0
100
AcDbLine
 10
944.2095078261177
 20
208.4150163517709
 30
0.0
 11
944.2095078261177
 21
224.9713655378746
 31
0.0
1001
ACAD
1000
ASC_BOUNDS
1002
{
1070
    19
1002
}
  0
LINE
  5
28E
330
2
100
AcDbEntity
  8
0
100
AcDbLine
 10
985.2095078261177
 20
208.4150163517709
 30
0.0
 11
985.2095078261177
 21
227.415016351771
 31
0.0
1001
ACAD
1000
ASC_BOUNDS
1002
{
1070
    19
1002
}
  0
LINE
  5
28F
330
2
100
AcDbEntity
  8
0
100
AcDbLine
 10
982.9906970282221
 20
208.8204102640021
 30
0.0
 11
982.9906970282221
 21
227.164322977919
 31
0.0
  0
ARC
  5
290
330
2
100
AcDbEntity
  8
0
100
AcDbCircle
 10
974.9595078261178
 20
231.065016351771
 30
0.0
 40
23.65000000000001
100
AcDbArc
 50
250.1483977684151
 51
289.8516022315849
  0
LINE
  5
291
330
2
100
AcDbEntity
  8
0
100
AcDbLine
 10
945.2095078261177
 20
207.4150163517709
 30
0.0
 11
984.2095078261177
 21
207.4150163517709
 31
0.0
1001
ACAD
1000
ASC_BOUNDS
1002
{
1070
    19
1005
0
1002
}
  0
ARC
  5
292
330
2
100
AcDbEntity
  8
0
100
AcDbCircle
 10
954.4595078261178
 20
231.065016351771
 30
0.0
 40
23.65000000000001
100
AcDbArc
 50
250.1483977684151
 51
289.8516022315849
  0
LINE
  5
293
330
2
100
AcDbEntity
  8
0
100
AcDbLine
 10
946.4283186240132
 20
208.8204102640021
 30
0.0
 11
944.2095078261177
 21
208.4150163517709
 31
0.0
  0
LINE
  5
294
330
2
100
AcDbEntity
  8
0
100
AcDbLine
 10
944.2095078261177
 20
208.4150163517709
 30
0.0
 11
945.2095078261177
 21
207.4150163517709
 31
0.0
1001
ACAD
1000
ASC_BOUNDS
1002
{
1070
    19
1002
}
  0
LINE
  5
295
330
2
100
AcDbEntity
  8
0
100
AcDbLine
 10
966.9283186240132
 20
208.8204102640021
 30
0.0
 11
962.4906970282223
 21
208.8204102640021
 31
0.0
  0
LINE
  5
296
330
2
100
AcDbEntity
  8
0
100
AcDbLine
 10
985.2095078261177
 20
208.4150163517709
 30
0.0
 11
984.2095078261177
 21
207.4150163517709
 31
0.0
1001
ACAD
1000
ASC_BOUNDS
1002
{
1070
    19
1002
}
  0
LINE
  5
297
330
2
100
AcDbEntity
  8
0
100
AcDbLine
 10
985.2095078261177
 20
208.4150163517709
 30
0.0
 11
982.9906970282221
 21
208.8204102640021
 31
0.0
  0
ARC
  5
298
330
2
100
AcDbEntity
  8
0
100
AcDbCircle
 10
974.9595078261178
 20
204.9197168901503
 30
0.0
 40
23.65000000000001
100
AcDbArc
 50
70.14839776841511
 51
93.50511215251156
  0
LINE
  5
299
330
2
100
AcDbEntity
  8
0
100
AcDbLine
 10
987.2095078261176
 20
228.5697168901503
 30
0.0
 11
973.6495522532985
 21
228.5697168901503
 31
0.0
  0
LINE
  5
29A
330
2
100
AcDbEntity
  8
0
100
AcDbLine
 10
971.0387475501702
 20
227.7200984112951
 30
0.0
 11
1007.422916338414
 21
239.5603797250362
 31
0.0
  0
ARC
  5
29B
330
2
100
AcDbEntity
  8
0
100
AcDbCircle
 10
953.7095078261177
 20
280.9713655378746
 30
0.0
 40
56.0
100
AcDbArc
 50
270.0
 51
288.0261308132874
  0
LINE
  5
29C
330
2
100
AcDbEntity
  8
0
100
AcDbLine
 10
985.2095078261177
 20
227.415016351771
 30
0.0
 11
982.9906970282221
 21
227.164322977919
 31
0.0
  0
LINE
  5
29D
330
2
100
AcDbEntity
  8
0
100
AcDbLine
 10
987.2095078261176
 20
228.5697168901503
 30
0.0
 11
987.2095078261176
 21
232.9824517122217
 31
0.0
1001
ACAD
1000
ASC_BOUNDS
1002
{
1070
    19
1002
}
  0
LINE
  5
29E
330
2
100
AcDbEntity
  8
0
100
AcDbLine
 10
985.2095078261177
 20
227.415016351771
 30
0.0
 11
987.2095078261176
 21
228.5697168901503
 31
0.0
1001
ACAD
1000
ASC_BOUNDS
1002
{
1070
    19
1002
}
  0
ARC
  5
29F
330
2
100
AcDbEntity
  8
LINIE
 48
10.0
100
AcDbCircle
 10
1003.709507826118
 20
250.9713655378746
 30
0.0
 40
4.0
100
AcDbArc
 50
163.3492982195146
 51
98.85437576424262
  0
CIRCLE
  5
2A0
330
2
100
AcDbEntity
  8
0
100
AcDbCircle
 10
1003.709507826118
 20
250.9713655378746
 30
0.0
 40
3.3235
  0
LINE
  5
2A1
330
2
100
AcDbEntity
  8
MITTE
 48
10.0
100
AcDbLine
 10
1003.709507826118
 20
257.0173077807128
 30
0.0
 11
1003.709507826118
 21
245.2742140347477
 31
0.0
  0
LINE
  5
2A2
330
2
100
AcDbEntity
  8
MITTE
 48
10.0
100
AcDbLine
 10
998.972564924559
 20
250.9713655378746
 30
0.0
 11
1009.82482833291
 21
250.9713655378746
 31
0.0
  0
LINE
  5
2BE
330
2
100
AcDbEntity
  8
MITTE
 48
20.0
100
AcDbLine
 10
828.3938090376441
 20
327.9713655378746
 30
0.0
 11
1025.187085874547
 21
327.9713655378746
 31
0.0
  0
LINE
  5
2BF
330
2
100
AcDbEntity
  8
0
100
AcDbLine
 10
653.069379666461
 20
368.4150163517707
 30
0.0
 11
793.5008771489825
 21
368.4150163517708
 31
0.0
1001
ACAD
1000
ASC_BOUNDS
1002
{
1070
    19
1002
}
  0
LINE
  5
2C0
330
2
100
AcDbEntity
  8
MITTE
 48
15.0
100
AcDbLine
 10
598.1586486894657
 20
307.4150163517708
 30
0.0
 11
802.8868920506582
 21
307.4150163517708
 31
0.0
  0
LINE
  5
2C1
330
2
100
AcDbEntity
  8
0
100
AcDbLine
 10
626.5008771489824
 20
373.4150163517709
 30
0.0
 11
626.5008771489825
 21
357.4150163517708
 31
0.0
1001
ACAD
1000
ASC_BOUNDS
1002
{
1070
    19
1005
0
1005
0
1002
}
  0
ARC
  5
2C2
330
2
100
AcDbEntity
  8
0
100
AcDbCircle
 10
642.8406231111381
 20
302.4150163517709
 30
0.0
 40
10.0
100
AcDbArc
 50
48.59037789072882
 51
90.00000000000033
  0
LINE
  5
2C3
330
2
100
AcDbEntity
  8
0
100
AcDbLine
 10
626.5008771489825
 20
312.4150163517709
 30
0.0
 11
642.840623111138
 21
312.4150163517709
 31
0.0
  0
ARC
  5
2C4
330
2
100
AcDbEntity
  8
0
100
AcDbCircle
 10
729.0008771489826
 20
304.4823384731275
 30
0.0
 40
2.5
100
AcDbArc
 50
89.99999999999998
 51
180.0
1001
ACAD
1000
ASC_BOUNDS
1002
{
1070
    19
1002
}
  0
LINE
  5
2C5
330
2
100
AcDbEntity
  8
LINIE
 48
10.0
100
AcDbLine
 10
627.8738979405196
 20
368.4150163517708
 30
0.0
 11
650.8289333671362
 21
368.4150163517708
 31
0.0
  0
LINE
  5
2C6
330
2
100
AcDbEntity
  8
LINIE
 48
10.0
100
AcDbLine
 10
646.0460575973869
 20
368.4150163517707
 30
0.0
 11
627.914124477351
 21
368.4150163517707
 31
0.0
  0
ARC
  5
2C7
330
2
100
AcDbEntity
  8
0
100
AcDbCircle
 10
639.840623111138
 20
363.4150163517706
 30
0.0
 40
10.0
100
AcDbArc
 50
48.59037789072882
 51
90.00000000000033
1001
ACAD
1000
ASC_BOUNDS
1002
{
1070
    19
1002
}
  0
LINE
  5
2C8
330
2
100
AcDbEntity
  8
0
100
AcDbLine
 10
626.5008771489825
 20
373.4150163517713
 30
0.0
 11
639.840623111138
 21
373.4150163517707
 31
0.0
1001
ACAD
1000
ASC_BOUNDS
1002
{
1070
    19
1002
}
  0
ARC
  5
2C9
330
2
100
AcDbEntity
  8
0
100
AcDbCircle
 10
653.069379666461
 20
378.4150163517706
 30
0.0
 40
10.0
100
AcDbArc
 50
228.5903778907288
 51
270.0
1001
ACAD
1000
ASC_BOUNDS
1002
{
1070
    19
1002
}
  0
ARC
  5
2CA
330
2
100
AcDbEntity
  8
0
100
AcDbCircle
 10
793.5008771489825
 20
363.4150163517708
 30
0.0
 40
5.0
100
AcDbArc
 50
0.0000000000000254
 51
90.0
1001
ACAD
1000
ASC_BOUNDS
1002
{
1070
    19
1002
}
  0
ARC
  5
2D7
330
2
100
AcDbEntity
  8
MITTE
 48
15.0
100
AcDbCircle
 10
926.7095078261176
 20
327.9713655378746
 30
0.0
 40
72.5
100
AcDbArc
 50
13.3832601853849
 51
53.40688101119445
  0
LINE
  5
2D8
330
2
100
AcDbEntity
  8
MITTE
 48
10.0
100
AcDbLine
 10
995.7360105799743
 20
307.4150163517708
 30
0.0
 11
859.1912290574292
 21
307.4150163517708
 31
0.0
  0
ARC
  5
2D9
330
2
100
AcDbEntity
  8
MITTE
 48
15.0
100
AcDbCircle
 10
926.7095078261176
 20
327.9713655378746
 30
0.0
 40
72.5
100
AcDbArc
 50
187.4328260304643
 51
233.5117163400941
  0
LINE
  5
2DA
330
2
100
AcDbEntity
  8
MITTE
 48
10.0
100
AcDbLine
 10
881.9231853874333
 20
283.1850430991894
 30
0.0
 11
869.0450058703456
 21
270.3068635821018
 31
0.0
  0
CIRCLE
  5
2DB
330
2
100
AcDbEntity
  8
0
100
AcDbCircle
 10
875.4442661900929
 20
276.7061239018499
 30
0.0
 40
5.75
  0
ARC
  5
2DC
330
2
100
AcDbEntity
  8
MITTE
 48
15.0
100
AcDbCircle
 10
926.7095078261176
 20
327.9713655378746
 30
0.0
 40
72.5
100
AcDbArc
 50
306.5931189888055
 51
324.1811683713761
  0
LINE
  5
2DD
330
2
100
AcDbEntity
  8
MITTE
 48
10.0
100
AcDbLine
 10
971.601195576131
 20
283.0796777878621
 30
0.0
 11
985.5849183726482
 21
269.0959549913448
 31
0.0
  0
CIRCLE
  5
2DE
330
2
100
AcDbEntity
  8
0
100
AcDbCircle
 10
977.9747494621425
 20
276.7061239018499
 30
0.0
 40
5.75
  0
ARC
  5
2DF
330
2
100
AcDbEntity
  8
MITTE
 48
15.0
100
AcDbCircle
 10
926.7095078261176
 20
327.9713655378746
 30
0.0
 40
72.5
100
AcDbArc
 50
126.4882836599058
 51
143.57665577438
  0
LINE
  5
2E0
330
2
100
AcDbEntity
  8
MITTE
 48
10.0
100
AcDbLine
 10
881.9231853874333
 20
372.7576879765597
 30
0.0
 11
869.0450058703456
 21
385.6358674936474
 31
0.0
  0
CIRCLE
  5
2E1
330
2
100
AcDbEntity
  8
0
100
AcDbCircle
 10
875.4442661900929
 20
379.2366071738993
 30
0.0
 40
5.75
  0
LINE
  5
2E2
330
2
100
AcDbEntity
  8
MITTE
 48
10.0
100
AcDbLine
 10
971.601195576131
 20
372.8630532878871
 30
0.0
 11
985.5849183726482
 21
386.8467760844044
 31
0.0
  0
CIRCLE
  5
2E3
330
2
100
AcDbEntity
  8
0
100
AcDbCircle
 10
977.9747494621425
 20
379.2366071738993
 30
0.0
 40
5.75
  0
ENDSEC
  0
SECTION
  2
OBJECTS
  0
DICTIONARY
  5
1B
330
0
100
AcDbDictionary
281
     1
  3
ACAD_COLOR
350
3B8
  3
ACAD_GROUP
350
19
  3
ACAD_LAYOUT
350
33B
  3
ACAD_MATERIAL
350
3B7
  3
ACAD_MLEADERSTYLE
350
8EF
  3
ACAD_MLINESTYLE
350
1A
  3
ACAD_PLOTSETTINGS
350
33C
  3
ACAD_PLOTSTYLENAME
350
339
  3
ACAD_SCALELIST
350
8CD
  3
ACAD_TABLESTYLE
350
3B9
  3
ACAD_VISUALSTYLE
350
88D
  3
ACDB_RECOMPOSE_DATA
350
929
  3
ACDBVARIABLEDICTIONARY
350
306
  3
ACMDICTIONARY
350
2E4
  3
AMG
350
344
  3
AMGSNAPSETTINGS
350
3A3
  3
ASE_INDEX_DICTIONARY
350
924
  3
DWGPROPS
350
9CF
  0
DICTIONARY
  5
911
330
5
100
AcDbDictionary
280
     1
281
     1
  3
ADSK_XREC_LAYER_RECONCILED
360
912
  0
DICTIONARY
  5
913
330
21
100
AcDbDictionary
280
     1
281
     1
  3
ADSK_XREC_LAYER_RECONCILED
360
914
  0
DICTIONARY
  5
915
330
3D
100
AcDbDictionary
280
     1
281
     1
  3
ADSK_XREC_LAYER_RECONCILED
360
916
  0
DICTIONARY
  5
917
330
52
100
AcDbDictionary
280
     1
281
     1
  3
ADSK_XREC_LAYER_RECONCILED
360
918
  0
DICTIONARY
  5
3
330
2
100
AcDbDictionary
280
     1
281
     1
  0
DICTIONARY
  5
3B8
102
{ACAD_REACTORS
330
1B
102
}
330
1B
100
AcDbDictionary
281
     1
  0
DICTIONARY
  5
19
102
{ACAD_REACTORS
330
1B
102
}
330
1B
100
AcDbDictionary
281
     1
  0
DICTIONARY
  5
33B
102
{ACAD_REACTORS
330
1B
102
}
330
1B
100
AcDbDictionary
281
     1
  3
Layout1
350
33E
  3
Model
350
33D
  0
DICTIONARY
  5
3B7
102
{ACAD_REACTORS
330
1B
102
}
330
1B
100
AcDbDictionary
281
     1
  3
ByBlock
350
88B
  3
ByLayer
350
88A
  3
Global
350
88C
  0
DICTIONARY
  5
8EF
102
{ACAD_REACTORS
330
1B
102
}
330
1B
100
AcDbDictionary
281
     1
  3
Standard
350
8F0
  0
DICTIONARY
  5
1A
102
{ACAD_REACTORS
330
1B
102
}
330
1B
100
AcDbDictionary
281
     1
  3
STANDARD
350
1C
  0
DICTIONARY
  5
33C
102
{ACAD_REACTORS
330
1B
102
}
330
1B
100
AcDbDictionary
281
     1
  0
ACDBDICTIONARYWDFLT
  5
339
102
{ACAD_REACTORS
330
1B
102
}
330
1B
100
AcDbDictionary
281
     1
  3
Normal
350
33A
100
AcDbDictionaryWithDefault
340
33A
  0
DICTIONARY
  5
8CD
102
{ACAD_REACTORS
330
1B
102
}
330
1B
100
AcDbDictionary
281
     1
  3
A0
350
8CE
  3
A1
350
8CF
  3
A2
350
8D0
  3
A3
350
8D1
  3
A4
350
8D2
  3
A5
350
8D3
  3
A6
350
8D4
  3
A7
350
8D5
  3
A8
350
8D6
  3
A9
350
8D7
  3
B0
350
8D8
  3
B1
350
8D9
  3
B2
350
8DA
  3
B3
350
8DB
  3
B4
350
8DC
  3
B5
350
8DD
  3
B6
350
8DE
  3
B7
350
8DF
  3
B8
350
8E0
  3
B9
350
8E1
  3
C0
350
8E2
  3
C1
350
8E3
  3
C2
350
8E4
  3
C3
350
8E5
  3
C4
350
8E6
  3
C5
350
8E7
  3
C6
350
8E8
  3
C7
350
8E9
  3
C8
350
8EA
  3
C9
350
8EB
  3
D0
350
8EC
  3
D1
350
8ED
  3
D2
350
8EE
  0
DICTIONARY
  5
3B9
102
{ACAD_REACTORS
330
1B
102
}
330
1B
100
AcDbDictionary
281
     1
  3
Standard
350
3BA
  0
DICTIONARY
  5
88D
102
{ACAD_REACTORS
330
1B
102
}
330
1B
100
AcDbDictionary
281
     1
  3
2dWireframe
350
893
  3
3D Hidden
350
895
  3
3dWireframe
350
894
  3
Basic
350
892
  3
Brighten
350
899
  3
ColorChange
350
89D
  3
Conceptual
350
896
  3
Dim
350
898
  3
Facepattern
350
89C
  3
Flat
350
88E
  3
FlatWithEdges
350
88F
  3
Gouraud
350
890
  3
GouraudWithEdges
350
891
  3
Linepattern
350
89B
  3
Realistic
350
897
  3
Thicken
350
89A
  0
XRECORD
  5
929
102
{ACAD_REACTORS
330
1B
102
}
330
1B
100
AcDbXrecord
280
     1
 90
        1
330
3BA
  0
DICTIONARY
  5
306
102
{ACAD_REACTORS
330
1B
102
}
330
1B
100
AcDbDictionary
281
     1
  3
CANNOSCALE
350
92C
  3
CMLEADERSTYLE
350
92A
  3
CTABLESTYLE
350
48D
  3
DIMASSOC
350
3B4
  3
INDEXCTL
350
307
  3
LIGHTINGUNITS
350
92D
  3
MSLTSCALE
350
92B
  3
SORTENTS
350
9CD
  0
DICTIONARY
  5
2E4
102
{ACAD_REACTORS
330
1B
102
}
330
1B
100
AcDbDictionary
280
     1
281
     1
  3
ACMSTDDICTIONARY
360
2E5
  3
AMDTSECTSYM_ARROWCOLOR
360
411
  0
DICTIONARY
  5
344
102
{ACAD_REACTORS
330
1B
102
}
330
1B
100
AcDbDictionary
281
     1
  0
DICTIONARY
  5
3A3
102
{ACAD_REACTORS
330
1B
102
}
330
1B
100
AcDbDictionary
281
     1
  0
DICTIONARY
  5
924
102
{ACAD_REACTORS
330
1B
102
}
330
1B
100
AcDbDictionary
281
     1
  3
ASEBlockHierarchyIndexRecord
350
926
1001
DCO15
1040
1703570693.124
  0
XRECORD
  5
9CF
102
{ACAD_REACTORS
330
1B
102
}
330
1B
100
AcDbXrecord
280
     1
  1
DWGPROPS COOKIE
  2

  3

  4

  6

  7

  8
basyouni
  9

300
AmdtFileType=84
301
=
302
=
303
=
304
=
305
=
306
=
307
=
308
=
309
=
 40
1.894819398148148
 41
2450848.753473218
 42
2455520.465244491
  1

 90
        1
  0
XRECORD
  5
912
102
{ACAD_REACTORS
330
911
102
}
330
911
100
AcDbXrecord
280
     1
290
     1
  0
XRECORD
  5
914
102
{ACAD_REACTORS
330
913
102
}
330
913
100
AcDbXrecord
280
     1
290
     1
  0
XRECORD
  5
916
102
{ACAD_REACTORS
330
915
102
}
330
915
100
AcDbXrecord
280
     1
290
     1
  0
XRECORD
  5
918
102
{ACAD_REACTORS
330
917
102
}
330
917
100
AcDbXrecord
280
     1
290
     1
  0
LAYOUT
  5
33E
102
{ACAD_XDICTIONARY
360
9D2
102
}
102
{ACAD_REACTORS
330
33B
102
}
330
33B
100
AcDbPlotSettings
  1

  2
Kein
  4

  6

 40
0.0
 41
0.0
 42
0.0
 43
0.0
 44
0.0
 45
0.0
 46
0.0
 47
0.0
 48
0.0
 49
0.0
140
0.0
141
0.0
142
1.0
143
1.0
 70
   688
 72
     0
 73
     0
 74
     5
  7
Test.ctb
 75
    16
147
1.0
148
0.0
149
0.0
100
AcDbLayout
  1
Layout1
 70
     0
 71
     1
 10
0.0
 20
0.0
 11
420.0
 21
297.0
 12
0.0
 22
0.0
 32
0.0
 14
1.000000000000000E+20
 24
1.000000000000000E+20
 34
1.000000000000000E+20
 15
-1.000000000000000E+20
 25
-1.000000000000000E+20
 35
-1.000000000000000E+20
146
0.0
 13
0.0
 23
0.0
 33
0.0
 16
1.0
 26
0.0
 36
0.0
 17
0.0
 27
1.0
 37
0.0
 76
     0
330
8
  0
LAYOUT
  5
33D
102
{ACAD_XDICTIONARY
360
9D0
102
}
102
{ACAD_REACTORS
330
33B
102
}
330
33B
100
AcDbPlotSettings
  1

  2
Konstruktion
  4
A4
  6

 40
7.143749713897705
 41
7.186082363128662
 42
7.059066772460937
 43
5.027069091796875
 44
209.9733276367187
 45
296.9683227539062
 46
34.92703363579011
 47
0.0
 48
0.0
 49
0.0
140
0.0
141
0.0
142
1.0
143
3.953012912528233
 70
  3764
 72
     1
 73
     1
 74
     1
  7
Zeich.ctb
 75
     0
147
0.2529715996703964
148
-35.02807900662083
149
-29.69207895185332
100
AcDbLayout
  1
Model
 70
     1
 71
     0
 10
0.0
 20
0.0
 11
12.0
 21
9.0
 12
0.0
 22
0.0
 32
0.0
 14
0.0
 24
0.0
 34
0.0
 15
0.0
 25
0.0
 35
0.0
146
0.0
 13
0.0
 23
0.0
 33
0.0
 16
1.0
 26
0.0
 36
0.0
 17
0.0
 27
1.0
 37
0.0
 76
     0
330
2
331
888
1001
ACAD_PSEXT
1000
Konstruktion
1000
Kyocera FS-1030D
1000
IP_192.168.10.181
1000

1070
     0
  0
MATERIAL
  5
88B
102
{ACAD_XDICTIONARY
360
9DB
102
}
102
{ACAD_REACTORS
330
3B7
102
}
330
3B7
100
AcDbMaterial
  1
ByBlock
 73
     1
 78
     1
172
     1
176
     1
270
     1
274
     1
  0
MATERIAL
  5
88A
102
{ACAD_XDICTIONARY
360
9D9
102
}
102
{ACAD_REACTORS
330
3B7
102
}
330
3B7
100
AcDbMaterial
  1
ByLayer
 73
     1
 78
     1
172
     1
176
     1
270
     1
274
     1
  0
MATERIAL
  5
88C
102
{ACAD_XDICTIONARY
360
9DD
102
}
102
{ACAD_REACTORS
330
3B7
102
}
330
3B7
100
AcDbMaterial
  1
Global
 73
     1
 78
     1
172
     1
176
     1
270
     1
274
     1
  0
MLEADERSTYLE
  5
8F0
102
{ACAD_REACTORS
330
8EF
102
}
330
8EF
100
AcDbMLeaderStyle
170
     2
171
     1
172
     0
 90
        2
 40
0.0
 41
0.0
173
     1
 91
-1056964608
340
F
 92
       -2
290
     1
 42
0.09
291
     1
 43
0.36
  3
Standard
 44
0.18
300

342
D
174
     1
178
     6
175
     1
176
     0
 93
-1056964608
 45
0.18
292
     0
297
     0
 46
0.18
 94
-1056964608
 47
1.0
 49
1.0
140
1.0
293
     1
141
0.0
294
     1
177
     0
142
1.0
295
     0
296
     0
143
0.125
1001
ACAD_MLEADERVER
1070
     2
  0
MLINESTYLE
  5
1C
102
{ACAD_REACTORS
330
1A
102
}
330
1A
100
AcDbMlineStyle
  2
STANDARD
 70
     0
  3

 62
     0
 51
90.0
 52
90.0
 71
     2
 49
0.5
 62
   256
  6
BYLAYER
 49
-0.5
 62
   256
  6
BYLAYER
  0
ACDBPLACEHOLDER
  5
33A
102
{ACAD_REACTORS
330
339
102
}
330
339
  0
SCALE
  5
8CE
102
{ACAD_REACTORS
330
8CD
102
}
330
8CD
100
AcDbScale
 70
     0
300
1:1
140
1.0
141
1.0
290
     1
  0
SCALE
  5
8CF
102
{ACAD_REACTORS
330
8CD
102
}
330
8CD
100
AcDbScale
 70
     0
300
1:2
140
1.0
141
2.0
290
     0
  0
SCALE
  5
8D0
102
{ACAD_REACTORS
330
8CD
102
}
330
8CD
100
AcDbScale
 70
     0
300
1:4
140
1.0
141
4.0
290
     0
  0
SCALE
  5
8D1
102
{ACAD_REACTORS
330
8CD
102
}
330
8CD
100
AcDbScale
 70
     0
300
1:5
140
1.0
141
5.0
290
     0
  0
SCALE
  5
8D2
102
{ACAD_REACTORS
330
8CD
102
}
330
8CD
100
AcDbScale
 70
     0
300
1:8
140
1.0
141
8.0
290
     0
  0
SCALE
  5
8D3
102
{ACAD_REACTORS
330
8CD
102
}
330
8CD
100
AcDbScale
 70
     0
300
1:10
140
1.0
141
10.0
290
     0
  0
SCALE
  5
8D4
102
{ACAD_REACTORS
330
8CD
102
}
330
8CD
100
AcDbScale
 70
     0
300
1:16
140
1.0
141
16.0
290
     0
  0
SCALE
  5
8D5
102
{ACAD_REACTORS
330
8CD
102
}
330
8CD
100
AcDbScale
 70
     0
300
1:20
140
1.0
141
20.0
290
     0
  0
SCALE
  5
8D6
102
{ACAD_REACTORS
330
8CD
102
}
330
8CD
100
AcDbScale
 70
     0
300
1:30
140
1.0
141
30.0
290
     0
  0
SCALE
  5
8D7
102
{ACAD_REACTORS
330
8CD
102
}
330
8CD
100
AcDbScale
 70
     0
300
1:40
140
1.0
141
40.0
290
     0
  0
SCALE
  5
8D8
102
{ACAD_REACTORS
330
8CD
102
}
330
8CD
100
AcDbScale
 70
     0
300
1:50
140
1.0
141
50.0
290
     0
  0
SCALE
  5
8D9
102
{ACAD_REACTORS
330
8CD
102
}
330
8CD
100
AcDbScale
 70
     0
300
1:100
140
1.0
141
100.0
290
     0
  0
SCALE
  5
8DA
102
{ACAD_REACTORS
330
8CD
102
}
330
8CD
100
AcDbScale
 70
     0
300
2:1
140
2.0
141
1.0
290
     0
  0
SCALE
  5
8DB
102
{ACAD_REACTORS
330
8CD
102
}
330
8CD
100
AcDbScale
 70
     0
300
4:1
140
4.0
141
1.0
290
     0
  0
SCALE
  5
8DC
102
{ACAD_REACTORS
330
8CD
102
}
330
8CD
100
AcDbScale
 70
     0
300
8:1
140
8.0
141
1.0
290
     0
  0
SCALE
  5
8DD
102
{ACAD_REACTORS
330
8CD
102
}
330
8CD
100
AcDbScale
 70
     0
300
10:1
140
10.0
141
1.0
290
     0
  0
SCALE
  5
8DE
102
{ACAD_REACTORS
330
8CD
102
}
330
8CD
100
AcDbScale
 70
     0
300
100:1
140
100.0
141
1.0
290
     0
  0
SCALE
  5
8DF
102
{ACAD_REACTORS
330
8CD
102
}
330
8CD
100
AcDbScale
 70
     0
300
1/128" = 1'-0"
140
0.0078125
141
12.0
290
     0
  0
SCALE
  5
8E0
102
{ACAD_REACTORS
330
8CD
102
}
330
8CD
100
AcDbScale
 70
     0
300
1/64" = 1'-0"
140
0.015625
141
12.0
290
     0
  0
SCALE
  5
8E1
102
{ACAD_REACTORS
330
8CD
102
}
330
8CD
100
AcDbScale
 70
     0
300
1/32" = 1'-0"
140
0.03125
141
12.0
290
     0
  0
SCALE
  5
8E2
102
{ACAD_REACTORS
330
8CD
102
}
330
8CD
100
AcDbScale
 70
     0
300
1/16" = 1'-0"
140
0.0625
141
12.0
290
     0
  0
SCALE
  5
8E3
102
{ACAD_REACTORS
330
8CD
102
}
330
8CD
100
AcDbScale
 70
     0
300
3/32" = 1'-0"
140
0.09375
141
12.0
290
     0
  0
SCALE
  5
8E4
102
{ACAD_REACTORS
330
8CD
102
}
330
8CD
100
AcDbScale
 70
     0
300
1/8" = 1'-0"
140
0.125
141
12.0
290
     0
  0
SCALE
  5
8E5
102
{ACAD_REACTORS
330
8CD
102
}
330
8CD
100
AcDbScale
 70
     0
300
3/16" = 1'-0"
140
0.1875
141
12.0
290
     0
  0
SCALE
  5
8E6
102
{ACAD_REACTORS
330
8CD
102
}
330
8CD
100
AcDbScale
 70
     0
300
1/4" = 1'-0"
140
0.25
141
12.0
290
     0
  0
SCALE
  5
8E7
102
{ACAD_REACTORS
330
8CD
102
}
330
8CD
100
AcDbScale
 70
     0
300
3/8" = 1'-0"
140
0.375
141
12.0
290
     0
  0
SCALE
  5
8E8
102
{ACAD_REACTORS
330
8CD
102
}
330
8CD
100
AcDbScale
 70
     0
300
1/2" = 1'-0"
140
0.5
141
12.0
290
     0
  0
SCALE
  5
8E9
102
{ACAD_REACTORS
330
8CD
102
}
330
8CD
100
AcDbScale
 70
     0
300
3/4" = 1'-0"
140
0.75
141
12.0
290
     0
  0
SCALE
  5
8EA
102
{ACAD_REACTORS
330
8CD
102
}
330
8CD
100
AcDbScale
 70
     0
300
1" = 1'-0"
140
1.0
141
12.0
290
     0
  0
SCALE
  5
8EB
102
{ACAD_REACTORS
330
8CD
102
}
330
8CD
100
AcDbScale
 70
     0
300
1-1/2" = 1'-0"
140
1.5
141
12.0
290
     0
  0
SCALE
  5
8EC
102
{ACAD_REACTORS
330
8CD
102
}
330
8CD
100
AcDbScale
 70
     0
300
3" = 1'-0"
140
3.0
141
12.0
290
     0
  0
SCALE
  5
8ED
102
{ACAD_REACTORS
330
8CD
102
}
330
8CD
100
AcDbScale
 70
     0
300
6" = 1'-0"
140
6.0
141
12.0
290
     0
  0
SCALE
  5
8EE
102
{ACAD_REACTORS
330
8CD
102
}
330
8CD
100
AcDbScale
 70
     0
300
1'-0" = 1'-0"
140
12.0
141
12.0
290
     0
  0
TABLESTYLE
  5
3BA
102
{ACAD_XDICTIONARY
360
927
102
}
102
{ACAD_REACTORS
330
3B9
102
}
330
3B9
100
AcDbTableStyle
  3
Standard
 70
     0
 71
     0
 40
0.06
 41
0.06
280
     0
281
     0
  7
STANDARD
140
0.18
170
     2
 62
     0
 63
     7
283
     0
274
    -2
284
     1
 64
     0
275
    -2
285
     1
 65
     0
276
    -2
286
     1
 66
     0
277
    -2
287
     1
 67
     0
278
    -2
288
     1
 68
     0
279
    -2
289
     1
 69
     0
  7
STANDARD
140
0.25
170
     5
 62
     0
 63
     7
283
     0
274
    -2
284
     1
 64
     0
275
    -2
285
     1
 65
     0
276
    -2
286
     1
 66
     0
277
    -2
287
     1
 67
     0
278
    -2
288
     1
 68
     0
279
    -2
289
     1
 69
     0
  7
STANDARD
140
0.18
170
     5
 62
     0
 63
     7
283
     0
274
    -2
284
     1
 64
     0
275
    -2
285
     1
 65
     0
276
    -2
286
     1
 66
     0
277
    -2
287
     1
 67
     0
278
    -2
288
     1
 68
     0
279
    -2
289
     1
 69
     0
  0
VISUALSTYLE
  5
893
102
{ACAD_REACTORS
330
88D
102
}
330
88D
100
AcDbVisualStyle
  2
2dWireframe
 70
     4
 71
     0
 72
     2
 73
     0
 90
        0
 40
-0.6
 41
-30.0
 62
     5
 63
     7
 74
     1
 91
        4
 64
     7
 65
   257
 75
     1
175
     1
 42
1.0
 92
        0
 66
   257
 43
1.0
 76
     1
 77
     6
 78
     2
 67
     7
 79
     5
170
     0
171
     0
290
     0
174
     0
 93
        1
 44
0.0
173
     0
291
     0
 45
0.0
1001
ACAD
1000
AcDbSavedByObjectVersion
1070
     0
  0
VISUALSTYLE
  5
895
102
{ACAD_REACTORS
330
88D
102
}
330
88D
100
AcDbVisualStyle
  2
3D Hidden
 70
     6
 71
     1
 72
     2
 73
     2
 90
        0
 40
-0.6
 41
-30.0
 62
     5
 63
     7
 74
     2
 91
        2
 64
     7
 65
   257
 75
     2
175
     1
 42
40.0
 92
        0
 66
   257
 43
1.0
 76
     1
 77
     6
 78
     2
 67
     7
 79
     3
170
     0
171
     0
290
     0
174
     0
 93
        1
 44
0.0
173
     0
291
     0
 45
0.0
1001
ACAD
1000
AcDbSavedByObjectVersion
1070
     0
  0
VISUALSTYLE
  5
894
102
{ACAD_REACTORS
330
88D
102
}
330
88D
100
AcDbVisualStyle
  2
3dWireframe
 70
     5
 71
     0
 72
     2
 73
     0
 90
        0
 40
-0.6
 41
-30.0
 62
     5
 63
     7
 74
     1
 91
        4
 64
     7
 65
   257
 75
     1
175
     1
 42
1.0
 92
        0
 66
   257
 43
1.0
 76
     1
 77
     6
 78
     2
 67
     7
 79
     5
170
     0
171
     0
290
     0
174
     0
 93
        1
 44
0.0
173
     0
291
     0
 45
0.0
1001
ACAD
1000
AcDbSavedByObjectVersion
1070
     0
  0
VISUALSTYLE
  5
892
102
{ACAD_REACTORS
330
88D
102
}
330
88D
100
AcDbVisualStyle
  2
Basic
 70
     7
 71
     1
 72
     0
 73
     1
 90
        0
 40
-0.6
 41
-30.0
 62
     5
 63
     7
 74
     0
 91
        4
 64
     7
 65
   257
 75
     1
175
     1
 42
1.0
 92
        8
 66
     7
 43
1.0
 76
     1
 77
     6
 78
     2
 67
     7
 79
     5
170
     0
171
     0
290
     0
174
     0
 93
        1
 44
0.0
173
     0
291
     1
 45
0.0
1001
ACAD
1000
AcDbSavedByObjectVersion
1070
     0
  0
VISUALSTYLE
  5
899
102
{ACAD_REACTORS
330
88D
102
}
330
88D
100
AcDbVisualStyle
  2
Brighten
 70
    12
 71
     2
 72
     2
 73
     0
 90
        0
 40
-0.6
 41
-30.0
 62
     5
 63
     7
 74
     1
 91
        4
 64
     7
 65
   257
 75
     1
175
     1
 42
1.0
 92
        8
 66
     7
 43
1.0
 76
     1
 77
     6
 78
     2
 67
     7
 79
     5
170
     0
171
     0
290
     0
174
     0
 93
        1
 44
50.0
173
     0
291
     1
 45
0.0
1001
ACAD
1000
AcDbSavedByObjectVersion
1070
     0
  0
VISUALSTYLE
  5
89D
102
{ACAD_REACTORS
330
88D
102
}
330
88D
100
AcDbVisualStyle
  2
ColorChange
 70
    16
 71
     2
 72
     2
 73
     3
 90
        0
 40
-0.6
 41
-30.0
 62
     5
 63
     8
 74
     1
 91
        4
 64
     7
 65
   257
 75
     1
175
     1
 42
1.0
 92
        8
 66
     8
 43
1.0
 76
     1
 77
     6
 78
     2
 67
     7
 79
     5
170
     0
171
     0
290
     0
174
     0
 93
        1
 44
0.0
173
     0
291
     1
 45
0.0
1001
ACAD
1000
AcDbSavedByObjectVersion
1070
     0
  0
VISUALSTYLE
  5
896
102
{ACAD_REACTORS
330
88D
102
}
330
88D
100
AcDbVisualStyle
  2
Conceptual
 70
     9
 71
     3
 72
     2
 73
     0
 90
        0
 40
-0.6
 41
-30.0
 62
     5
 63
     7
 74
     2
 91
        2
 64
     7
 65
   257
 75
     1
175
     1
 42
40.0
 92
        8
 66
     7
 43
1.0
 76
     1
 77
     6
 78
     2
 67
     7
 79
     3
170
     0
171
     0
290
     0
174
     0
 93
        1
 44
0.0
173
     0
291
     0
 45
0.0
1001
ACAD
1000
AcDbSavedByObjectVersion
1070
     0
  0
VISUALSTYLE
  5
898
102
{ACAD_REACTORS
330
88D
102
}
330
88D
100
AcDbVisualStyle
  2
Dim
 70
    11
 71
     2
 72
     2
 73
     0
 90
        0
 40
-0.6
 41
-30.0
 62
     5
 63
     7
 74
     1
 91
        4
 64
     7
 65
   257
 75
     1
175
     1
 42
1.0
 92
        8
 66
     7
 43
1.0
 76
     1
 77
     6
 78
     2
 67
     7
 79
     5
170
     0
171
     0
290
     0
174
     0
 93
        1
 44
-50.0
173
     0
291
     1
 45
0.0
1001
ACAD
1000
AcDbSavedByObjectVersion
1070
     0
  0
VISUALSTYLE
  5
89C
102
{ACAD_REACTORS
330
88D
102
}
330
88D
100
AcDbVisualStyle
  2
Facepattern
 70
    15
 71
     2
 72
     2
 73
     0
 90
        0
 40
-0.6
 41
-30.0
 62
     5
 63
     7
 74
     1
 91
        4
 64
     7
 65
   257
 75
     1
175
     1
 42
1.0
 92
        8
 66
     7
 43
1.0
 76
     1
 77
     6
 78
     2
 67
     7
 79
     5
170
     0
171
     0
290
     0
174
     0
 93
        1
 44
0.0
173
     0
291
     1
 45
0.0
1001
ACAD
1000
AcDbSavedByObjectVersion
1070
     0
  0
VISUALSTYLE
  5
88E
102
{ACAD_REACTORS
330
88D
102
}
330
88D
100
AcDbVisualStyle
  2
Flat
 70
     0
 71
     2
 72
     1
 73
     1
 90
        2
 40
-0.6
 41
30.0
 62
     5
 63
     7
 74
     0
 91
        4
 64
     7
 65
   257
 75
     1
175
     1
 42
1.0
 92
        8
 66
     7
 43
1.0
 76
     1
 77
     6
 78
     2
 67
     7
 79
     5
170
     0
171
     0
290
     0
174
     0
 93
       13
 44
0.0
173
     0
291
     1
 45
0.0
1001
ACAD
1000
AcDbSavedByObjectVersion
1070
     0
  0
VISUALSTYLE
  5
88F
102
{ACAD_REACTORS
330
88D
102
}
330
88D
100
AcDbVisualStyle
  2
FlatWithEdges
 70
     1
 71
     2
 72
     1
 73
     1
 90
        2
 40
-0.6
 41
30.0
 62
     5
 63
     7
 74
     1
 91
        4
 64
     7
 65
   257
 75
     1
175
     1
 42
1.0
 92
        0
 66
   257
 43
1.0
 76
     1
 77
     6
 78
     2
 67
     7
 79
     5
170
     0
171
     0
290
     0
174
     0
 93
       13
 44
0.0
173
     0
291
     1
 45
0.0
1001
ACAD
1000
AcDbSavedByObjectVersion
1070
     0
  0
VISUALSTYLE
  5
890
102
{ACAD_REACTORS
330
88D
102
}
330
88D
100
AcDbVisualStyle
  2
Gouraud
 70
     2
 71
     2
 72
     2
 73
     1
 90
        2
 40
-0.6
 41
30.0
 62
     5
 63
     7
 74
     0
 91
        4
 64
     7
 65
   257
 75
     1
175
     1
 42
1.0
 92
        0
 66
     7
 43
1.0
 76
     1
 77
     6
 78
     2
 67
     7
 79
     5
170
     0
171
     0
290
     0
174
     0
 93
       13
 44
0.0
173
     0
291
     1
 45
0.0
1001
ACAD
1000
AcDbSavedByObjectVersion
1070
     0
  0
VISUALSTYLE
  5
891
102
{ACAD_REACTORS
330
88D
102
}
330
88D
100
AcDbVisualStyle
  2
GouraudWithEdges
 70
     3
 71
     2
 72
     2
 73
     1
 90
        2
 40
-0.6
 41
30.0
 62
     5
 63
     7
 74
     1
 91
        4
 64
     7
 65
   257
 75
     1
175
     1
 42
1.0
 92
        0
 66
   257
 43
1.0
 76
     1
 77
     6
 78
     2
 67
     7
 79
     5
170
     0
171
     0
290
     0
174
     0
 93
       13
 44
0.0
173
     0
291
     1
 45
0.0
1001
ACAD
1000
AcDbSavedByObjectVersion
1070
     0
  0
VISUALSTYLE
  5
89B
102
{ACAD_REACTORS
330
88D
102
}
330
88D
100
AcDbVisualStyle
  2
Linepattern
 70
    14
 71
     2
 72
     2
 73
     0
 90
        0
 40
-0.6
 41
-30.0
 62
     5
 63
     7
 74
     1
 91
        4
 64
     7
 65
   257
 75
     7
175
     7
 42
1.0
 92
        8
 66
     7
 43
1.0
 76
     1
 77
     6
 78
     2
 67
     7
 79
     5
170
     0
171
     0
290
     0
174
     0
 93
        1
 44
0.0
173
     0
291
     1
 45
0.0
1001
ACAD
1000
AcDbSavedByObjectVersion
1070
     0
  0
VISUALSTYLE
  5
897
102
{ACAD_REACTORS
330
88D
102
}
330
88D
100
AcDbVisualStyle
  2
Realistic
 70
     8
 71
     2
 72
     2
 73
     0
 90
        0
 40
-0.6
 41
-30.0
 62
     5
 63
     7
 74
     1
 91
        0
 64
     7
 65
   257
 75
     1
175
     1
 42
1.0
 92
        8
 66
     8
 43
1.0
 76
     1
 77
     6
 78
     2
 67
     7
 79
     5
170
     0
171
     0
290
     0
174
     0
 93
       13
 44
0.0
173
     0
291
     0
 45
0.0
1001
ACAD
1000
AcDbSavedByObjectVersion
1070
     0
  0
VISUALSTYLE
  5
89A
102
{ACAD_REACTORS
330
88D
102
}
330
88D
100
AcDbVisualStyle
  2
Thicken
 70
    13
 71
     2
 72
     2
 73
     0
 90
        0
 40
-0.6
 41
-30.0
 62
     5
 63
     7
 74
     1
 91
        4
 64
     7
 65
   257
 75
     1
175
     1
 42
1.0
 92
       12
 66
     7
 43
1.0
 76
     1
 77
     6
 78
     2
 67
     7
 79
     5
170
     0
171
     0
290
     0
174
     0
 93
        1
 44
0.0
173
     0
291
     1
 45
0.0
1001
ACAD
1000
AcDbSavedByObjectVersion
1070
     0
  0
DICTIONARYVAR
  5
92C
102
{ACAD_REACTORS
330
306
102
}
330
306
100
DictionaryVariables
280
     0
  1
1:1
  0
DICTIONARYVAR
  5
92A
102
{ACAD_REACTORS
330
306
102
}
330
306
100
DictionaryVariables
280
     0
  1
STANDARD
  0
DICTIONARYVAR
  5
48D
102
{ACAD_REACTORS
330
306
102
}
330
306
100
DictionaryVariables
280
     0
  1
STANDARD
  0
DICTIONARYVAR
  5
3B4
102
{ACAD_REACTORS
330
306
102
}
330
306
100
DictionaryVariables
280
     0
  1
1
  0
DICTIONARYVAR
  5
307
102
{ACAD_REACTORS
330
306
102
}
330
306
100
DictionaryVariables
280
     0
  1
0
  0
DICTIONARYVAR
  5
92D
102
{ACAD_REACTORS
330
306
102
}
330
306
100
DictionaryVariables
280
     0
  1
0
  0
DICTIONARYVAR
  5
92B
102
{ACAD_REACTORS
330
306
102
}
330
306
100
DictionaryVariables
280
     0
  1
0
  0
DICTIONARYVAR
  5
9CD
102
{ACAD_REACTORS
330
306
102
}
330
306
100
DictionaryVariables
280
     0
  1
127
  0
DICTIONARY
  5
2E5
102
{ACAD_REACTORS
330
2E4
102
}
330
2E4
100
AcDbDictionary
281
     1
  0
XRECORD
  5
411
102
{ACAD_REACTORS
330
2E4
102
}
330
2E4
100
AcDbXrecord
280
     1
 90
-1023410169
  0
XRECORD
  5
926
102
{ACAD_REACTORS
330
924
102
}
330
924
100
AcDbXrecord
280
     1
  0
DICTIONARY
  5
9D2
330
33E
100
AcDbDictionary
280
     1
281
     1
  3
ACAD_XREC_ROUNDTRIP
360
9D3
  0
DICTIONARY
  5
9D0
330
33D
100
AcDbDictionary
280
     1
281
     1
  3
ACAD_XREC_ROUNDTRIP
360
9D1
  0
DICTIONARY
  5
9DB
330
88B
100
AcDbDictionary
280
     1
281
     1
  3
ACAD_XREC_ROUNDTRIP
360
9DC
  0
DICTIONARY
  5
9D9
330
88A
100
AcDbDictionary
280
     1
281
     1
  3
ACAD_XREC_ROUNDTRIP
360
9DA
  0
DICTIONARY
  5
9DD
330
88C
100
AcDbDictionary
280
     1
281
     1
  3
ACAD_XREC_ROUNDTRIP
360
9DE
  0
DICTIONARY
  5
927
330
3BA
100
AcDbDictionary
280
     1
281
     1
  3
ACAD_ROUNDTRIP_2008_TABLESTYLE_CELLSTYLEMAP
360
9CE
  3
ACAD_XREC_ROUNDTRIP
360
9D4
  0
XRECORD
  5
9D3
102
{ACAD_REACTORS
330
9D2
102
}
330
9D2
100
AcDbXrecord
280
     1
102
SHADEPLOT
 70
     0
102
SHADEPLOTRESLEVEL
 70
     2
102
SHADEPLOTCUSTOMDPI
 70
   300
  0
XRECORD
  5
9D1
102
{ACAD_REACTORS
330
9D0
102
}
330
9D0
100
AcDbXrecord
280
     1
102
SHADEPLOT
 70
     0
102
SHADEPLOTRESLEVEL
 70
     2
102
SHADEPLOTCUSTOMDPI
 70
   300
  0
XRECORD
  5
9DC
102
{ACAD_REACTORS
330
9DB
102
}
330
9DB
100
AcDbXrecord
280
     1
102
MATERIAL
148
0.0
149
0.0
149
0.0
 93
        0
 94
       63
282
     0
 72
     1
 77
     1
171
     1
175
     1
179
     1
273
     0
  0
XRECORD
  5
9DA
102
{ACAD_REACTORS
330
9D9
102
}
330
9D9
100
AcDbXrecord
280
     1
102
MATERIAL
148
0.0
149
0.0
149
0.0
 93
        0
 94
       63
282
     0
 72
     1
 77
     1
171
     1
175
     1
179
     1
273
     0
  0
XRECORD
  5
9DE
102
{ACAD_REACTORS
330
9DD
102
}
330
9DD
100
AcDbXrecord
280
     1
102
MATERIAL
148
0.0
149
0.0
149
0.0
 93
        0
 94
       63
282
     0
 72
     1
 77
     1
171
     1
175
     1
179
     1
273
     0
  0
CELLSTYLEMAP
  5
9CE
102
{ACAD_REACTORS
330
927
102
}
330
927
100
AcDbCellStyleMap
 90
        3
300
CELLSTYLE
  1
TABLEFORMAT_BEGIN
 90
        5
170
     1
 91
        0
 92
    32768
 62
   257
 93
        1
300
CONTENTFORMAT
  1
CONTENTFORMAT_BEGIN
 90
        0
 91
        0
 92
        4
 93
        0
300

 40
0.0
140
1.0
 94
        5
 62
     0
340
D
144
0.25
309
CONTENTFORMAT_END
171
     0
 94
        6
 95
        1
302
GRIDFORMAT
  1
GRIDFORMAT_BEGIN
 90
        0
 91
        1
 62
     0
 92
       -2
340
0
 93
        0
 40
0.045
309
GRIDFORMAT_END
 95
        2
302
GRIDFORMAT
  1
GRIDFORMAT_BEGIN
 90
        0
 91
        1
 62
     0
 92
       -2
340
0
 93
        0
 40
0.045
309
GRIDFORMAT_END
 95
        4
302
GRIDFORMAT
  1
GRIDFORMAT_BEGIN
 90
        0
 91
        1
 62
     0
 92
       -2
340
0
 93
        0
 40
0.045
309
GRIDFORMAT_END
 95
        8
302
GRIDFORMAT
  1
GRIDFORMAT_BEGIN
 90
        0
 91
        1
 62
     0
 92
       -2
340
0
 93
        0
 40
0.045
309
GRIDFORMAT_END
 95
       16
302
GRIDFORMAT
  1
GRIDFORMAT_BEGIN
 90
        0
 91
        1
 62
     0
 92
       -2
340
0
 93
        0
 40
0.045
309
GRIDFORMAT_END
 95
       32
302
GRIDFORMAT
  1
GRIDFORMAT_BEGIN
 90
        0
 91
        1
 62
     0
 92
       -2
340
0
 93
        0
 40
0.045
309
GRIDFORMAT_END
309
TABLEFORMAT_END
  1
CELLSTYLE_BEGIN
 90
        1
 91
        1
300
_TITLE
309
CELLSTYLE_END
300
CELLSTYLE
  1
TABLEFORMAT_BEGIN
 90
        5
170
     1
 91
        0
 92
        0
 62
   257
 93
        1
300
CONTENTFORMAT
  1
CONTENTFORMAT_BEGIN
 90
        0
 91
        0
 92
        4
 93
        0
300

 40
0.0
140
1.0
 94
        5
 62
     0
340
D
144
0.18
309
CONTENTFORMAT_END
171
     0
 94
        6
 95
        1
302
GRIDFORMAT
  1
GRIDFORMAT_BEGIN
 90
        0
 91
        1
 62
     0
 92
       -2
340
0
 93
        0
 40
0.045
309
GRIDFORMAT_END
 95
        2
302
GRIDFORMAT
  1
GRIDFORMAT_BEGIN
 90
        0
 91
        1
 62
     0
 92
       -2
340
0
 93
        0
 40
0.045
309
GRIDFORMAT_END
 95
        4
302
GRIDFORMAT
  1
GRIDFORMAT_BEGIN
 90
        0
 91
        1
 62
     0
 92
       -2
340
0
 93
        0
 40
0.045
309
GRIDFORMAT_END
 95
        8
302
GRIDFORMAT
  1
GRIDFORMAT_BEGIN
 90
        0
 91
        1
 62
     0
 92
       -2
340
0
 93
        0
 40
0.045
309
GRIDFORMAT_END
 95
       16
302
GRIDFORMAT
  1
GRIDFORMAT_BEGIN
 90
        0
 91
        1
 62
     0
 92
       -2
340
0
 93
        0
 40
0.045
309
GRIDFORMAT_END
 95
       32
302
GRIDFORMAT
  1
GRIDFORMAT_BEGIN
 90
        0
 91
        1
 62
     0
 92
       -2
340
0
 93
        0
 40
0.045
309
GRIDFORMAT_END
309
TABLEFORMAT_END
  1
CELLSTYLE_BEGIN
 90
        2
 91
        1
300
_HEADER
309
CELLSTYLE_END
300
CELLSTYLE
  1
TABLEFORMAT_BEGIN
 90
        5
170
     1
 91
        0
 92
        0
 62
   257
 93
        1
300
CONTENTFORMAT
  1
CONTENTFORMAT_BEGIN
 90
        0
 91
        0
 92
        4
 93
        0
300

 40
0.0
140
1.0
 94
        2
 62
     0
340
D
144
0.18
309
CONTENTFORMAT_END
171
     0
 94
        6
 95
        1
302
GRIDFORMAT
  1
GRIDFORMAT_BEGIN
 90
        0
 91
        1
 62
     0
 92
       -2
340
0
 93
        0
 40
0.045
309
GRIDFORMAT_END
 95
        2
302
GRIDFORMAT
  1
GRIDFORMAT_BEGIN
 90
        0
 91
        1
 62
     0
 92
       -2
340
0
 93
        0
 40
0.045
309
GRIDFORMAT_END
 95
        4
302
GRIDFORMAT
  1
GRIDFORMAT_BEGIN
 90
        0
 91
        1
 62
     0
 92
       -2
340
0
 93
        0
 40
0.045
309
GRIDFORMAT_END
 95
        8
302
GRIDFORMAT
  1
GRIDFORMAT_BEGIN
 90
        0
 91
        1
 62
     0
 92
       -2
340
0
 93
        0
 40
0.045
309
GRIDFORMAT_END
 95
       16
302
GRIDFORMAT
  1
GRIDFORMAT_BEGIN
 90
        0
 91
        1
 62
     0
 92
       -2
340
0
 93
        0
 40
0.045
309
GRIDFORMAT_END
 95
       32
302
GRIDFORMAT
  1
GRIDFORMAT_BEGIN
 90
        0
 91
        1
 62
     0
 92
       -2
340
0
 93
        0
 40
0.045
309
GRIDFORMAT_END
309
TABLEFORMAT_END
  1
CELLSTYLE_BEGIN
 90
        3
 91
        2
300
_DATA
309
CELLSTYLE_END
  0
XRECORD
  5
9D4
102
{ACAD_REACTORS
330
927
102
}
330
927
100
AcDbXrecord
280
     1
102
ACAD_ROUNDTRIP_PRE2007_TABLESTYLE
 90
        4
 91
        0
  1

 92
        4
 93
        0
  2

 94
        4
 95
        0
  3

  0
ENDSEC
  0
EOF
