  0
SECTION
  2
HEADER
  9
$ACADVER
  1
AC1018
  9
$ACADMAINTVER
 70
   104
  9
$DWGCODEPAGE
  3
ANSI_1252
  9
$LASTSAVEDBY
  1
basyouni
  9
$INSBASE
 10
0.0
 20
0.0
 30
0.0
  9
$EXTMIN
 10
34.66186806869473
 20
24.06921517577621
 30
-0.0000000349181948
  9
$EXTMAX
 10
1156.732180477972
 20
519.4267285398985
 30
0.0000000814935746
  9
$LIMMIN
 10
0.0
 20
0.0
  9
$LIMMAX
 10
1200.0
 20
550.0
  9
$ORTHOMODE
 70
     1
  9
$REGENMODE
 70
     1
  9
$FILLMODE
 70
     1
  9
$QTEXTMODE
 70
     0
  9
$MIRRTEXT
 70
     1
  9
$LTSCALE
 40
1.0
  9
$ATTMODE
 70
     1
  9
$TEXTSIZE
 40
10.0
  9
$TRACEWID
 40
1.0
  9
$TEXTSTYLE
  7
STANDARD
  9
$CLAYER
  8
0
  9
$CELTYPE
  6
BYLAYER
  9
$CECOLOR
 62
   256
  9
$CELTSCALE
 40
10.0
  9
$DISPSILH
 70
     0
  9
$DIMSCALE
 40
1.0
  9
$DIMASZ
 40
7.0
  9
$DIMEXO
 40
0.0
  9
$DIMDLI
 40
7.0
  9
$DIMRND
 40
0.0
  9
$DIMDLE
 40
0.0
  9
$DIMEXE
 40
1.25
  9
$DIMTP
 40
0.0
  9
$DIMTM
 40
0.0
  9
$DIMTXT
 40
10.0
  9
$DIMCEN
 40
0.0
  9
$DIMTSZ
 40
0.0
  9
$DIMTOL
 70
     0
  9
$DIMLIM
 70
     0
  9
$DIMTIH
 70
     0
  9
$DIMTOH
 70
     0
  9
$DIMSE1
 70
     0
  9
$DIMSE2
 70
     0
  9
$DIMTAD
 70
     1
  9
$DIMZIN
 70
     8
  9
$DIMBLK
  1

  9
$DIMASO
 70
     1
  9
$DIMSHO
 70
     1
  9
$DIMPOST
  1

  9
$DIMAPOST
  1

  9
$DIMALT
 70
     0
  9
$DIMALTD
 70
     2
  9
$DIMALTF
 40
25.4
  9
$DIMLFAC
 40
1.0
  9
$DIMTOFL
 70
     1
  9
$DIMTVP
 40
0.0
  9
$DIMTIX
 70
     0
  9
$DIMSOXD
 70
     0
  9
$DIMSAH
 70
     0
  9
$DIMBLK1
  1

  9
$DIMBLK2
  1

  9
$DIMSTYLE
  2
ISO-25
  9
$DIMCLRD
 70
   256
  9
$DIMCLRE
 70
   256
  9
$DIMCLRT
 70
   256
  9
$DIMTFAC
 40
1.0
  9
$DIMGAP
 40
4.0
  9
$DIMJUST
 70
     0
  9
$DIMSD1
 70
     0
  9
$DIMSD2
 70
     0
  9
$DIMTOLJ
 70
     1
  9
$DIMTZIN
 70
     8
  9
$DIMALTZ
 70
     0
  9
$DIMALTTZ
 70
     0
  9
$DIMUPT
 70
     1
  9
$DIMDEC
 70
     4
  9
$DIMTDEC
 70
     4
  9
$DIMALTU
 70
     2
  9
$DIMALTTD
 70
     2
  9
$DIMTXSTY
  7
STANDARD
  9
$DIMAUNIT
 70
     0
  9
$DIMADEC
 70
     0
  9
$DIMALTRND
 40
0.0
  9
$DIMAZIN
 70
     0
  9
$DIMDSEP
 70
    46
  9
$DIMATFIT
 70
     0
  9
$DIMFRAC
 70
     0
  9
$DIMLDRBLK
  1

  9
$DIMLUNIT
 70
     2
  9
$DIMLWD
 70
    -2
  9
$DIMLWE
 70
    -2
  9
$DIMTMOVE
 70
     0
  9
$LUNITS
 70
     2
  9
$LUPREC
 70
     4
  9
$SKETCHINC
 40
1.0
  9
$FILLETRAD
 40
2.5
  9
$AUNITS
 70
     0
  9
$AUPREC
 70
     0
  9
$MENU
  1
.
  9
$ELEVATION
 40
0.0
  9
$PELEVATION
 40
0.0
  9
$THICKNESS
 40
0.0
  9
$LIMCHECK
 70
     0
  9
$CHAMFERA
 40
2.0
  9
$CHAMFERB
 40
2.0
  9
$CHAMFERC
 40
0.0
  9
$CHAMFERD
 40
0.0
  9
$SKPOLY
 70
     0
  9
$TDCREATE
 40
2450848.753473218
  9
$TDUCREATE
 40
2450848.670139884
  9
$TDUPDATE
 40
2454750.612444526
  9
$TDUUPDATE
 40
2454750.529111192
  9
$TDINDWG
 40
2.0665049653
  9
$TDUSRTIMER
 40
2.0665049653
  9
$USRTIMER
 70
     1
  9
$ANGBASE
 50
0.0
  9
$ANGDIR
 70
     0
  9
$PDMODE
 70
     0
  9
$PDSIZE
 40
0.0
  9
$PLINEWID
 40
0.5
  9
$SPLFRAME
 70
     0
  9
$SPLINETYPE
 70
     6
  9
$SPLINESEGS
 70
     8
  9
$HANDSEED
  5
85F
  9
$SURFTAB1
 70
     6
  9
$SURFTAB2
 70
     6
  9
$SURFTYPE
 70
     6
  9
$SURFU
 70
     6
  9
$SURFV
 70
     6
  9
$UCSBASE
  2

  9
$UCSNAME
  2

  9
$UCSORG
 10
0.0
 20
0.0
 30
0.0
  9
$UCSXDIR
 10
1.0
 20
0.0
 30
0.0
  9
$UCSYDIR
 10
0.0
 20
1.0
 30
0.0
  9
$UCSORTHOREF
  2

  9
$UCSORTHOVIEW
 70
     0
  9
$UCSORGTOP
 10
0.0
 20
0.0
 30
0.0
  9
$UCSORGBOTTOM
 10
0.0
 20
0.0
 30
0.0
  9
$UCSORGLEFT
 10
0.0
 20
0.0
 30
0.0
  9
$UCSORGRIGHT
 10
0.0
 20
0.0
 30
0.0
  9
$UCSORGFRONT
 10
0.0
 20
0.0
 30
0.0
  9
$UCSORGBACK
 10
0.0
 20
0.0
 30
0.0
  9
$PUCSBASE
  2

  9
$PUCSNAME
  2

  9
$PUCSORG
 10
0.0
 20
0.0
 30
0.0
  9
$PUCSXDIR
 10
1.0
 20
0.0
 30
0.0
  9
$PUCSYDIR
 10
0.0
 20
1.0
 30
0.0
  9
$PUCSORTHOREF
  2

  9
$PUCSORTHOVIEW
 70
     0
  9
$PUCSORGTOP
 10
0.0
 20
0.0
 30
0.0
  9
$PUCSORGBOTTOM
 10
0.0
 20
0.0
 30
0.0
  9
$PUCSORGLEFT
 10
0.0
 20
0.0
 30
0.0
  9
$PUCSORGRIGHT
 10
0.0
 20
0.0
 30
0.0
  9
$PUCSORGFRONT
 10
0.0
 20
0.0
 30
0.0
  9
$PUCSORGBACK
 10
0.0
 20
0.0
 30
0.0
  9
$USERI1
 70
     0
  9
$USERI2
 70
     0
  9
$USERI3
 70
     0
  9
$USERI4
 70
     0
  9
$USERI5
 70
     0
  9
$USERR1
 40
0.0
  9
$USERR2
 40
0.0
  9
$USERR3
 40
0.0
  9
$USERR4
 40
0.0
  9
$USERR5
 40
0.0
  9
$WORLDVIEW
 70
     1
  9
$SHADEDGE
 70
     3
  9
$SHADEDIF
 70
    70
  9
$TILEMODE
 70
     1
  9
$MAXACTVP
 70
    16
  9
$PINSBASE
 10
0.0
 20
0.0
 30
0.0
  9
$PLIMCHECK
 70
     0
  9
$PEXTMIN
 10
1.000000000000000E+20
 20
1.000000000000000E+20
 30
1.000000000000000E+20
  9
$PEXTMAX
 10
-1.000000000000000E+20
 20
-1.000000000000000E+20
 30
-1.000000000000000E+20
  9
$PLIMMIN
 10
0.0
 20
0.0
  9
$PLIMMAX
 10
420.0
 20
297.0
  9
$UNITMODE
 70
     0
  9
$VISRETAIN
 70
     0
  9
$PLINEGEN
 70
     0
  9
$PSLTSCALE
 70
     0
  9
$TREEDEPTH
 70
  3020
  9
$CMLSTYLE
  2
STANDARD
  9
$CMLJUST
 70
     0
  9
$CMLSCALE
 40
1.0
  9
$PROXYGRAPHICS
 70
     1
  9
$MEASUREMENT
 70
     0
  9
$CELWEIGHT
370
    -1
  9
$ENDCAPS
280
     0
  9
$JOINSTYLE
280
     0
  9
$LWDISPLAY
290
     0
  9
$INSUNITS
 70
     0
  9
$HYPERLINKBASE
  1

  9
$STYLESHEET
  1
Zeich.ctb
  9
$XEDIT
290
     1
  9
$CEPSNTYPE
380
     0
  9
$PSTYLEMODE
290
     1
  9
$FINGERPRINTGUID
  2
{EC126D18-3037-4982-8FFF-C9F913339987}
  9
$VERSIONGUID
  2
{C8BE23BD-3389-4F4D-BEBB-8ACA690F0D42}
  9
$EXTNAMES
290
     1
  9
$PSVPSCALE
 40
0.0
  9
$OLESTARTUP
290
     0
  9
$SORTENTS
280
   127
  9
$INDEXCTL
280
     0
  9
$HIDETEXT
280
     0
  9
$XCLIPFRAME
290
     0
  9
$HALOGAP
280
     0
  9
$OBSCOLOR
 70
   257
  9
$OBSLTYPE
280
     0
  9
$INTERSECTIONDISPLAY
280
     0
  9
$INTERSECTIONCOLOR
 70
   257
  9
$DIMASSOC
280
     1
  9
$PROJECTNAME
  1

  0
ENDSEC
  0
SECTION
  2
CLASSES
  0
CLASS
  1
IDBUFFER
  2
AcDbIdBuffer
  3
ObjectDBX Classes
 90
        0
 91
        0
280
     0
281
     0
  0
CLASS
  1
DICTIONARYVAR
  2
AcDbDictionaryVar
  3
ObjectDBX Classes
 90
        0
 91
        2
280
     0
281
     0
  0
CLASS
  1
ACMESTATEMGR
  2
AcMeStateMgr
  3
AcMeServices
 90
        0
 91
        1
280
     0
281
     0
  0
CLASS
  1
ACMESCOPE
  2
AcMeScope
  3
AcMeServices
 90
        0
 91
        1
280
     0
281
     0
  0
CLASS
  1
ACMECOMMANDHISTORY
  2
AcMeCommandHistory
  3
AcMeServices
 90
        0
 91
        1
280
     0
281
     0
  0
CLASS
  1
ACRFINSADJUSTERMGR
  2
AcRfInsAdjusterMgr
  3
AcMeServices
 90
        0
 91
        1
280
     0
281
     0
  0
CLASS
  1
ACMEDRAWINGMAN
  2
AcMeDrawingMan
  3
AcMeServices
 90
        0
 91
        1
280
     0
281
     0
  0
CLASS
  1
AMATTR
  2
AcMeAttribute
  3
AcMeServices
 90
        0
 91
        0
280
     0
281
     0
  0
CLASS
  1
ACMEBOMCOLUMN
  2
AcMeBOMColumn
  3
AcMeServices
 90
        0
 91
        0
280
     0
281
     0
  0
CLASS
  1
ACMEBOMCONF
  2
AcMeBOMConf
  3
AcMeServices
 90
        0
 91
        0
280
     0
281
     0
  0
CLASS
  1
ACMEBOMTABLE
  2
AcMeBOMTable
  3
AcMeServices
 90
        0
 91
        0
280
     0
281
     0
  0
CLASS
  1
ACMEBOMENTRY
  2
AcMeBOMEntry
  3
AcMeServices
 90
        0
 91
        0
280
     0
281
     0
  0
CLASS
  1
ACMEVIEW
  2
AcMeView
  3
AcMeServices
 90
        0
 91
        0
280
     0
281
     0
  0
CLASS
  1
LAYER_INDEX
  2
AcDbLayerIndex
  3
ObjectDBX Classes
 90
        0
 91
        0
280
     0
281
     0
  0
CLASS
  1
ACIMSYSVARMAN
  2
AcImSysVarManager
  3
AcMeServices
 90
        0
 91
        5
280
     0
281
     0
  0
CLASS
  1
ACIMINTSYSVAR
  2
AcImIntSysVar
  3
AcMeServices
 90
        0
 91
       27
280
     0
281
     0
  0
CLASS
  1
ACIMSTRSYSVAR
  2
AcImStrSysVar
  3
AcMeServices
 90
        0
 91
        5
280
     0
281
     0
  0
CLASS
  1
ACMSTANDARDJIS
  2
AcmStandardJIS
  3
"Amdt_StdImp|Product Description: AutoCAD Mechanical|Company: Autodesk"
 90
        0
 91
        1
280
     0
281
     0
  0
CLASS
  1
ACMSTANDARDANSI
  2
AcmStandardANSI
  3
"Amdt_StdImp|Product Description: AutoCAD Mechanical|Company: Autodesk"
 90
        0
 91
        1
280
     0
281
     0
  0
CLASS
  1
ACMSTANDARDBSI
  2
AcmStandardBSI
  3
"Amdt_StdImp|Product Description: AutoCAD Mechanical|Company: Autodesk"
 90
        0
 91
        1
280
     0
281
     0
  0
CLASS
  1
ACMSTANDARDDIN
  2
AcmStandardDIN
  3
"Amdt_StdImp|Product Description: AutoCAD Mechanical|Company: Autodesk"
 90
        0
 91
        1
280
     0
281
     0
  0
CLASS
  1
ACMSTANDARDISO
  2
AcmStandardISO
  3
"Amdt_StdImp|Product Description: AutoCAD Mechanical|Company: Autodesk"
 90
        0
 91
        1
280
     0
281
     0
  0
CLASS
  1
ACDBDICTIONARYWDFLT
  2
AcDbDictionaryWithDefault
  3
ObjectDBX Classes
 90
        0
 91
        1
280
     0
281
     0
  0
CLASS
  1
TABLESTYLE
  2
AcDbTableStyle
  3
ObjectDBX Classes
 90
     4095
 91
        1
280
     0
281
     0
  0
CLASS
  1
ACME_DOCUMENT
  2
AcMeDbDoc
  3
AcMeServices
 90
        0
 91
        2
280
     0
281
     0
  0
CLASS
  1
AMGSETTINGSOBJ
  2
AmgSettingsObj
  3
"AcadM|Product Description: AutoCAD Mechanical|Company: Autodesk"
 90
        0
 91
        2
280
     0
281
     0
  0
CLASS
  1
ACDBENTITYCACHE
  2
AcMeEntityCache
  3
AcMeServices
 90
        0
 91
        1
280
     0
281
     0
  0
CLASS
  1
GSMANAGER
  2
AcMeGSManager
  3
AcMeServices
 90
        0
 91
        1
280
     0
281
     0
  0
CLASS
  1
AMDTINTERNALREACTOR
  2
AmdtInternalReactor
  3
AcMeServices
 90
        0
 91
        2
280
     0
281
     0
  0
CLASS
  1
ACGREFMASTER
  2
AcGrefMaster
  3
AcAttribServices
 90
        0
 91
        1
280
     0
281
     0
  0
CLASS
  1
AM_DRAWING_MGR
  2
AcDmDwgMgr
  3
AcMechDwgViewMgmt
 90
        0
 91
        1
280
     0
281
     0
  0
CLASS
  1
AM_DWG_DOCUMENT
  2
AcDmDwgDocument
  3
AcMechDwgViewMgmt
 90
        0
 91
        1
280
     0
281
     0
  0
CLASS
  1
AM_DWG_SHEET
  2
AcDmSheet
  3
AcMechDwgViewMgmt
 90
        0
 91
        1
280
     0
281
     0
  0
CLASS
  1
AM_VIEWDIMPARMAP
  2
AcDmViewDimParMap
  3
AcMechDwgViewMgmt
 90
        0
 91
        1
280
     0
281
     0
  0
CLASS
  1
ACIMREALSYSVAR
  2
AcImRealSysVar
  3
AcMeServices
 90
        0
 91
        1
280
     0
281
     0
  0
CLASS
  1
AM_DWGMGR_NAME
  2
AcDmDwgMgrName
  3
AcMechDwgViewMgmt
 90
        0
 91
        1
280
     0
281
     0
  0
CLASS
  1
ACME_DATABASE
  2
AcMeDbDatabase
  3
AcMeServices
 90
        0
 91
        1
280
     0
281
     0
  0
CLASS
  1
ACGREFACADMASTER
  2
AcGrefacadMaster
  3
AcGrefServices
 90
        0
 91
        1
280
     0
281
     0
  0
CLASS
  1
AMDTMENUSTATEMGR
  2
AmdtMenuStateMgr
  3
McadcomServices
 90
        0
 91
        1
280
     0
281
     0
  0
CLASS
  1
AMDTMCOMMENUSTATE
  2
AmdtMcomMenuState
  3
McadcomServices
 90
        0
 91
        1
280
     0
281
     0
  0
CLASS
  1
AMIMASTER
  2
AmiMaster
  3
AmiServices
 90
        0
 91
        1
280
     0
281
     0
  0
CLASS
  1
MAPIAMMOUDLE
  2
MApiAmModule
  3
MApiAmServices
 90
        0
 91
        1
280
     0
281
     0
  0
CLASS
  1
AMDTADMENUSTATE
  2
AmdtAdMenuState
  3
DesignerServices
 90
        0
 91
        1
280
     0
281
     0
  0
CLASS
  1
ADAPPL
  2
AcAdAppl
  3
DesignerServices
 90
        0
 91
        1
280
     0
281
     0
  0
CLASS
  1
DEPMGR
  2
AcAdDepMgr
  3
DesignerServices
 90
        0
 91
        1
280
     0
281
     0
  0
CLASS
  1
PARAMMGR
  2
AcAdParamMgr
  3
DesignerServices
 90
        0
 91
        1
280
     0
281
     0
  0
CLASS
  1
PARAMSCOPE
  2
AcAdParamScope
  3
DesignerServices
 90
        0
 91
        1
280
     0
281
     0
  0
CLASS
  1
NAMEDAPPL
  2
AcAdNamedAppl
  3
DesignerServices
 90
        0
 91
        1
280
     0
281
     0
  0
CLASS
  1
AMDTDMMENUSTATE
  2
AmdtDmMenuState
  3
AcMechDwgViewMgmt
 90
        0
 91
        1
280
     0
281
     0
  0
CLASS
  1
AMDTAMMENUSTATE
  2
AmdtAmMenuState
  3
DesignerAssemblies
 90
        0
 91
        1
280
     0
281
     0
  0
CLASS
  1
ACAMPROJECT
  2
AcAmProject
  3
DesignerAssemblies
 90
        0
 91
        1
280
     0
281
     0
  0
CLASS
  1
ACAMGRCOMPDEF
  2
AcAmGrCompDef
  3
DesignerAssemblies
 90
        0
 91
        1
280
     0
281
     0
  0
CLASS
  1
ACCMCONTEXT
  2
AcCmContext
  3
DesignerAssemblies
 90
        0
 91
        1
280
     0
281
     0
  0
CLASS
  1
ACAMCOMPDEF
  2
AcAmCompDef
  3
DesignerAssemblies
 90
        0
 91
        1
280
     0
281
     0
  0
CLASS
  1
ACAMCOMPDEFMGR
  2
AcAmCompDefMgr
  3
DesignerAssemblies
 90
        0
 91
        1
280
     0
281
     0
  0
CLASS
  1
AMCONTEXTMGR
  2
AcAmContextMgr
  3
DesignerAssemblies
 90
        0
 91
        1
280
     0
281
     0
  0
CLASS
  1
ACAMCONTEXTMODELER
  2
AcAmContextModeler
  3
DesignerAssemblies
 90
        0
 91
        1
280
     0
281
     0
  0
CLASS
  1
ACMDATADICTIONARY
  2
AcmDataDictionary
  3
"AcmSymBB|Product Description: AutoCAD Mechanical|Company: Autodesk"
 90
        0
 91
        1
280
     0
281
     0
  0
CLASS
  1
ACMSURFSTANDARDJIS
  2
AcmSurfTextStdJIS
  3
"Amdt_StdImp|Product Description: AutoCAD Mechanical|Company: Autodesk"
 90
        0
 91
        1
280
     0
281
     0
  0
CLASS
  1
ACMFCFSTANDARDJIS98
  2
AcmFCFStdJIS98
  3
"Amdt_StdImp|Product Description: AutoCAD Mechanical|Company: Autodesk"
 90
        0
 91
        1
280
     0
281
     0
  0
CLASS
  1
ACMWELDSTANDARDJIS
  2
AcmWeldingStdJIS
  3
"Amdt_StdImp|Product Description: AutoCAD Mechanical|Company: Autodesk"
 90
        0
 91
        1
280
     0
281
     0
  0
CLASS
  1
ACMIDSTANDARDJIS
  2
AcmIdStdJIS
  3
"Amdt_StdImp|Product Description: AutoCAD Mechanical|Company: Autodesk"
 90
        0
 91
        1
280
     0
281
     0
  0
CLASS
  1
ACMDATUMSTANDARDJIS
  2
AcmDatumStdJIS
  3
"Amdt_StdImp|Product Description: AutoCAD Mechanical|Company: Autodesk"
 90
        0
 91
        1
280
     0
281
     0
  0
CLASS
  1
ACMBOMSTANDARDJIS
  2
AcmBOMStdJIS
  3
"Amdt_StdImp|Product Description: AutoCAD Mechanical|Company: Autodesk"
 90
        0
 91
        1
280
     0
281
     0
  0
CLASS
  1
AMGOBJPROPCFG
  2
AmgObjPropCfg
  3
"AmgLay|Product Description: AutoCAD Mechanical|Company: Autodesk"
 90
        1
 91
        1
280
     0
281
     0
  0
CLASS
  1
ACMDETAILSTANDARDJIS
  2
AmdtDetailSymStdJIS
  3
"Amdt_StdImp|Product Description: AutoCAD Mechanical|Company: Autodesk"
 90
        0
 91
        1
280
     0
281
     0
  0
CLASS
  1
ACMSECTIONSTANDARDJIS
  2
AmdtSectionSymStdJIS
  3
"Amdt_StdImp|Product Description: AutoCAD Mechanical|Company: Autodesk"
 90
        0
 91
        1
280
     0
281
     0
  0
CLASS
  1
ACMCENTERLINESTANDARDJIS
  2
AmdtCenterLineStdJIS
  3
"Amdt_StdImp|Product Description: AutoCAD Mechanical|Company: Autodesk"
 90
        0
 91
        1
280
     0
281
     0
  0
CLASS
  1
ACMTHREADLINESTANDARDJIS
  2
AmdtThreadLineStdJIS
  3
"Amdt_StdImp|Product Description: AutoCAD Mechanical|Company: Autodesk"
 90
        0
 91
        1
280
     0
281
     0
  0
CLASS
  1
ACMNOTESTANDARDJIS
  2
AmdtNoteStdJIS
  3
"Amdt_StdImp|Product Description: AutoCAD Mechanical|Company: Autodesk"
 90
        0
 91
        1
280
     0
281
     0
  0
CLASS
  1
AMDTNOTETEMPLATEDB
  2
AmdtNoteTemplateDB
  3
AMDT_STDIMP_MODULE_NAME
 90
        0
 91
       25
280
     0
281
     0
  0
CLASS
  1
ACAMGTITLESTD
  2
AcAmgTitleStd
  3
"AmgTitle|Product Description: AutoCAD Mechanical|Company: Autodesk"
 90
        0
 91
        5
280
     0
281
     0
  0
CLASS
  1
ACMSURFSTANDARDANSI
  2
AcmSurfTextStdANSI
  3
"Amdt_StdImp|Product Description: AutoCAD Mechanical|Company: Autodesk"
 90
        0
 91
        1
280
     0
281
     0
  0
CLASS
  1
ACMFCFSTANDARDANSI
  2
AcmFCFStdANSI
  3
"Amdt_StdImp|Product Description: AutoCAD Mechanical|Company: Autodesk"
 90
        0
 91
        1
280
     0
281
     0
  0
CLASS
  1
ACMWELDSTANDARDANSI
  2
AcmWeldingStdANSI
  3
"Amdt_StdImp|Product Description: AutoCAD Mechanical|Company: Autodesk"
 90
        0
 91
        1
280
     0
281
     0
  0
CLASS
  1
ACMIDSTANDARDANSI
  2
AcmIdStdANSI
  3
"Amdt_StdImp|Product Description: AutoCAD Mechanical|Company: Autodesk"
 90
        0
 91
        1
280
     0
281
     0
  0
CLASS
  1
ACMDATUMSTANDARDANSI
  2
AcmDatumStdANSI
  3
"Amdt_StdImp|Product Description: AutoCAD Mechanical|Company: Autodesk"
 90
        0
 91
        1
280
     0
281
     0
  0
CLASS
  1
ACMBOMSTANDARDANSI
  2
AcmBOMStdANSI
  3
"Amdt_StdImp|Product Description: AutoCAD Mechanical|Company: Autodesk"
 90
        0
 91
        1
280
     0
281
     0
  0
CLASS
  1
ACMDETAILSTANDARDANSI
  2
AmdtDetailSymStdANSI
  3
"Amdt_StdImp|Product Description: AutoCAD Mechanical|Company: Autodesk"
 90
        0
 91
        1
280
     0
281
     0
  0
CLASS
  1
ACMSECTIONSTANDARDANSI
  2
AmdtSectionSymStdANSI
  3
"Amdt_StdImp|Product Description: AutoCAD Mechanical|Company: Autodesk"
 90
        0
 91
        1
280
     0
281
     0
  0
CLASS
  1
ACMCENTERLINESTANDARDANSI
  2
AmdtCenterLineStdANSI
  3
"Amdt_StdImp|Product Description: AutoCAD Mechanical|Company: Autodesk"
 90
        0
 91
        1
280
     0
281
     0
  0
CLASS
  1
ACMTHREADLINESTANDARDANSI
  2
AmdtThreadLineStdANSI
  3
"Amdt_StdImp|Product Description: AutoCAD Mechanical|Company: Autodesk"
 90
        0
 91
        1
280
     0
281
     0
  0
CLASS
  1
ACMNOTESTANDARDANSI
  2
AmdtNoteStdANSI
  3
"Amdt_StdImp|Product Description: AutoCAD Mechanical|Company: Autodesk"
 90
        0
 91
        1
280
     0
281
     0
  0
CLASS
  1
ACMSURFSTANDARDBSI
  2
AcmSurfTextStdBSI
  3
"Amdt_StdImp|Product Description: AutoCAD Mechanical|Company: Autodesk"
 90
        0
 91
        1
280
     0
281
     0
  0
CLASS
  1
ACMFCFSTANDARDBSI
  2
AcmFCFStdBSI
  3
"Amdt_StdImp|Product Description: AutoCAD Mechanical|Company: Autodesk"
 90
        0
 91
        1
280
     0
281
     0
  0
CLASS
  1
ACMWELDSTANDARDBSI
  2
AcmWeldingStdBSI
  3
"Amdt_StdImp|Product Description: AutoCAD Mechanical|Company: Autodesk"
 90
        0
 91
        1
280
     0
281
     0
  0
CLASS
  1
ACMIDSTANDARDBSI
  2
AcmIdStdBSI
  3
"Amdt_StdImp|Product Description: AutoCAD Mechanical|Company: Autodesk"
 90
        0
 91
        1
280
     0
281
     0
  0
CLASS
  1
ACMDATUMSTANDARDBSI
  2
AcmDatumStdBSI
  3
"Amdt_StdImp|Product Description: AutoCAD Mechanical|Company: Autodesk"
 90
        0
 91
        1
280
     0
281
     0
  0
CLASS
  1
ACMBOMSTANDARDBSI
  2
AcmBOMStdBSI
  3
"Amdt_StdImp|Product Description: AutoCAD Mechanical|Company: Autodesk"
 90
        0
 91
        1
280
     0
281
     0
  0
CLASS
  1
ACMDETAILSTANDARDBSI
  2
AmdtDetailSymStdBSI
  3
"Amdt_StdImp|Product Description: AutoCAD Mechanical|Company: Autodesk"
 90
        0
 91
        1
280
     0
281
     0
  0
CLASS
  1
ACMSECTIONSTANDARDBSI
  2
AmdtSectionSymStdBSI
  3
"Amdt_StdImp|Product Description: AutoCAD Mechanical|Company: Autodesk"
 90
        0
 91
        1
280
     0
281
     0
  0
CLASS
  1
ACMCENTERLINESTANDARDBSI
  2
AmdtCenterLineStdBSI
  3
"Amdt_StdImp|Product Description: AutoCAD Mechanical|Company: Autodesk"
 90
        0
 91
        1
280
     0
281
     0
  0
CLASS
  1
ACMTHREADLINESTANDARDBSI
  2
AmdtThreadLineStdBSI
  3
"Amdt_StdImp|Product Description: AutoCAD Mechanical|Company: Autodesk"
 90
        0
 91
        1
280
     0
281
     0
  0
CLASS
  1
ACMNOTESTANDARDBSI
  2
AmdtNoteStdBSI
  3
"Amdt_StdImp|Product Description: AutoCAD Mechanical|Company: Autodesk"
 90
        0
 91
        1
280
     0
281
     0
  0
CLASS
  1
AMDTEDGESTANDARDDIN13715
  2
AmdtEdgeStdDIN13715
  3
"Amdt_StdImp|Product Description: AutoCAD Mechanical|Company: Autodesk"
 90
        0
 91
        1
280
     0
281
     0
  0
CLASS
  1
ACMSURFSTANDARDDIN
  2
AcmSurfTextStdDIN
  3
"Amdt_StdImp|Product Description: AutoCAD Mechanical|Company: Autodesk"
 90
        0
 91
        1
280
     0
281
     0
  0
CLASS
  1
ACMFCFSTANDARDDIN
  2
AcmFCFStdDIN
  3
"Amdt_StdImp|Product Description: AutoCAD Mechanical|Company: Autodesk"
 90
        0
 91
        1
280
     0
281
     0
  0
CLASS
  1
ACMWELDSTANDARDDIN
  2
AcmWeldingStdDIN
  3
"Amdt_StdImp|Product Description: AutoCAD Mechanical|Company: Autodesk"
 90
        0
 91
        1
280
     0
281
     0
  0
CLASS
  1
ACMIDSTANDARDDIN
  2
AcmIdStdDIN
  3
"Amdt_StdImp|Product Description: AutoCAD Mechanical|Company: Autodesk"
 90
        0
 91
        1
280
     0
281
     0
  0
CLASS
  1
ACMDATUMSTANDARDDIN
  2
AcmDatumStdDIN
  3
"Amdt_StdImp|Product Description: AutoCAD Mechanical|Company: Autodesk"
 90
        0
 91
        1
280
     0
281
     0
  0
CLASS
  1
ACMBOMSTANDARDDIN
  2
AcmBOMStdDIN
  3
"Amdt_StdImp|Product Description: AutoCAD Mechanical|Company: Autodesk"
 90
        0
 91
        1
280
     0
281
     0
  0
CLASS
  1
ACMDETAILSTANDARDDIN
  2
AmdtDetailSymStdDIN
  3
"Amdt_StdImp|Product Description: AutoCAD Mechanical|Company: Autodesk"
 90
        0
 91
        1
280
     0
281
     0
  0
CLASS
  1
ACMSECTIONSTANDARDDIN
  2
AmdtSectionSymStdDIN
  3
"Amdt_StdImp|Product Description: AutoCAD Mechanical|Company: Autodesk"
 90
        0
 91
        1
280
     0
281
     0
  0
CLASS
  1
ACMCENTERLINESTANDARDDIN
  2
AmdtCenterLineStdDIN
  3
"Amdt_StdImp|Product Description: AutoCAD Mechanical|Company: Autodesk"
 90
        0
 91
        1
280
     0
281
     0
  0
CLASS
  1
ACMTHREADLINESTANDARDDIN
  2
AmdtThreadLineStdDIN
  3
"Amdt_StdImp|Product Description: AutoCAD Mechanical|Company: Autodesk"
 90
        0
 91
        1
280
     0
281
     0
  0
CLASS
  1
ACMNOTESTANDARDDIN
  2
AmdtNoteStdDIN
  3
"Amdt_StdImp|Product Description: AutoCAD Mechanical|Company: Autodesk"
 90
        0
 91
        1
280
     0
281
     0
  0
CLASS
  1
AMDTEDGESTANDARDISO13715
  2
AmdtEdgeStdISO13715
  3
"Amdt_StdImp|Product Description: AutoCAD Mechanical|Company: Autodesk"
 90
        0
 91
        1
280
     0
281
     0
  0
CLASS
  1
ACMSURFSTANDARDISO
  2
AcmSurfTextStdISO
  3
"Amdt_StdImp|Product Description: AutoCAD Mechanical|Company: Autodesk"
 90
        0
 91
        1
280
     0
281
     0
  0
CLASS
  1
ACMFCFSTANDARDISO
  2
AcmFCFStdISO
  3
"Amdt_StdImp|Product Description: AutoCAD Mechanical|Company: Autodesk"
 90
        0
 91
        1
280
     0
281
     0
  0
CLASS
  1
ACMWELDSTANDARDISO
  2
AcmWeldingStdISO
  3
"Amdt_StdImp|Product Description: AutoCAD Mechanical|Company: Autodesk"
 90
        0
 91
        1
280
     0
281
     0
  0
CLASS
  1
ACMIDSTANDARDISO
  2
AcmIdStdISO
  3
"Amdt_StdImp|Product Description: AutoCAD Mechanical|Company: Autodesk"
 90
        0
 91
        1
280
     0
281
     0
  0
CLASS
  1
ACMDATUMSTANDARDISO
  2
AcmDatumStdISO
  3
"Amdt_StdImp|Product Description: AutoCAD Mechanical|Company: Autodesk"
 90
        0
 91
        1
280
     0
281
     0
  0
CLASS
  1
ACMBOMSTANDARDISO
  2
AcmBOMStdISO
  3
"Amdt_StdImp|Product Description: AutoCAD Mechanical|Company: Autodesk"
 90
        0
 91
        1
280
     0
281
     0
  0
CLASS
  1
ACMDETAILSTANDARDISO
  2
AmdtDetailSymStdISO
  3
"Amdt_StdImp|Product Description: AutoCAD Mechanical|Company: Autodesk"
 90
        0
 91
        1
280
     0
281
     0
  0
CLASS
  1
ACMSECTIONSTANDARDISO
  2
AmdtSectionSymStdISO
  3
"Amdt_StdImp|Product Description: AutoCAD Mechanical|Company: Autodesk"
 90
        0
 91
        1
280
     0
281
     0
  0
CLASS
  1
ACMCENTERLINESTANDARDISO
  2
AmdtCenterLineStdISO
  3
"Amdt_StdImp|Product Description: AutoCAD Mechanical|Company: Autodesk"
 90
        0
 91
        1
280
     0
281
     0
  0
CLASS
  1
ACMTHREADLINESTANDARDISO
  2
AmdtThreadLineStdISO
  3
"Amdt_StdImp|Product Description: AutoCAD Mechanical|Company: Autodesk"
 90
        0
 91
        1
280
     0
281
     0
  0
CLASS
  1
ACMNOTESTANDARDISO
  2
AmdtNoteStdISO
  3
"Amdt_StdImp|Product Description: AutoCAD Mechanical|Company: Autodesk"
 90
        0
 91
        1
280
     0
281
     0
  0
CLASS
  1
ACAMGLAYSTD
  2
AcAmgLayStd
  3
"AmgLay|Product Description: AutoCAD Mechanical|Company: Autodesk"
 90
        0
 91
        5
280
     0
281
     0
  0
CLASS
  1
ACAMGDIMSTD
  2
AcAmgDimStd
  3
"AmgDim|Product Description: AutoCAD Mechanical|Company: Autodesk"
 90
        0
 91
        5
280
     0
281
     0
  0
CLASS
  1
ACAMGHOLECHARTSTDANSI
  2
AcAmgHoleChartStdANSI
  3
ACMSYMBB_MODULE_NAME
 90
        0
 91
        1
280
     0
281
     0
  0
CLASS
  1
ACAMGHOLECHARTSTDBSI
  2
AcAmgHoleChartStdBSI
  3
ACMSYMBB_MODULE_NAME
 90
        0
 91
        1
280
     0
281
     0
  0
CLASS
  1
ACAMGHOLECHARTSTDDIN
  2
AcAmgHoleChartStdDIN
  3
ACMSYMBB_MODULE_NAME
 90
        0
 91
        1
280
     0
281
     0
  0
CLASS
  1
ACAMGHOLECHARTSTDISO
  2
AcAmgHoleChartStdISO
  3
ACMSYMBB_MODULE_NAME
 90
        0
 91
        1
280
     0
281
     0
  0
CLASS
  1
ACAMGHOLECHARTSTDJIS
  2
AcAmgHoleChartStdJIS
  3
ACMSYMBB_MODULE_NAME
 90
        0
 91
        1
280
     0
281
     0
  0
CLASS
  1
CATALOGSTATE
  2
AcAmCatalogState
  3
DesignerAssemblies
 90
        0
 91
        1
280
     0
281
     0
  0
CLASS
  1
ACAMGRCOMPDEFSET
  2
AcAmGrCompDefSet
  3
DesignerAssemblies
 90
        0
 91
        1
280
     0
281
     0
  0
CLASS
  1
AMDTBROWSERDBTAB
  2
AmdtBrowserDbTab
  3
McadcomServices
 90
        0
 91
        1
280
     0
281
     0
  0
CLASS
  1
CBROWSERAPPOBJECT
  2
CBrowserAppObject
  3
McadcomServices
 90
        0
 91
        3
280
     0
281
     0
  0
CLASS
  1
DM_PLACEHOLDER
  2
AcDmSelsetPlaceholder
  3
AcMechDwgViewMgmt
 90
        0
 91
        1
280
     0
281
     0
  0
CLASS
  1
VAACXREFPANELOBJECT
  2
VaAcXREFPanelObject
  3
VAAC_ADDIN
 90
        0
 91
        0
280
     0
281
     0
  0
CLASS
  1
VAACIMAGEINVENTORY
  2
VaAcImageInventory
  3
VAAC_ADDIN
 90
        0
 91
        0
280
     0
281
     0
  0
CLASS
  1
ACAMGFILTERDAT
  2
AcAmgFilterDat
  3
"AcadM|Product Description: AutoCAD Mechanical|Company: Autodesk"
 90
        0
 91
        6
280
     0
281
     0
  0
CLASS
  1
MATERIAL
  2
AcDbMaterial
  3
ObjectDBX Classes
 90
     1153
 91
        3
280
     0
281
     0
  0
CLASS
  1
VISUALSTYLE
  2
AcDbVisualStyle
  3
ObjectDBX Classes
 90
     4095
 91
       16
280
     0
281
     0
  0
CLASS
  1
ACMTAPERSTANDARDJIS
  2
AcmTaperStdJIS
  3
"Amdt_StdImp|Product Description: AutoCAD Mechanical|Company: Autodesk"
 90
        0
 91
        1
280
     0
281
     0
  0
CLASS
  1
ACMTAPERSTANDARDANSI
  2
AcmTaperStdANSI
  3
"Amdt_StdImp|Product Description: AutoCAD Mechanical|Company: Autodesk"
 90
        0
 91
        1
280
     0
281
     0
  0
CLASS
  1
ACMTAPERSTANDARDBSI
  2
AcmTaperStdBSI
  3
"Amdt_StdImp|Product Description: AutoCAD Mechanical|Company: Autodesk"
 90
        0
 91
        1
280
     0
281
     0
  0
CLASS
  1
ACMTAPERSTANDARDDIN
  2
AcmTaperStdDIN
  3
"Amdt_StdImp|Product Description: AutoCAD Mechanical|Company: Autodesk"
 90
        0
 91
        1
280
     0
281
     0
  0
CLASS
  1
ACMTAPERSTANDARDISO
  2
AcmTaperStdISO
  3
"Amdt_StdImp|Product Description: AutoCAD Mechanical|Company: Autodesk"
 90
        0
 91
        1
280
     0
281
     0
  0
CLASS
  1
CAMSSTRUCTBTNSTATE
  2
StructBtnState
  3
L"DesignerAssemblies"
 90
        0
 91
        1
280
     0
281
     0
  0
ENDSEC
  0
SECTION
  2
TABLES
  0
TABLE
  2
VPORT
  5
13
330
0
100
AcDbSymbolTable
 70
     1
  0
VPORT
  5
817
330
13
100
AcDbSymbolTableRecord
100
AcDbViewportTableRecord
  2
*Active
 70
     0
 10
0.0
 20
0.0
 11
1.0
 21
1.0
 12
600.0
 22
275.0
 13
0.0
 23
0.0
 14
10.0
 24
10.0
 15
10.0
 25
10.0
 16
0.0
 26
0.0
 36
1.0
 17
0.0
 27
0.0
 37
0.0
 40
738.5199240986716
 41
1.624871531346351
 42
50.0
 43
0.0
 44
0.0
 50
0.0
 51
0.0
 71
     0
 72
   100
 73
     1
 74
     0
 75
     0
 76
     0
 77
     0
 78
     0
281
     0
 65
     1
110
0.0
120
0.0
130
0.0
111
1.0
121
0.0
131
0.0
112
0.0
122
1.0
132
0.0
 79
     0
146
0.0
  0
ENDTAB
  0
TABLE
  2
LTYPE
  5
E
330
0
100
AcDbSymbolTable
 70
    23
  0
LTYPE
  5
F
330
E
100
AcDbSymbolTableRecord
100
AcDbLinetypeTableRecord
  2
BYBLOCK
 70
     0
  3

 72
    65
 73
     0
 40
0.0
  0
LTYPE
  5
10
330
E
100
AcDbSymbolTableRecord
100
AcDbLinetypeTableRecord
  2
BYLAYER
 70
     0
  3

 72
    65
 73
     0
 40
0.0
  0
LTYPE
  5
6
330
E
100
AcDbSymbolTableRecord
100
AcDbLinetypeTableRecord
  2
CONTINUOUS
 70
     0
  3
Solid line
 72
    65
 73
     0
 40
0.0
  0
LTYPE
  5
22
330
E
100
AcDbSymbolTableRecord
100
AcDbLinetypeTableRecord
  2
MITTE
 70
     0
  3
____ _ ____ _ ____ _ ____ _ ____ _ ____ _ ____ 
 72
    65
 73
     4
 40
2.0
 49
1.25
 74
     0
 49
-0.25
 74
     0
 49
0.25
 74
     0
 49
-0.25
 74
     0
  0
LTYPE
  5
1A0
330
E
100
AcDbSymbolTableRecord
100
AcDbLinetypeTableRecord
  2
GESTRICHELT
 70
     0
  3
__ __ __ __ __ __ __ __ __ __ __ __ __ __ __ __
 72
    65
 73
     2
 40
0.75
 49
0.5
 74
     0
 49
-0.25
 74
     0
  0
LTYPE
  5
31C
330
E
100
AcDbSymbolTableRecord
100
AcDbLinetypeTableRecord
  2
ACJISTGB
 70
     0
  3
__ . . __ . .
 72
    65
 73
     6
 40
9.0
 49
4.0
 74
     0
 49
-1.0
 74
     0
 49
1.0
 74
     0
 49
-1.0
 74
     0
 49
1.0
 74
     0
 49
-1.0
 74
     0
  0
LTYPE
  5
31D
330
E
100
AcDbSymbolTableRecord
100
AcDbLinetypeTableRecord
  2
ACJISTGL
 70
     0
  3
_ _ _ _ _
 72
    65
 73
     2
 40
3.0
 49
2.0
 74
     0
 49
-1.0
 74
     0
  0
LTYPE
  5
320
330
E
100
AcDbSymbolTableRecord
100
AcDbLinetypeTableRecord
  2
ACANSTGB
 70
     0
  3
__ . . __ . .
 72
    65
 73
     6
 40
0.35433070866
 49
0.15748031496
 74
     0
 49
-0.03937007874
 74
     0
 49
0.03937007874
 74
     0
 49
-0.03937007874
 74
     0
 49
0.03937007874
 74
     0
 49
-0.03937007874
 74
     0
  0
LTYPE
  5
321
330
E
100
AcDbSymbolTableRecord
100
AcDbLinetypeTableRecord
  2
ACANSTGL
 70
     0
  3
_ _ _ _ _
 72
    65
 73
     2
 40
0.11811023622
 49
0.07874015748
 74
     0
 49
-0.03937007874
 74
     0
  0
LTYPE
  5
324
330
E
100
AcDbSymbolTableRecord
100
AcDbLinetypeTableRecord
  2
ACBSIWELD
 70
     0
  3
_ _ _ _ _
 72
    65
 73
     2
 40
2.0
 49
2.0
 74
     0
 49
-1.0
 74
     0
  0
LTYPE
  5
325
330
E
100
AcDbSymbolTableRecord
100
AcDbLinetypeTableRecord
  2
ACBSITGB
 70
     0
  3
__ . . __ . .
 72
    65
 73
     6
 40
9.0
 49
4.0
 74
     0
 49
-1.0
 74
     0
 49
1.0
 74
     0
 49
-1.0
 74
     0
 49
1.0
 74
     0
 49
-1.0
 74
     0
  0
LTYPE
  5
326
330
E
100
AcDbSymbolTableRecord
100
AcDbLinetypeTableRecord
  2
ACBSITGL
 70
     0
  3
_ _ _ _ _
 72
    65
 73
     2
 40
3.0
 49
2.0
 74
     0
 49
-1.0
 74
     0
  0
LTYPE
  5
329
330
E
100
AcDbSymbolTableRecord
100
AcDbLinetypeTableRecord
  2
ACDINWELD
 70
     0
  3
_ _ _ _ _
 72
    65
 73
     2
 40
2.0
 49
2.0
 74
     0
 49
-1.0
 74
     0
  0
LTYPE
  5
32A
330
E
100
AcDbSymbolTableRecord
100
AcDbLinetypeTableRecord
  2
ACDINTGB
 70
     0
  3
__ . . __ . .
 72
    65
 73
     6
 40
9.0
 49
4.0
 74
     0
 49
-1.0
 74
     0
 49
1.0
 74
     0
 49
-1.0
 74
     0
 49
1.0
 74
     0
 49
-1.0
 74
     0
  0
LTYPE
  5
32B
330
E
100
AcDbSymbolTableRecord
100
AcDbLinetypeTableRecord
  2
ACDINTGL
 70
     0
  3
_ _ _ _ _
 72
    65
 73
     2
 40
3.0
 49
2.0
 74
     0
 49
-1.0
 74
     0
  0
LTYPE
  5
32E
330
E
100
AcDbSymbolTableRecord
100
AcDbLinetypeTableRecord
  2
ACISOWELD
 70
     0
  3
_ _ _ _ _
 72
    65
 73
     2
 40
2.0
 49
2.0
 74
     0
 49
-1.0
 74
     0
  0
LTYPE
  5
32F
330
E
100
AcDbSymbolTableRecord
100
AcDbLinetypeTableRecord
  2
ACISOTGB
 70
     0
  3
__ . . __ . .
 72
    65
 73
     6
 40
9.0
 49
4.0
 74
     0
 49
-1.0
 74
     0
 49
1.0
 74
     0
 49
-1.0
 74
     0
 49
1.0
 74
     0
 49
-1.0
 74
     0
  0
LTYPE
  5
330
330
E
100
AcDbSymbolTableRecord
100
AcDbLinetypeTableRecord
  2
ACISOTGL
 70
     0
  3
_ _ _ _ _
 72
    65
 73
     2
 40
3.0
 49
2.0
 74
     0
 49
-1.0
 74
     0
  0
LTYPE
  5
379
330
E
100
AcDbSymbolTableRecord
100
AcDbLinetypeTableRecord
  2
HIDDEN
 70
     0
  3
Verdeckt
 72
    65
 73
     2
 40
0.375
 49
0.25
 74
     0
 49
-0.125
 74
     0
  0
LTYPE
  5
37A
330
E
100
AcDbSymbolTableRecord
100
AcDbLinetypeTableRecord
  2
PHANTOM2
 70
     0
  3
Phantom (.5x) ___ _ _ ___ _ _ ___ _ _ ___ _ _
 72
    65
 73
     6
 40
1.25
 49
0.625
 74
     0
 49
-0.125
 74
     0
 49
0.125
 74
     0
 49
-0.125
 74
     0
 49
0.125
 74
     0
 49
-0.125
 74
     0
  0
LTYPE
  5
37B
330
E
100
AcDbSymbolTableRecord
100
AcDbLinetypeTableRecord
  2
CENTER
 70
     0
  3
Mitte ____ _ ____ _ ____ _ ____ _ ____ _ ____
 72
    65
 73
     4
 40
2.0
 49
1.25
 74
     0
 49
-0.25
 74
     0
 49
0.25
 74
     0
 49
-0.25
 74
     0
  0
LTYPE
  5
3AC
330
E
100
AcDbSymbolTableRecord
100
AcDbLinetypeTableRecord
  2
Amconstr
 70
     0
  3
_______________________
 72
    65
 73
     2
 40
9999.0
 49
9999.0
 74
     0
 49
0.0
 74
     0
  0
LTYPE
  5
3B2
330
E
100
AcDbSymbolTableRecord
100
AcDbLinetypeTableRecord
  2
CENTER2
 70
     0
  3
Center (.5x) ___ _ ___ _ ___ _ ___ _ ___ _ ___
 72
    65
 73
     4
 40
1.125
 49
0.75
 74
     0
 49
-0.125
 74
     0
 49
0.125
 74
     0
 49
-0.125
 74
     0
  0
LTYPE
  5
3B3
330
E
100
AcDbSymbolTableRecord
100
AcDbLinetypeTableRecord
  2
HIDDEN2
 70
     0
  3
Hidden (.5x) _ _ _ _ _ _ _ _ _ _ _ _ _ _ _ _ _
 72
    65
 73
     2
 40
0.1875
 49
0.125
 74
     0
 49
-0.0625
 74
     0
  0
LTYPE
  5
3B4
330
E
100
AcDbSymbolTableRecord
100
AcDbLinetypeTableRecord
  2
Amzigzag2
 70
     0
  3
/\/-/\/-/\/-/\/-/\/-/\/
 72
    65
 73
     2
 40
0.4401
 49
0.0001
 74
     4
 75
   135
340
3B0
 46
0.0016
 50
0.0
 44
0.0
 45
0.0
 49
-0.4400000000000001
 74
     0
  0
ENDTAB
  0
TABLE
  2
LAYER
  5
B
330
0
100
AcDbSymbolTable
 70
     5
  0
LAYER
  5
5
330
B
100
AcDbSymbolTableRecord
100
AcDbLayerTableRecord
  2
0
 70
     0
 62
     7
  6
CONTINUOUS
370
    -3
390
33E
  0
LAYER
  5
21
330
B
100
AcDbSymbolTableRecord
100
AcDbLayerTableRecord
  2
MITTE
 70
     0
 62
     5
  6
MITTE
370
    -3
390
33E
  0
LAYER
  5
87
330
B
100
AcDbSymbolTableRecord
100
AcDbLayerTableRecord
  2
LINIE
 70
     0
 62
     6
  6
CONTINUOUS
370
    -3
390
33E
  0
LAYER
  5
2F
330
B
100
AcDbSymbolTableRecord
100
AcDbLayerTableRecord
  2
DEFPOINTS
 70
     0
 62
     7
  6
CONTINUOUS
290
     0
370
    -3
390
33E
  0
ENDTAB
  0
TABLE
  2
STYLE
  5
C
330
0
100
AcDbSymbolTable
 70
    13
  0
STYLE
  5
D
330
C
100
AcDbSymbolTableRecord
100
AcDbTextStyleTableRecord
  2
STANDARD
 70
     0
 40
0.0
 41
1.0
 50
0.0
 71
     0
 42
10.0
  3
romans.shx
  4

  0
STYLE
  5
31A
330
C
100
AcDbSymbolTableRecord
100
AcDbTextStyleTableRecord
  2
ACJISTS
 70
     0
 40
1.0
 41
1.0
 50
0.0
 71
     0
 42
10.0
  3
isocp.shx
  4
bigfont.shx
  0
STYLE
  5
31B
330
C
100
AcDbSymbolTableRecord
100
AcDbTextStyleTableRecord
  2
ACJISGDT
 70
     0
 40
0.0
 41
1.0
 50
0.0
 71
     0
 42
10.0
  3
amgdt.shx
  4

  0
STYLE
  5
31E
330
C
100
AcDbSymbolTableRecord
100
AcDbTextStyleTableRecord
  2
ACANSTSB
 70
     0
 40
1.0
 41
1.0
 50
0.0
 71
     0
 42
10.0
  3
romans.shx
  4

  0
STYLE
  5
31F
330
C
100
AcDbSymbolTableRecord
100
AcDbTextStyleTableRecord
  2
ACANSGDT
 70
     0
 40
0.0
 41
1.0
 50
0.0
 71
     0
 42
10.0
  3
amgdt.shx
  4

  0
STYLE
  5
322
330
C
100
AcDbSymbolTableRecord
100
AcDbTextStyleTableRecord
  2
ACBSITS
 70
     0
 40
1.0
 41
1.0
 50
0.0
 71
     0
 42
10.0
  3
isocp.shx
  4

  0
STYLE
  5
323
330
C
100
AcDbSymbolTableRecord
100
AcDbTextStyleTableRecord
  2
ACBSIGDT
 70
     0
 40
0.0
 41
1.0
 50
0.0
 71
     0
 42
10.0
  3
amgdt.shx
  4

  0
STYLE
  5
327
330
C
100
AcDbSymbolTableRecord
100
AcDbTextStyleTableRecord
  2
ACDINTS
 70
     0
 40
1.0
 41
1.0
 50
0.0
 71
     0
 42
10.0
  3
isocp.shx
  4

  0
STYLE
  5
328
330
C
100
AcDbSymbolTableRecord
100
AcDbTextStyleTableRecord
  2
ACDINGDT
 70
     0
 40
0.0
 41
1.0
 50
0.0
 71
     0
 42
10.0
  3
amgdt.shx
  4

  0
STYLE
  5
32C
330
C
100
AcDbSymbolTableRecord
100
AcDbTextStyleTableRecord
  2
ACISOTS
 70
     0
 40
1.0
 41
1.0
 50
0.0
 71
     0
 42
10.0
  3
isocp.shx
  4

  0
STYLE
  5
32D
330
C
100
AcDbSymbolTableRecord
100
AcDbTextStyleTableRecord
  2
ACISOGDT
 70
     0
 40
0.0
 41
1.0
 50
0.0
 71
     0
 42
10.0
  3
amgdt.shx
  4

  0
STYLE
  5
3B0
330
C
100
AcDbSymbolTableRecord
100
AcDbTextStyleTableRecord
  2

 70
     1
 40
0.0
 41
1.0
 50
0.0
 71
     0
 42
10.0
  3
ltypeshp.shx
  4

  0
ENDTAB
  0
TABLE
  2
VIEW
  5
11
330
0
100
AcDbSymbolTable
 70
     0
  0
ENDTAB
  0
TABLE
  2
UCS
  5
12
330
0
100
AcDbSymbolTable
 70
     0
  0
ENDTAB
  0
TABLE
  2
APPID
  5
15
330
0
100
AcDbSymbolTable
 70
    10
  0
APPID
  5
16
330
15
100
AcDbSymbolTableRecord
100
AcDbRegAppTableRecord
  2
ACAD
 70
     0
  0
APPID
  5
2E5
330
15
100
AcDbSymbolTableRecord
100
AcDbRegAppTableRecord
  2
MCAD_NO_VIS
 70
     0
  0
APPID
  5
352
330
15
100
AcDbSymbolTableRecord
100
AcDbRegAppTableRecord
  2
ACAD_TEMP_GRAPHIC
 70
     0
  0
APPID
  5
37D
330
15
100
AcDbSymbolTableRecord
100
AcDbRegAppTableRecord
  2
AD_DRAW
 70
     0
  0
APPID
  5
380
330
15
100
AcDbSymbolTableRecord
100
AcDbRegAppTableRecord
  2
ACATTRIBSERVICES
 70
     0
  0
APPID
  5
39E
330
15
100
AcDbSymbolTableRecord
100
AcDbRegAppTableRecord
  2
DESIGNERASSEMBLIES
 70
     0
  0
APPID
  5
445
330
15
100
AcDbSymbolTableRecord
100
AcDbRegAppTableRecord
  2
ACADM_DIM_EDIT
 70
     0
  0
APPID
  5
446
330
15
100
AcDbSymbolTableRecord
100
AcDbRegAppTableRecord
  2
AMDT_DM_ADJ
 70
     0
  0
APPID
  5
808
330
15
100
AcDbSymbolTableRecord
100
AcDbRegAppTableRecord
  2
DCO15
 70
     0
  0
APPID
  5
80C
330
15
100
AcDbSymbolTableRecord
100
AcDbRegAppTableRecord
  2
ACAD_PSEXT
 70
     0
  0
ENDTAB
  0
TABLE
  2
DIMSTYLE
  5
17
330
0
100
AcDbSymbolTable
 70
    37
100
AcDbDimStyleTable
 71
     1
340
1D
  0
DIMSTYLE
105
1D
330
17
100
AcDbSymbolTableRecord
100
AcDbDimStyleTableRecord
  2
ISO-25
 70
     0
 41
7.0
 42
0.0
 43
7.0
 44
1.25
 73
     0
 74
     0
 77
     1
 78
     8
140
10.0
141
0.0
144
0.5
147
4.0
172
     1
176
   256
177
   256
178
   256
284
     8
288
     1
340
D
  0
DIMSTYLE
105
110
330
17
100
AcDbSymbolTableRecord
100
AcDbDimStyleTableRecord
  2
STANDARD
 70
     0
  4
"
 41
7.0
 42
0.0
 43
7.0
 44
1.25
 47
0.1
 48
0.1
 73
     0
 74
     0
 77
     1
 78
     8
140
10.0
141
0.0
143
0.0393701
144
0.5
147
4.0
172
     1
176
   256
177
   256
178
   256
271
     2
272
     3
274
     4
283
     0
284
     8
288
     1
340
D
  0
DIMSTYLE
105
40D
330
17
100
AcDbSymbolTableRecord
100
AcDbDimStyleTableRecord
  2
AM_ANSI
 70
     0
  4
mm
 41
0.1
 42
0.05
 43
0.5
 44
0.1
 47
0.1
 48
0.1
 78
     7
 79
     2
140
0.12
141
0.0
146
0.71
147
0.06
176
   256
177
   256
178
     2
274
     4
284
     7
340
D
371
    -1
372
    -1
  0
DIMSTYLE
105
40E
330
17
100
AcDbSymbolTableRecord
100
AcDbDimStyleTableRecord
  2
AM_ANSI$3
 70
     0
  4
mm
 41
0.1
 42
0.05
 43
0.5
 44
0.1
 47
0.1
 48
0.1
 78
     7
 79
     2
140
0.12
141
0.0
146
0.71
147
0.06
176
   256
177
   256
178
     2
274
     4
284
     7
288
     1
289
     0
340
D
371
    -1
372
    -1
  0
DIMSTYLE
105
40F
330
17
100
AcDbSymbolTableRecord
100
AcDbDimStyleTableRecord
  2
AM_ANSI$4
 70
     0
  4
mm
 41
0.1
 42
0.05
 43
0.5
 44
0.1
 47
0.1
 48
0.1
 78
     7
 79
     2
140
0.12
141
0.0
146
0.71
147
0.06
176
   256
177
   256
178
     2
274
     4
284
     7
288
     1
289
     0
340
D
371
    -1
372
    -1
  0
DIMSTYLE
105
410
330
17
100
AcDbSymbolTableRecord
100
AcDbDimStyleTableRecord
  2
AM_ANSI$7
 70
     0
  4
mm
 41
0.1
 42
0.05
 43
0.5
 44
0.1
 47
0.1
 48
0.1
 78
     7
 79
     2
140
0.24
141
0.0
146
0.71
147
0.06
176
   256
177
   256
178
     2
274
     4
284
     7
340
D
371
    -1
372
    -1
  0
DIMSTYLE
105
411
330
17
100
AcDbSymbolTableRecord
100
AcDbDimStyleTableRecord
  2
AM_ANSI$SF
 70
     0
  4
mm
 41
0.1
 42
0.05
 43
0.5
 44
0.1
 47
0.1
 48
0.1
 75
     1
 76
     1
 78
     7
 79
     2
140
0.12
141
0.0
146
0.71
147
0.06
176
   256
177
   256
178
     2
274
     4
284
     7
340
D
371
    -1
372
    -1
  0
DIMSTYLE
105
416
330
17
100
AcDbSymbolTableRecord
100
AcDbDimStyleTableRecord
  2
AM_ANSI$SH
 70
     0
  4
mm
 41
0.1
 42
0.05
 43
0.5
 44
0.1
 47
0.1
 48
0.1
 75
     1
 76
     1
 78
     7
 79
     2
140
0.12
141
0.0
146
0.71
147
0.06
173
     1
176
   256
177
   256
178
     2
274
     4
284
     7
340
D
343
412
371
    -1
372
    -1
  0
DIMSTYLE
105
419
330
17
100
AcDbSymbolTableRecord
100
AcDbDimStyleTableRecord
  2
AM_BSI
 70
     0
  4
mm
 41
0.1574803149606299
 42
0.05
 43
0.5
 44
0.1
 47
0.1
 48
0.1
 73
     0
 74
     0
 77
     1
 78
     7
 79
     2
140
0.12
141
0.0
146
0.71
147
0.06
172
     1
176
   256
177
   256
178
     2
274
     4
283
     0
284
     7
340
D
371
    -1
372
    -1
  0
DIMSTYLE
105
41A
330
17
100
AcDbSymbolTableRecord
100
AcDbDimStyleTableRecord
  2
AM_BSI$3
 70
     0
  4
mm
 41
0.1574803149606299
 42
0.05
 43
0.5
 44
0.1
 47
0.1
 48
0.1
 73
     0
 77
     1
 78
     7
 79
     2
140
0.12
141
0.0
146
0.71
147
0.06
176
   256
177
   256
178
     2
274
     4
283
     0
284
     7
288
     1
289
     0
340
D
371
    -1
372
    -1
  0
DIMSTYLE
105
41B
330
17
100
AcDbSymbolTableRecord
100
AcDbDimStyleTableRecord
  2
AM_BSI$4
 70
     0
  4
mm
 41
0.1574803149606299
 42
0.05
 43
0.5
 44
0.1
 47
0.1
 48
0.1
 73
     0
 77
     1
 78
     7
 79
     2
140
0.12
141
0.0
146
0.71
147
0.06
176
   256
177
   256
178
     2
274
     4
283
     0
284
     7
288
     1
289
     0
340
D
371
    -1
372
    -1
  0
DIMSTYLE
105
41C
330
17
100
AcDbSymbolTableRecord
100
AcDbDimStyleTableRecord
  2
AM_BSI$6
 70
     0
  4
mm
 41
0.1574803149606299
 42
0.05
 43
0.5
 44
0.1
 47
0.1
 48
0.1
 73
     0
 74
     0
 78
     7
 79
     2
140
0.12
141
0.0
146
0.71
147
0.06
172
     1
176
   256
177
   256
178
     2
274
     4
283
     0
284
     7
340
D
371
    -1
372
    -1
  0
DIMSTYLE
105
41D
330
17
100
AcDbSymbolTableRecord
100
AcDbDimStyleTableRecord
  2
AM_BSI$7
 70
     0
  4
mm
 41
0.1
 42
0.05
 43
0.5
 44
0.1
 47
0.1
 48
0.1
 73
     0
 74
     0
 77
     1
 78
     7
 79
     2
140
0.24
141
0.0
146
0.71
147
0.06
172
     1
176
   256
177
   256
178
     2
274
     4
283
     0
284
     7
340
D
371
    -1
372
    -1
  0
DIMSTYLE
105
41E
330
17
100
AcDbSymbolTableRecord
100
AcDbDimStyleTableRecord
  2
AM_BSI$SF
 70
     0
  4
mm
 41
0.1574803149606299
 42
0.05
 43
0.5
 44
0.1
 47
0.1
 48
0.1
 73
     0
 74
     0
 75
     1
 76
     1
 77
     1
 78
     7
 79
     2
140
0.12
141
0.0
146
0.71
147
0.06
172
     1
176
   256
177
   256
178
     2
274
     4
283
     0
284
     7
340
D
371
    -1
372
    -1
  0
DIMSTYLE
105
41F
330
17
100
AcDbSymbolTableRecord
100
AcDbDimStyleTableRecord
  2
AM_BSI$SH
 70
     0
  4
mm
 41
0.1574803149606299
 42
0.05
 43
0.5
 44
0.1
 47
0.1
 48
0.1
 73
     0
 74
     0
 75
     1
 76
     1
 77
     1
 78
     7
 79
     2
140
0.12
141
0.0
144
2.0
146
0.71
147
0.06
172
     1
173
     1
176
   256
177
   256
178
     2
274
     4
283
     0
284
     7
340
D
343
412
371
    -1
372
    -1
  0
DIMSTYLE
105
422
330
17
100
AcDbSymbolTableRecord
100
AcDbDimStyleTableRecord
  2
AM_DIN
 70
     0
  4
mm
 41
0.1
 42
0.05
 43
0.5
 44
0.1
 47
0.1
 48
0.1
 73
     0
 74
     0
 77
     1
 78
     7
 79
     2
140
0.12
141
0.0
146
0.71
147
0.06
172
     1
176
   256
177
   256
178
     2
274
     4
283
     0
284
     7
340
D
371
    -1
372
    -1
  0
DIMSTYLE
105
423
330
17
100
AcDbSymbolTableRecord
100
AcDbDimStyleTableRecord
  2
AM_DIN$3
 70
     0
  4
mm
 41
0.1
 42
0.05
 43
0.5
 44
0.1
 47
0.1
 48
0.1
 73
     0
 77
     1
 78
     7
 79
     2
140
0.12
141
0.0
146
0.71
147
0.06
176
   256
177
   256
178
     2
274
     4
283
     0
284
     7
288
     1
289
     0
340
D
371
    -1
372
    -1
  0
DIMSTYLE
105
424
330
17
100
AcDbSymbolTableRecord
100
AcDbDimStyleTableRecord
  2
AM_DIN$4
 70
     0
  4
mm
 41
0.1
 42
0.05
 43
0.5
 44
0.1
 47
0.1
 48
0.1
 73
     0
 77
     1
 78
     7
 79
     2
140
0.12
141
0.0
146
0.71
147
0.06
176
   256
177
   256
178
     2
274
     4
283
     0
284
     7
288
     1
289
     0
340
D
371
    -1
372
    -1
  0
DIMSTYLE
105
425
330
17
100
AcDbSymbolTableRecord
100
AcDbDimStyleTableRecord
  2
AM_DIN$6
 70
     0
  4
mm
 41
0.1
 42
0.05
 43
0.5
 44
0.1
 47
0.1
 48
0.1
 73
     0
 74
     0
 78
     7
 79
     2
140
0.12
141
0.0
146
0.71
147
0.06
172
     1
176
   256
177
   256
178
     2
274
     4
283
     0
284
     7
340
D
371
    -1
372
    -1
  0
DIMSTYLE
105
426
330
17
100
AcDbSymbolTableRecord
100
AcDbDimStyleTableRecord
  2
AM_DIN$7
 70
     0
  4
mm
 41
0.1
 42
0.05
 43
0.5
 44
0.1
 47
0.1
 48
0.1
 73
     0
 74
     0
 77
     1
 78
     7
 79
     2
140
0.24
141
0.0
146
0.71
147
0.06
172
     1
176
   256
177
   256
178
     2
274
     4
283
     0
284
     7
340
D
371
    -1
372
    -1
  0
DIMSTYLE
105
427
330
17
100
AcDbSymbolTableRecord
100
AcDbDimStyleTableRecord
  2
AM_DIN$SF
 70
     0
  4
mm
 41
0.1
 42
0.05
 43
0.5
 44
0.1
 47
0.1
 48
0.1
 73
     0
 74
     0
 75
     1
 76
     1
 77
     1
 78
     7
 79
     2
140
0.12
141
0.0
146
0.71
147
0.06
172
     1
176
   256
177
   256
178
     2
274
     4
283
     0
284
     7
340
D
371
    -1
372
    -1
  0
DIMSTYLE
105
428
330
17
100
AcDbSymbolTableRecord
100
AcDbDimStyleTableRecord
  2
AM_DIN$SH
 70
     0
  4
mm
 41
0.1
 42
0.05
 43
0.5
 44
0.1
 47
0.1
 48
0.1
 73
     0
 74
     0
 75
     1
 76
     1
 77
     1
 78
     7
 79
     2
140
0.12
141
0.0
144
2.0
146
0.71
147
0.06
172
     1
173
     1
176
   256
177
   256
178
     2
274
     4
283
     0
284
     7
340
D
343
412
371
    -1
372
    -1
  0
DIMSTYLE
105
42B
330
17
100
AcDbSymbolTableRecord
100
AcDbDimStyleTableRecord
  2
AM_ISO
 70
     0
  4
mm
 41
0.1
 42
0.05
 43
0.5
 44
0.1
 47
0.1
 48
0.1
 73
     0
 74
     0
 77
     1
 78
     7
 79
     2
140
0.12
141
0.0
146
0.71
147
0.06
172
     1
176
   256
177
   256
178
     2
274
     4
283
     0
284
     7
340
D
371
    -1
372
    -1
  0
DIMSTYLE
105
42C
330
17
100
AcDbSymbolTableRecord
100
AcDbDimStyleTableRecord
  2
AM_ISO$3
 70
     0
  4
mm
 41
0.1
 42
0.05
 43
0.5
 44
0.1
 47
0.1
 48
0.1
 73
     0
 77
     1
 78
     7
 79
     2
140
0.12
141
0.0
146
0.71
147
0.06
176
   256
177
   256
178
     2
274
     4
283
     0
284
     7
288
     1
289
     0
340
D
371
    -1
372
    -1
  0
DIMSTYLE
105
42D
330
17
100
AcDbSymbolTableRecord
100
AcDbDimStyleTableRecord
  2
AM_ISO$4
 70
     0
  4
mm
 41
0.1
 42
0.05
 43
0.5
 44
0.1
 47
0.1
 48
0.1
 73
     0
 77
     1
 78
     7
 79
     2
140
0.12
141
0.0
146
0.71
147
0.06
176
   256
177
   256
178
     2
274
     4
283
     0
284
     7
288
     1
289
     0
340
D
371
    -1
372
    -1
  0
DIMSTYLE
105
42E
330
17
100
AcDbSymbolTableRecord
100
AcDbDimStyleTableRecord
  2
AM_ISO$6
 70
     0
  4
mm
 41
0.1
 42
0.05
 43
0.5
 44
0.1
 47
0.1
 48
0.1
 73
     0
 74
     0
 78
     7
 79
     2
140
0.12
141
0.0
146
0.71
147
0.06
172
     1
176
   256
177
   256
178
     2
274
     4
283
     0
284
     7
340
D
371
    -1
372
    -1
  0
DIMSTYLE
105
42F
330
17
100
AcDbSymbolTableRecord
100
AcDbDimStyleTableRecord
  2
AM_ISO$7
 70
     0
  4
mm
 41
0.1
 42
0.05
 43
0.5
 44
0.1
 47
0.1
 48
0.1
 73
     0
 74
     0
 77
     1
 78
     7
 79
     2
140
0.24
141
0.0
146
0.71
147
0.06
172
     1
176
   256
177
   256
178
     2
274
     4
283
     0
284
     7
340
D
371
    -1
372
    -1
  0
DIMSTYLE
105
430
330
17
100
AcDbSymbolTableRecord
100
AcDbDimStyleTableRecord
  2
AM_ISO$SF
 70
     0
  4
mm
 41
0.1
 42
0.05
 43
0.5
 44
0.1
 47
0.1
 48
0.1
 73
     0
 74
     0
 75
     1
 76
     1
 77
     1
 78
     7
 79
     2
140
0.12
141
0.0
146
0.71
147
0.06
172
     1
176
   256
177
   256
178
     2
274
     4
283
     0
284
     7
340
D
371
    -1
372
    -1
  0
DIMSTYLE
105
431
330
17
100
AcDbSymbolTableRecord
100
AcDbDimStyleTableRecord
  2
AM_ISO$SH
 70
     0
  4
mm
 41
0.1
 42
0.05
 43
0.5
 44
0.1
 47
0.1
 48
0.1
 73
     0
 74
     0
 75
     1
 76
     1
 77
     1
 78
     7
 79
     2
140
0.12
141
0.0
144
2.0
146
0.71
147
0.06
172
     1
173
     1
176
   256
177
   256
178
     2
274
     4
283
     0
284
     7
340
D
343
412
371
    -1
372
    -1
  0
DIMSTYLE
105
434
330
17
100
AcDbSymbolTableRecord
100
AcDbDimStyleTableRecord
  2
AM_JIS
 70
     0
  4
mm
 41
0.1
 42
0.05
 43
0.5
 44
0.1
 47
0.1
 48
0.1
 73
     0
 74
     0
 77
     3
 78
     7
 79
     2
140
0.12
141
0.0
146
0.71
147
0.06
172
     1
176
   256
177
   256
178
     2
274
     4
283
     0
284
     7
340
D
341
435
342
435
343
435
344
435
371
    -1
372
    -1
  0
DIMSTYLE
105
43B
330
17
100
AcDbSymbolTableRecord
100
AcDbDimStyleTableRecord
  2
AM_JIS$3
 70
     0
  4
mm
 41
0.1
 42
0.05
 43
0.5
 44
0.1
 47
0.1
 48
0.1
 73
     0
 77
     3
 78
     7
 79
     2
140
0.12
141
0.0
146
0.71
147
0.06
176
   256
177
   256
178
     2
274
     4
283
     0
284
     7
288
     1
289
     0
340
D
341
435
342
435
343
435
344
435
371
    -1
372
    -1
  0
DIMSTYLE
105
43C
330
17
100
AcDbSymbolTableRecord
100
AcDbDimStyleTableRecord
  2
AM_JIS$4
 70
     0
  4
mm
 41
0.1
 42
0.05
 43
0.5
 44
0.1
 47
0.1
 48
0.1
 73
     0
 77
     3
 78
     7
 79
     2
140
0.12
141
0.0
146
0.71
147
0.06
176
   256
177
   256
178
     2
274
     4
283
     0
284
     7
288
     1
289
     0
340
D
341
435
342
435
343
435
344
435
371
    -1
372
    -1
  0
DIMSTYLE
105
43D
330
17
100
AcDbSymbolTableRecord
100
AcDbDimStyleTableRecord
  2
AM_JIS$6
 70
     0
  4
mm
 41
0.1
 42
0.05
 43
0.5
 44
0.1
 47
0.1
 48
0.1
 73
     0
 74
     0
 78
     7
 79
     2
140
0.12
141
0.0
146
0.71
147
0.06
172
     1
176
   256
177
   256
178
     2
274
     4
283
     0
284
     7
340
D
341
435
342
435
343
435
344
435
371
    -1
372
    -1
  0
DIMSTYLE
105
43E
330
17
100
AcDbSymbolTableRecord
100
AcDbDimStyleTableRecord
  2
AM_JIS$7
 70
     0
  4
mm
 41
0.1
 42
0.05
 43
0.5
 44
0.1
 47
0.1
 48
0.1
 73
     0
 74
     0
 77
     3
 78
     7
 79
     2
140
0.24
141
0.0
146
0.71
147
0.06
172
     1
176
   256
177
   256
178
     2
274
     4
283
     0
284
     7
340
D
341
435
342
435
343
435
344
435
371
    -1
372
    -1
  0
DIMSTYLE
105
43F
330
17
100
AcDbSymbolTableRecord
100
AcDbDimStyleTableRecord
  2
AM_JIS$SF
 70
     0
  4
mm
 41
0.1
 42
0.05
 43
0.5
 44
0.1
 47
0.1
 48
0.1
 73
     0
 74
     0
 75
     1
 76
     1
 77
     3
 78
     7
 79
     2
140
0.12
141
0.0
146
0.71
147
0.06
172
     1
176
   256
177
   256
178
     2
274
     4
283
     0
284
     7
340
D
341
435
342
435
343
435
344
435
371
    -1
372
    -1
  0
DIMSTYLE
105
440
330
17
100
AcDbSymbolTableRecord
100
AcDbDimStyleTableRecord
  2
AM_JIS$SH
 70
     0
  4
mm
 41
0.1
 42
0.05
 43
0.5
 44
0.1
 47
0.1
 48
0.1
 73
     0
 74
     0
 75
     1
 76
     1
 77
     3
 78
     7
 79
     2
140
0.12
141
0.0
144
2.0
146
0.71
147
0.06
172
     1
173
     1
176
   256
177
   256
178
     2
274
     4
283
     0
284
     7
340
D
341
435
342
435
343
412
344
435
371
    -1
372
    -1
  0
ENDTAB
  0
TABLE
  2
BLOCK_RECORD
  5
1
330
0
100
AcDbSymbolTable
 70
    27
  0
BLOCK_RECORD
  5
2
102
{ACAD_XDICTIONARY
360
3
102
}
330
1
100
AcDbSymbolTableRecord
100
AcDbBlockTableRecord
  2
*MODEL_SPACE
340
345
  0
BLOCK_RECORD
  5
8
330
1
100
AcDbSymbolTableRecord
100
AcDbBlockTableRecord
  2
*PAPER_SPACE
340
346
  0
BLOCK_RECORD
  5
412
330
1
100
AcDbSymbolTableRecord
100
AcDbBlockTableRecord
  2
GENAXEH
340
0
  0
BLOCK_RECORD
  5
435
330
1
100
AcDbSymbolTableRecord
100
AcDbBlockTableRecord
  2
_Open30
340
0
  0
ENDTAB
  0
ENDSEC
  0
SECTION
  2
BLOCKS
  0
BLOCK
  5
4
330
2
100
AcDbEntity
  8
0
100
AcDbBlockBegin
  2
*MODEL_SPACE
 70
     0
 10
0.0
 20
0.0
 30
0.0
  3
*MODEL_SPACE
  1

  0
ENDBLK
  5
7
330
2
100
AcDbEntity
  8
0
100
AcDbBlockEnd
  0
BLOCK
  5
9
330
8
100
AcDbEntity
 67
     1
  8
0
100
AcDbBlockBegin
  2
*PAPER_SPACE
 70
     0
 10
0.0
 20
0.0
 30
0.0
  3
*PAPER_SPACE
  1

  0
ENDBLK
  5
A
330
8
100
AcDbEntity
 67
     1
  8
0
100
AcDbBlockEnd
  0
BLOCK
  5
414
330
412
100
AcDbEntity
  8
0
 48
10.0
100
AcDbBlockBegin
  2
GENAXEH
 70
     0
 10
0.0
 20
0.0
 30
0.0
  3
GENAXEH
  1

  0
LINE
  5
413
330
412
100
AcDbEntity
  8
0
100
AcDbLine
 10
-1.0
 20
0.0
 30
0.0
 11
1.0
 21
0.0
 31
0.0
  0
ENDBLK
  5
415
330
412
100
AcDbEntity
  8
0
 48
10.0
100
AcDbBlockEnd
  0
BLOCK
  5
439
330
435
100
AcDbEntity
  8
0
 48
10.0
100
AcDbBlockBegin
  2
_Open30
 70
     0
 10
0.0
 20
0.0
 30
0.0
  3
_Open30
  1

  0
LINE
  5
436
330
435
100
AcDbEntity
  8
0
  6
ByBlock
 62
     0
370
    -2
100
AcDbLine
 10
-1.0
 20
0.26794919
 30
0.0
 11
0.0
 21
0.0
 31
0.0
  0
LINE
  5
437
330
435
100
AcDbEntity
  8
0
  6
ByBlock
 62
     0
370
    -2
100
AcDbLine
 10
0.0
 20
0.0
 30
0.0
 11
-1.0
 21
-0.26794919
 31
0.0
  0
LINE
  5
438
330
435
100
AcDbEntity
  8
0
  6
ByBlock
 62
     0
370
    -2
100
AcDbLine
 10
0.0
 20
0.0
 30
0.0
 11
-1.0
 21
0.0
 31
0.0
  0
ENDBLK
  5
43A
330
435
100
AcDbEntity
  8
0
 48
10.0
100
AcDbBlockEnd
  0
ENDSEC
  0
SECTION
  2
ENTITIES
  0
LINE
  5
20
330
2
100
AcDbEntity
  8
MITTE
 48
15.0
100
AcDbLine
 10
599.7792483270859
 20
319.9711967884426
 30
0.0
 11
371.15777850819
 21
319.9711967884426
 31
0.0
  0
LINE
  5
23
330
2
100
AcDbEntity
  8
0
100
AcDbLine
 10
577.6111180579171
 20
216.9711967884426
 30
0.0
 11
610.5111180579171
 21
216.9711967884426
 31
0.0
1001
ACAD
1000
ASC_BOUNDS
1002
{
1070
    19
1002
}
  0
LINE
  5
24
330
2
100
AcDbEntity
  8
0
100
AcDbLine
 10
577.6111180579171
 20
375.9711967884426
 30
0.0
 11
610.5111180579172
 21
375.9711967884426
 31
0.0
1001
ACAD
1000
ASC_BOUNDS
1002
{
1070
    19
1002
}
  0
ARC
  5
5C
330
2
100
AcDbEntity
  8
0
100
AcDbCircle
 10
214.6847696506111
 20
319.9711967884426
 30
0.0
 40
90.0
100
AcDbArc
 50
317.1708262854205
 51
204.4415405741451
  0
LINE
  5
5D
330
2
100
AcDbEntity
  8
0
100
AcDbLine
 10
458.6111180579172
 20
409.9711967884426
 30
0.0
 11
458.611118057917
 21
229.9711967884426
 31
0.0
  0
LINE
  5
5E
330
2
100
AcDbEntity
  8
0
100
AcDbLine
 10
505.6111180579168
 20
314.9711967884426
 30
0.0
 11
505.6111180579173
 21
245.9711967884427
 31
0.0
1001
ACAD
1000
ASC_BOUNDS
1002
{
1070
    19
1002
}
  0
ARC
  5
5F
330
2
100
AcDbEntity
  8
0
100
AcDbCircle
 10
176.0052832955941
 20
307.4148476023387
 30
0.0
 40
100.0
100
AcDbArc
 50
310.9260633096046
 51
355.4114342642145
1001
ACAD
1000
ASC_BOUNDS
1002
{
1070
    19
1005
0
1002
}
  0
LINE
  5
60
330
2
100
AcDbEntity
  8
0
100
AcDbLine
 10
275.6847696506111
 20
299.4148476023393
 30
0.0
 11
275.6847696506111
 21
231.9148476023387
 31
0.0
  0
LINE
  5
61
330
2
100
AcDbEntity
  8
0
100
AcDbLine
 10
275.6847696506111
 20
299.4148476023387
 30
0.0
 11
275.6847696506111
 21
231.9148476023387
 31
0.0
  0
ARC
  5
62
330
2
100
AcDbEntity
  8
0
100
AcDbCircle
 10
214.6847696506111
 20
289.9711967884426
 30
0.0
 40
73.0
100
AcDbArc
 50
326.6800806293917
 51
3.593995493095905
  0
ARC
  5
63
330
2
100
AcDbEntity
  8
0
100
AcDbCircle
 10
253.364256005628
 20
307.4148476023387
 30
0.0
 40
100.0
100
AcDbArc
 50
184.5885657357856
 51
229.0739366903954
1001
ACAD
1000
ASC_BOUNDS
1002
{
1070
    19
1005
0
1002
}
  0
LINE
  5
64
330
2
100
AcDbEntity
  8
0
100
AcDbLine
 10
153.6847696506111
 20
299.4148476023391
 30
0.0
 11
153.6847696506111
 21
231.9148476023387
 31
0.0
  0
LINE
  5
65
330
2
100
AcDbEntity
  8
0
100
AcDbLine
 10
153.6847696506111
 20
299.4148476023387
 30
0.0
 11
153.6847696506111
 21
231.9148476023387
 31
0.0
  0
LINE
  5
66
330
2
100
AcDbEntity
  8
0
100
AcDbLine
 10
144.8801510498444
 20
349.1278098020442
 30
0.0
 11
125.8801510498444
 21
245.1278098020442
 31
0.0
  0
LINE
  5
67
330
2
100
AcDbEntity
  8
0
100
AcDbLine
 10
460.6111180579172
 20
407.9711967884426
 30
0.0
 11
460.6111180579167
 21
231.9711967884422
 31
0.0
1001
ACAD
1000
ASC_BOUNDS
1002
{
1070
    19
1002
}
  0
LINE
  5
68
330
2
100
AcDbEntity
  8
0
100
AcDbLine
 10
447.111118057917
 20
409.9711967884426
 30
0.0
 11
447.1111180579172
 21
229.9711967884426
 31
0.0
1001
ACAD
1000
ASC_BOUNDS
1002
{
1070
    19
1002
}
  0
LINE
  5
85
330
2
100
AcDbEntity
  8
MITTE
 48
20.0
100
AcDbLine
 10
214.6847696506111
 20
416.6008054564453
 30
0.0
 11
214.6847696506111
 21
194.2443398779051
 31
0.0
  0
LINE
  5
86
330
2
100
AcDbEntity
  8
LINIE
 48
10.0
100
AcDbLine
 10
577.6111180579171
 20
372.4094189695054
 30
0.0
 11
577.6111180579171
 21
221.2045489092436
 31
0.0
  0
HATCH
  5
88
330
2
100
AcDbEntity
  8
LINIE
 48
10.0
100
AcDbHatch
 10
0.0
 20
0.0
 30
0.0
210
0.0
220
0.0
230
1.0
  2
AR-CONC
 70
     0
 71
     0
 91
        2
 92
        7
 72
     1
 73
     1
 93
        6
 10
153.6847696506111
 20
299.414847602339
 42
0.1965790673635085
 10
187.8557983479228
 20
231.8592920467831
 42
0.1804963181033798
 10
194.4066441136932
 20
229.4148476023387
 42
0.0
 10
234.9628951875288
 20
229.4148476023387
 42
0.1804963181033815
 10
241.5137409532994
 20
231.8592920467831
 42
0.1965790673635087
 10
275.6847696506111
 20
299.414847602339
 42
1.0
 97
        0
 92
        7
 72
     1
 73
     1
 93
       10
 10
237.1847696506111
 20
226.9148476023387
 42
-0.4142135623730951
 10
239.6847696506111
 20
229.4148476023387
 42
0.0
 10
230.1847696506111
 20
229.4148476023387
 42
0.0
 10
189.6847696506111
 20
229.4148476023387
 42
-0.4142135623730951
 10
192.1847696506111
 20
226.9148476023387
 42
0.0
 10
192.1847696506111
 20
218.9148476023387
 42
0.0503820444849804
 10
192.2352799078281
 20
218.4148476023378
 42
0.0
 10
237.1342593933941
 20
218.4148476023378
 42
0.0568446423399838
 10
237.1839391802232
 20
218.9792809963096
 42
-0.0000090034323923
 10
237.1847696506111
 20
218.9794700833441
 42
0.0
 97
        0
 75
     0
 76
     1
 52
0.0
 41
2.0
 77
     0
 78
    13
 53
50.0
 43
257.8530280615542
 44
-26.29486211941469
 45
14.34520365201507
 46
-1.255042699651902
 79
     2
 49
1.5
 49
-16.5
 53
355.0
 43
257.8530280615542
 44
-26.29486211941469
 45
-2.77502667226
 46
15.04384267400024
 79
     2
 49
1.199999999999999
 49
-13.2
 53
100.4514
 43
259.0484616615541
 44
-26.39944891941468
 45
11.57018763428043
 46
13.78879084121907
 79
     2
 49
1.274803799999998
 49
-14.02284223999998
 53
46.1842
 43
257.8530280615542
 44
-22.29486211941469
 45
21.34482097251289
 46
-3.310380286580361
 79
     2
 49
2.25
 49
-24.75
 53
96.63559999999996
 43
259.6317629615541
 44
-22.57072825941469
 45
18.69325411097406
 46
19.48235741800883
 79
     2
 49
1.912205759999998
 49
-21.03425999999997
 53
351.1842000000001
 43
257.8530280615542
 44
-22.29486211941469
 45
18.69323890267254
 46
19.48237201850649
 79
     2
 49
1.8
 49
-19.8
 53
21.0
 43
259.8530280615541
 44
-23.29486211941469
 45
11.93814104236923
 46
-8.052377813306776
 79
     2
 49
1.5
 49
-16.5
 53
326.0
 43
259.8530280615541
 44
-23.29486211941469
 45
4.866306638431634
 46
14.50300090093706
 79
     2
 49
1.199999999999999
 49
-13.2
 53
71.45140000000001
 43
260.8478727215541
 44
-23.9658942394147
 45
16.8044525716298
 46
6.450609934199047
 79
     2
 49
1.2748038
 49
-14.02284224
 53
37.5
 43
257.8530280615542
 44
-26.29486211941469
 45
0.2431971063458134
 46
6.657877076626229
 79
     6
 49
0.0
 49
-13.04
 49
0.0
 49
-13.4
 49
0.0
 49
-13.25
 53
7.499999999999999
 43
257.8530280615542
 44
-26.29486211941469
 45
5.261390748842972
 46
7.888234237647204
 79
     6
 49
0.0
 49
-7.639999999999999
 49
0.0
 49
-12.74
 49
0.0
 49
-5.049999999999999
 53
327.5
 43
253.3930280615542
 44
-26.29486211941469
 45
10.67644872344818
 46
-0.451097434687596
 79
     6
 49
0.0
 49
-5.0
 49
0.0
 49
-15.6
 49
0.0
 49
-20.7
 53
317.5
 43
251.3930280615542
 44
-26.29486211941469
 45
11.66372338684772
 46
2.002099646646352
 79
     6
 49
0.0
 49
-6.5
 49
0.0
 49
-10.36
 49
0.0
 49
-14.7
 47
0.4120896387672359
 98
        2
 10
228.3149912107392
 20
308.1698220013394
 10
216.7726325250719
 20
224.5156248195361
  0
LINE
  5
89
330
2
100
AcDbEntity
  8
LINIE
 48
10.0
100
AcDbLine
 10
547.6111180579172
 20
229.9711967884426
 30
0.0
 11
547.6111180579172
 21
333.574972894321
 31
0.0
  0
LINE
  5
9A
330
2
100
AcDbEntity
  8
0
100
AcDbLine
 10
156.1847696506111
 20
219.4148476023389
 30
0.0
 11
154.1847696506111
 21
220.5695481407182
 31
0.0
1001
ACAD
1000
ASC_BOUNDS
1002
{
1070
    19
1002
}
  0
ARC
  5
9B
330
2
100
AcDbEntity
  8
0
100
AcDbCircle
 10
156.1847696506111
 20
231.9148476023387
 30
0.0
 40
2.5
100
AcDbArc
 50
180.0
 51
270.0
  0
ARC
  5
9C
330
2
100
AcDbEntity
  8
0
100
AcDbCircle
 10
156.1847696506111
 20
231.9148476023387
 30
0.0
 40
2.5
100
AcDbArc
 50
180.0
 51
270.0
  0
LINE
  5
9D
330
2
100
AcDbEntity
  8
0
100
AcDbLine
 10
154.1847696506111
 20
220.5695481407182
 30
0.0
 11
192.1847696506113
 21
220.5695481407181
 31
0.0
  0
LINE
  5
9E
330
2
100
AcDbEntity
  8
0
100
AcDbLine
 10
199.1847696506111
 20
229.4148476023387
 30
0.0
 11
154.1847696506111
 21
229.4148476023387
 31
0.0
1001
ACAD
1000
ASC_BOUNDS
1002
{
1070
    19
1002
}
  0
ARC
  5
9F
330
2
100
AcDbEntity
  8
0
100
AcDbCircle
 10
137.6847696506111
 20
242.9711967884426
 30
0.0
 40
12.0
100
AcDbArc
 50
169.6466799560705
 51
251.9738691867126
  0
LINE
  5
A0
330
2
100
AcDbEntity
  8
0
100
AcDbLine
 10
154.1847696506111
 20
224.9822829627897
 30
0.0
 11
133.9713611383141
 21
231.5602109756042
 31
0.0
  0
LINE
  5
A1
330
2
100
AcDbEntity
  8
MITTE
 48
10.0
100
AcDbLine
 10
137.6847696506111
 20
249.0171390312809
 30
0.0
 11
137.6847696506111
 21
230.5130459129581
 31
0.0
  0
LINE
  5
A2
330
2
100
AcDbEntity
  8
0
100
AcDbLine
 10
154.1847696506111
 20
220.5695481407182
 30
0.0
 11
154.1847696506111
 21
229.4148476023387
 31
0.0
1001
ACAD
1000
ASC_BOUNDS
1002
{
1070
    19
1002
}
  0
LINE
  5
A3
330
2
100
AcDbEntity
  8
MITTE
 48
10.0
100
AcDbLine
 10
142.4217125521699
 20
242.9711967884426
 30
0.0
 11
123.9485525609277
 21
242.9711967884426
 31
0.0
  0
ARC
  5
A4
330
2
100
AcDbEntity
  8
LINIE
 48
10.0
100
AcDbCircle
 10
137.6847696506111
 20
242.9711967884426
 30
0.0
 40
4.0
100
AcDbArc
 50
81.14562423575737
 51
16.6507017804859
  0
CIRCLE
  5
A5
330
2
100
AcDbEntity
  8
0
100
AcDbCircle
 10
137.6847696506111
 20
242.9711967884426
 30
0.0
 40
3.3235
  0
LINE
  5
B8
330
2
100
AcDbEntity
  8
0
100
AcDbLine
 10
272.1847696506111
 20
199.4148476023388
 30
0.0
 11
233.1847696506111
 21
199.4148476023388
 31
0.0
1001
ACAD
1000
ASC_BOUNDS
1002
{
1070
    19
1005
0
1002
}
  0
ARC
  5
B9
330
2
100
AcDbEntity
  8
0
100
AcDbCircle
 10
242.4347696506111
 20
223.0648476023389
 30
0.0
 40
23.65000000000001
100
AcDbArc
 50
250.1483977684151
 51
289.8516022315849
  0
LINE
  5
BA
330
2
100
AcDbEntity
  8
0
100
AcDbLine
 10
275.1847696506111
 20
229.4148476023387
 30
0.0
 11
230.1847696506111
 21
229.4148476023387
 31
0.0
1001
ACAD
1000
ASC_BOUNDS
1002
{
1070
    19
1002
}
  0
LINE
  5
BB
330
2
100
AcDbEntity
  8
0
100
AcDbLine
 10
237.1847696506111
 20
220.5695481407182
 30
0.0
 11
275.1847696506111
 21
220.5695481407181
 31
0.0
  0
ARC
  5
BC
330
2
100
AcDbEntity
  8
0
100
AcDbCircle
 10
242.4347696506111
 20
196.9195481407182
 30
0.0
 40
23.65000000000001
100
AcDbArc
 50
70.14839776841511
 51
102.8257844304605
  0
LINE
  5
BD
330
2
100
AcDbEntity
  8
0
100
AcDbLine
 10
156.1847696506111
 20
229.4148476023387
 30
0.0
 11
273.1847696506111
 21
229.4148476023387
 31
0.0
1001
ACAD
1000
ASC_BOUNDS
1002
{
1070
    19
1005
0
1002
}
  0
LINE
  5
BE
330
2
100
AcDbEntity
  8
0
100
AcDbLine
 10
178.9035804485065
 20
200.8202415145701
 30
0.0
 11
178.9035804485065
 21
219.164154228487
 31
0.0
  0
LINE
  5
BF
330
2
100
AcDbEntity
  8
0
100
AcDbLine
 10
174.4659588527156
 20
200.8202415145701
 30
0.0
 11
174.4659588527156
 21
219.164154228487
 31
0.0
  0
LINE
  5
C0
330
2
100
AcDbEntity
  8
0
100
AcDbLine
 10
158.4035804485065
 20
200.8202415145701
 30
0.0
 11
158.4035804485065
 21
219.164154228487
 31
0.0
  0
LINE
  5
C1
330
2
100
AcDbEntity
  8
0
100
AcDbLine
 10
234.4035804485065
 20
200.8202415145701
 30
0.0
 11
234.4035804485065
 21
218.4148476023378
 31
0.0
  0
LINE
  5
C2
330
2
100
AcDbEntity
  8
0
100
AcDbLine
 10
232.1847696506111
 20
200.4148476023388
 30
0.0
 11
232.1847696506111
 21
218.4148476023378
 31
0.0
1001
ACAD
1000
ASC_BOUNDS
1002
{
1070
    19
1002
}
  0
LINE
  5
C3
330
2
100
AcDbEntity
  8
0
100
AcDbLine
 10
194.9659588527156
 20
200.8202415145701
 30
0.0
 11
194.9659588527156
 21
218.4148476023378
 31
0.0
  0
LINE
  5
C4
330
2
100
AcDbEntity
  8
0
100
AcDbLine
 10
197.1847696506111
 20
200.4148476023388
 30
0.0
 11
197.1847696506111
 21
218.4148476023378
 31
0.0
1001
ACAD
1000
ASC_BOUNDS
1002
{
1070
    19
1002
}
  0
LINE
  5
C5
330
2
100
AcDbEntity
  8
0
100
AcDbLine
 10
156.1847696506111
 20
200.4148476023388
 30
0.0
 11
156.1847696506111
 21
219.4148476023389
 31
0.0
1001
ACAD
1000
ASC_BOUNDS
1002
{
1070
    19
1002
}
  0
LINE
  5
C7
330
2
100
AcDbEntity
  8
MITTE
 48
7.0
100
AcDbLine
 10
176.6847696506111
 20
196.3570869947324
 30
0.0
 11
176.6847696506111
 21
232.7481218328295
 31
0.0
  0
LINE
  5
C8
330
2
100
AcDbEntity
  8
0
100
AcDbLine
 10
174.4659588527156
 20
200.8202415145701
 30
0.0
 11
178.9035804485065
 21
200.8202415145701
 31
0.0
  0
LINE
  5
C9
330
2
100
AcDbEntity
  8
0
100
AcDbLine
 10
196.1847696506111
 20
199.4148476023388
 30
0.0
 11
157.1847696506111
 21
199.4148476023388
 31
0.0
1001
ACAD
1000
ASC_BOUNDS
1002
{
1070
    19
1005
0
1002
}
  0
ARC
  5
CA
330
2
100
AcDbEntity
  8
0
100
AcDbCircle
 10
166.434769650611
 20
223.0648476023389
 30
0.0
 40
23.65000000000001
100
AcDbArc
 50
250.1483977684151
 51
289.8516022315849
  0
LINE
  5
CB
330
2
100
AcDbEntity
  8
0
100
AcDbLine
 10
156.1847696506111
 20
200.4148476023388
 30
0.0
 11
157.1847696506111
 21
199.4148476023388
 31
0.0
1001
ACAD
1000
ASC_BOUNDS
1002
{
1070
    19
1002
}
  0
LINE
  5
CC
330
2
100
AcDbEntity
  8
0
100
AcDbLine
 10
156.1847696506111
 20
200.4148476023388
 30
0.0
 11
158.4035804485065
 21
200.8202415145701
 31
0.0
  0
ARC
  5
CD
330
2
100
AcDbEntity
  8
0
100
AcDbCircle
 10
186.9347696506111
 20
223.0648476023389
 30
0.0
 40
23.65000000000001
100
AcDbArc
 50
250.1483977684151
 51
289.8516022315849
  0
LINE
  5
CE
330
2
100
AcDbEntity
  8
0
100
AcDbLine
 10
197.1847696506111
 20
200.4148476023388
 30
0.0
 11
196.1847696506111
 21
199.4148476023388
 31
0.0
1001
ACAD
1000
ASC_BOUNDS
1002
{
1070
    19
1002
}
  0
LINE
  5
CF
330
2
100
AcDbEntity
  8
0
100
AcDbLine
 10
194.9659588527156
 20
200.8202415145701
 30
0.0
 11
197.1847696506111
 21
200.4148476023388
 31
0.0
  0
LINE
  5
D1
330
2
100
AcDbEntity
  8
0
100
AcDbLine
 10
232.1847696506111
 20
200.4148476023388
 30
0.0
 11
233.1847696506111
 21
199.4148476023388
 31
0.0
1001
ACAD
1000
ASC_BOUNDS
1002
{
1070
    19
1002
}
  0
LINE
  5
D2
330
2
100
AcDbEntity
  8
0
100
AcDbLine
 10
232.1847696506111
 20
200.4148476023388
 30
0.0
 11
234.4035804485065
 21
200.8202415145701
 31
0.0
  0
LINE
  5
D3
330
2
100
AcDbEntity
  8
0
100
AcDbLine
 10
188.2387240700342
 20
229.4148476023387
 30
0.0
 11
241.896666675411
 21
229.4148476023387
 31
0.0
  0
LINE
  5
D4
330
2
100
AcDbEntity
  8
0
100
AcDbLine
 10
192.2352799078281
 20
218.4148476023378
 30
0.0
 11
237.1342593933941
 21
218.4148476023378
 31
0.0
  0
LINE
  5
D5
330
2
100
AcDbEntity
  8
0
100
AcDbLine
 10
214.684769650611
 20
216.9711967884426
 30
0.0
 11
197.1847696506111
 21
216.9711967884426
 31
0.0
  0
ARC
  5
D6
330
2
100
AcDbEntity
  8
0
100
AcDbCircle
 10
194.4066441136933
 20
239.4148476023387
 30
0.0
 40
10.0
100
AcDbArc
 50
229.0739366903954
 51
270.0
1001
ACAD
1000
ASC_BOUNDS
1002
{
1070
    19
1005
0
1002
}
  0
LINE
  5
D7
330
2
100
AcDbEntity
  8
0
100
AcDbLine
 10
174.4659588527156
 20
219.164154228487
 30
0.0
 11
178.9035804485065
 21
219.164154228487
 31
0.0
  0
ARC
  5
D8
330
2
100
AcDbEntity
  8
0
100
AcDbCircle
 10
166.434769650611
 20
196.9195481407182
 30
0.0
 40
23.65000000000001
100
AcDbArc
 50
70.14839776841511
 51
109.8516022315848
  0
LINE
  5
D9
330
2
100
AcDbEntity
  8
0
100
AcDbLine
 10
156.1847696506111
 20
219.4148476023389
 30
0.0
 11
158.4035804485065
 21
219.164154228487
 31
0.0
  0
ARC
  5
DA
330
2
100
AcDbEntity
  8
0
100
AcDbCircle
 10
194.6847696506111
 20
218.9148476023387
 30
0.0
 40
2.5
100
AcDbArc
 50
180.0
 51
191.5369590328368
  0
ARC
  5
DB
330
2
100
AcDbEntity
  8
0
100
AcDbCircle
 10
186.9347696506111
 20
196.9195481407182
 30
0.0
 40
23.65000000000001
100
AcDbArc
 50
77.17421556953865
 51
109.8516022315849
  0
LINE
  5
DC
330
2
100
AcDbEntity
  8
0
100
AcDbLine
 10
192.1847696506111
 20
226.9148476023387
 30
0.0
 11
192.1847696506111
 21
218.9148476023387
 31
0.0
  0
ARC
  5
DD
330
2
100
AcDbEntity
  8
0
100
AcDbCircle
 10
189.6847696506111
 20
226.9148476023387
 30
0.0
 40
2.5
100
AcDbArc
 50
0.0
 51
90.0
  0
ARC
  5
DE
330
2
100
AcDbEntity
  8
0
100
AcDbCircle
 10
234.9628951875288
 20
239.4148476023387
 30
0.0
 40
10.0
100
AcDbArc
 50
270.0
 51
310.9260633096046
1001
ACAD
1000
ASC_BOUNDS
1002
{
1070
    19
1005
0
1002
}
  0
ARC
  5
DF
330
2
100
AcDbEntity
  8
0
100
AcDbCircle
 10
214.6847696506111
 20
289.9711967884426
 30
0.0
 40
73.0
100
AcDbArc
 50
270.0
 51
281.4136777865659
  0
ARC
  5
E0
330
2
100
AcDbEntity
  8
0
100
AcDbCircle
 10
234.6847696506111
 20
218.9148476023387
 30
0.0
 40
2.5
100
AcDbArc
 50
348.4630409671634
 51
0.0
  0
ARC
  5
E1
330
2
100
AcDbEntity
  8
0
100
AcDbCircle
 10
239.6847696506111
 20
226.9148476023387
 30
0.0
 40
2.5
100
AcDbArc
 50
90.0
 51
180.0
  0
LINE
  5
E2
330
2
100
AcDbEntity
  8
0
100
AcDbLine
 10
237.1847696506111
 20
226.9148476023387
 30
0.0
 11
237.1847696506111
 21
218.9148476023387
 31
0.0
  0
LINE
  5
E3
330
2
100
AcDbEntity
  8
0
100
AcDbLine
 10
270.9659588527156
 20
200.8202415145701
 30
0.0
 11
270.9659588527156
 21
219.164154228487
 31
0.0
  0
LINE
  5
E4
330
2
100
AcDbEntity
  8
0
100
AcDbLine
 10
273.1847696506111
 20
200.4148476023388
 30
0.0
 11
273.1847696506111
 21
219.4148476023389
 31
0.0
1001
ACAD
1000
ASC_BOUNDS
1002
{
1070
    19
1002
}
  0
LINE
  5
E5
330
2
100
AcDbEntity
  8
0
100
AcDbLine
 10
250.4659588527156
 20
200.8202415145701
 30
0.0
 11
250.4659588527156
 21
219.164154228487
 31
0.0
  0
LINE
  5
E6
330
2
100
AcDbEntity
  8
0
100
AcDbLine
 10
254.9035804485066
 20
200.8202415145701
 30
0.0
 11
254.9035804485066
 21
219.164154228487
 31
0.0
  0
LINE
  5
E8
330
2
100
AcDbEntity
  8
MITTE
 48
7.0
100
AcDbLine
 10
252.6847696506111
 20
196.3570869947324
 30
0.0
 11
252.6847696506111
 21
232.7481218328295
 31
0.0
  0
ARC
  5
E9
330
2
100
AcDbEntity
  8
0
100
AcDbCircle
 10
262.9347696506111
 20
223.0648476023389
 30
0.0
 40
23.65000000000001
100
AcDbArc
 50
250.1483977684151
 51
289.8516022315849
  0
LINE
  5
EA
330
2
100
AcDbEntity
  8
0
100
AcDbLine
 10
250.4659588527156
 20
200.8202415145701
 30
0.0
 11
254.9035804485066
 21
200.8202415145701
 31
0.0
  0
LINE
  5
EB
330
2
100
AcDbEntity
  8
0
100
AcDbLine
 10
273.1847696506111
 20
200.4148476023388
 30
0.0
 11
272.1847696506111
 21
199.4148476023388
 31
0.0
1001
ACAD
1000
ASC_BOUNDS
1002
{
1070
    19
1002
}
  0
LINE
  5
EC
330
2
100
AcDbEntity
  8
0
100
AcDbLine
 10
270.9659588527156
 20
200.8202415145701
 30
0.0
 11
273.1847696506111
 21
200.4148476023388
 31
0.0
  0
ARC
  5
ED
330
2
100
AcDbEntity
  8
0
100
AcDbCircle
 10
273.1847696506111
 20
231.9148476023387
 30
0.0
 40
2.5
100
AcDbArc
 50
270.0
 51
0.0
  0
ARC
  5
EE
330
2
100
AcDbEntity
  8
0
100
AcDbCircle
 10
273.1847696506111
 20
231.9148476023387
 30
0.0
 40
2.5
100
AcDbArc
 50
270.0
 51
0.0
  0
ARC
  5
EF
330
2
100
AcDbEntity
  8
0
100
AcDbCircle
 10
262.9347696506111
 20
196.9195481407182
 30
0.0
 40
23.65000000000001
100
AcDbArc
 50
70.14839776841509
 51
109.8516022315849
  0
LINE
  5
F0
330
2
100
AcDbEntity
  8
0
100
AcDbLine
 10
250.4659588527156
 20
219.164154228487
 30
0.0
 11
254.9035804485066
 21
219.164154228487
 31
0.0
  0
LINE
  5
F1
330
2
100
AcDbEntity
  8
0
100
AcDbLine
 10
275.1847696506111
 20
220.5695481407181
 30
0.0
 11
275.1847696506111
 21
229.4148476023387
 31
0.0
1001
ACAD
1000
ASC_BOUNDS
1002
{
1070
    19
1002
}
  0
LINE
  5
F2
330
2
100
AcDbEntity
  8
0
100
AcDbLine
 10
273.1847696506111
 20
219.4148476023389
 30
0.0
 11
270.9659588527156
 21
219.164154228487
 31
0.0
  0
LINE
  5
F3
330
2
100
AcDbEntity
  8
0
100
AcDbLine
 10
273.1847696506111
 20
219.4148476023389
 30
0.0
 11
275.1847696506111
 21
220.5695481407181
 31
0.0
1001
ACAD
1000
ASC_BOUNDS
1002
{
1070
    19
1002
}
  0
ARC
  5
103
330
2
100
AcDbEntity
  8
0
100
AcDbCircle
 10
511.6111180579173
 20
245.9711967884427
 30
0.0
 40
6.0
100
AcDbArc
 50
180.0000000000001
 51
269.9999999999997
1001
ACAD
1000
ASC_BOUNDS
1002
{
1070
    19
1002
}
  0
LINE
  5
104
330
2
100
AcDbEntity
  8
0
100
AcDbLine
 10
507.1389821029177
 20
241.9711967884426
 30
0.0
 11
460.6111180579172
 21
241.9711967884426
 31
0.0
  0
LINE
  5
105
330
2
100
AcDbEntity
  8
0
100
AcDbLine
 10
460.6111180579171
 20
231.9711967884426
 30
0.0
 11
458.611118057917
 21
229.9711967884426
 31
0.0
  0
LINE
  5
106
330
2
100
AcDbEntity
  8
0
100
AcDbLine
 10
447.1111180579173
 20
229.9711967884426
 30
0.0
 11
458.611118057917
 21
229.9711967884426
 31
0.0
  0
ARC
  5
107
330
2
100
AcDbEntity
  8
0
100
AcDbCircle
 10
553.6111180579171
 20
223.9711967884426
 30
0.0
 40
6.0
100
AcDbArc
 50
180.0000000000002
 51
269.9999999999999
1001
ACAD
1000
ASC_BOUNDS
1002
{
1070
    19
1002
}
  0
LINE
  5
108
330
2
100
AcDbEntity
  8
0
100
AcDbLine
 10
524.6111180579173
 20
239.9711967884426
 30
0.0
 11
549.8089234223828
 21
219.3297190115365
 31
0.0
  0
ARC
  5
109
330
2
100
AcDbEntity
  8
0
100
AcDbCircle
 10
537.6111180579171
 20
229.9711967884426
 30
0.0
 40
10.0
100
AcDbArc
 50
0.0000000000000254
 51
89.99999999999998
1001
ACAD
1000
ASC_BOUNDS
1002
{
1070
    19
1002
}
  0
LINE
  5
10A
330
2
100
AcDbEntity
  8
0
100
AcDbLine
 10
547.6111180579171
 20
229.9711967884426
 30
0.0
 11
547.6111180579171
 21
223.9711967884426
 31
0.0
1001
ACAD
1000
ASC_BOUNDS
1002
{
1070
    19
1002
}
  0
LINE
  5
10B
330
2
100
AcDbEntity
  8
0
100
AcDbLine
 10
511.6111180579172
 20
239.9711967884428
 30
0.0
 11
537.6111180579171
 21
239.9711967884426
 31
0.0
1001
ACAD
1000
ASC_BOUNDS
1002
{
1070
    19
1002
}
  0
LINE
  5
10C
330
2
100
AcDbEntity
  8
0
100
AcDbLine
 10
553.6111180579171
 20
217.9711967884426
 30
0.0
 11
575.611118057917
 21
217.9711967884426
 31
0.0
1001
ACAD
1000
ASC_BOUNDS
1002
{
1070
    19
1002
}
  0
ARC
  5
10D
330
2
100
AcDbEntity
  8
0
100
AcDbCircle
 10
575.611118057917
 20
215.4711967884426
 30
0.0
 40
2.5
100
AcDbArc
 50
36.86989764584426
 51
89.99999999999998
1001
ACAD
1000
ASC_BOUNDS
1002
{
1070
    19
1002
}
  0
ARC
  5
111
330
2
100
AcDbEntity
  8
0
100
AcDbCircle
 10
214.6847696506111
 20
299.4148476023387
 30
0.0
 40
61.0
100
AcDbArc
 50
0.0
 51
180.0
1001
ACAD
1000
ASC_BOUNDS
1002
{
1070
    19
1005
0
1002
}
  0
ARC
  5
112
330
2
100
AcDbEntity
  8
0
100
AcDbCircle
 10
214.6847696506111
 20
319.9711967884426
 30
0.0
 40
89.0
100
AcDbArc
 50
105.2685646988464
 51
164.7314353011536
  0
CIRCLE
  5
113
330
2
100
AcDbEntity
  8
0
100
AcDbCircle
 10
156.6847696506111
 20
346.9711967884426
 30
0.0
 40
3.3235
  0
LINE
  5
114
330
2
100
AcDbEntity
  8
0
100
AcDbLine
 10
152.8791743810225
 20
358.3517699130303
 30
0.0
 11
196.9253250591978
 21
373.0805380365181
 31
0.0
  0
ARC
  5
115
330
2
100
AcDbEntity
  8
LINIE
 48
10.0
100
AcDbCircle
 10
156.6847696506111
 20
346.9711967884426
 30
0.0
 40
4.0
100
AcDbArc
 50
81.14562423575737
 51
16.6507017804859
  0
LINE
  5
116
330
2
100
AcDbEntity
  8
MITTE
 48
10.0
100
AcDbLine
 10
161.3169467966763
 20
346.9711967884426
 30
0.0
 11
142.508689130182
 21
346.9711967884426
 31
0.0
  0
LINE
  5
117
330
2
100
AcDbEntity
  8
MITTE
 48
5.0
100
AcDbLine
 10
157.3954293076246
 20
329.9711967884426
 30
0.0
 11
148.73390290455
 21
329.9711967884426
 31
0.0
  0
ARC
  5
118
330
2
100
AcDbEntity
  8
MITTE
 48
15.0
100
AcDbCircle
 10
214.6847696506111
 20
319.9711967884426
 30
0.0
 40
72.5
100
AcDbArc
 50
126.5931189888055
 51
144.1811683713762
  0
LINE
  5
119
330
2
100
AcDbEntity
  8
MITTE
 48
20.0
100
AcDbLine
 10
250.4889135874115
 20
319.9711967884426
 30
0.0
 11
120.957693460959
 21
319.9711967884426
 31
0.0
  0
LINE
  5
11A
330
2
100
AcDbEntity
  8
MITTE
 48
10.0
100
AcDbLine
 10
298.5167640125742
 20
264.1648476023387
 30
0.0
 11
131.4623491537077
 21
264.1648476023387
 31
0.0
  0
LINE
  5
11B
330
2
100
AcDbEntity
  8
MITTE
 48
10.0
100
AcDbLine
 10
145.6582668967544
 20
299.4148476023387
 30
0.0
 11
282.2030484192999
 21
299.4148476023387
 31
0.0
  0
ARC
  5
11C
330
2
100
AcDbEntity
  8
0
100
AcDbCircle
 10
156.6847696506111
 20
346.9711967884426
 30
0.0
 40
12.0
100
AcDbArc
 50
108.4896255071067
 51
169.6466799560706
  0
ARC
  5
11D
330
2
100
AcDbEntity
  8
0
100
AcDbCircle
 10
156.8653397769903
 20
299.6240459659503
 30
0.0
 40
8.0
100
AcDbArc
 50
109.6254537415547
 51
181.4984437231788
  0
ARC
  5
11E
330
2
100
AcDbEntity
  8
0
100
AcDbCircle
 10
214.6847696506111
 20
319.9711967884426
 30
0.0
 40
88.0
100
AcDbArc
 50
164.5202251796851
 51
202.5209141936015
  0
ARC
  5
11F
330
2
100
AcDbEntity
  8
0
100
AcDbCircle
 10
214.6847696506111
 20
299.4148476023389
 30
0.0
 40
65.81669415865359
100
AcDbArc
 50
179.5853943548263
 51
202.0561142201632
  0
CIRCLE
  5
120
330
2
100
AcDbEntity
  8
0
100
AcDbCircle
 10
152.6847696506111
 20
329.9711967884426
 30
0.0
 40
1.95
  0
LINE
  5
121
330
2
100
AcDbEntity
  8
MITTE
 48
5.0
100
AcDbLine
 10
152.6847696506111
 20
334.2653238552024
 30
0.0
 11
152.6847696506111
 21
325.6464904019095
 31
0.0
  0
ARC
  5
122
330
2
100
AcDbEntity
  8
0
100
AcDbCircle
 10
126.2964220022927
 20
408.3595444367611
 30
0.0
 40
65.0
100
AcDbArc
 50
272.2305728409485
 51
286.0711476672093
  0
LINE
  5
123
330
2
100
AcDbEntity
  8
0
100
AcDbLine
 10
283.1882511951446
 20
347.6347651822298
 30
0.0
 11
240.3676835251013
 21
369.7345159594497
 31
0.0
  0
ARC
  5
124
330
2
100
AcDbEntity
  8
0
100
AcDbCircle
 10
214.6847696506111
 20
319.9711967884426
 30
0.0
 40
89.0
100
AcDbArc
 50
15.26856469884635
 51
74.73143530115361
  0
ARC
  5
125
330
2
100
AcDbEntity
  8
0
100
AcDbCircle
 10
214.6847696506111
 20
319.9711967884426
 30
0.0
 40
48.0
100
AcDbArc
 50
30.25955070531863
 51
149.7404492946814
  0
LINE
  5
126
330
2
100
AcDbEntity
  8
MITTE
 48
10.0
100
AcDbLine
 10
156.6847696506111
 20
360.674844265519
 30
0.0
 11
156.6847696506111
 21
341.3965405971274
 31
0.0
  0
ARC
  5
127
330
2
100
AcDbEntity
  8
0
100
AcDbCircle
 10
272.5041995242318
 20
299.6240459659503
 30
0.0
 40
8.0
100
AcDbArc
 50
293.4264341163755
 51
70.37454625844524
  0
LINE
  5
128
330
2
100
AcDbEntity
  8
0
100
AcDbLine
 10
300.1700510248496
 20
311.4859154142041
 30
0.0
 11
290.159539490097
 21
301.4754038794515
 31
0.0
  0
ARC
  5
129
330
2
100
AcDbEntity
  8
0
100
AcDbCircle
 10
214.6847696506111
 20
319.9711967884426
 30
0.0
 40
88.0
100
AcDbArc
 50
321.1089922459286
 51
356.6614237975703
  0
ARC
  5
12A
330
2
100
AcDbEntity
  8
0
100
AcDbCircle
 10
296.5235005207759
 20
295.1114428487725
 30
0.0
 40
9.0
100
AcDbArc
 50
135.0000000000002
 51
183.5939954930959
  0
LINE
  5
12B
330
2
100
AcDbEntity
  8
0
100
AcDbLine
 10
300.9479324780155
 20
327.5996838227758
 30
0.0
 11
286.9479324780157
 21
344.5996838227758
 31
0.0
  0
ARC
  5
12C
330
2
100
AcDbEntity
  8
0
100
AcDbCircle
 10
303.0731172989296
 20
408.359544436761
 30
0.0
 40
65.0
100
AcDbArc
 50
254.7469712997374
 51
267.7694271590507
  0
LINE
  5
12D
330
2
100
AcDbEntity
  8
MITTE
 48
20.0
100
AcDbLine
 10
307.7654498514198
 20
319.9711967884426
 30
0.0
 11
261.7404048222835
 21
319.9711967884426
 31
0.0
  0
ARC
  5
12E
330
2
100
AcDbEntity
  8
0
100
AcDbCircle
 10
277.6847696506111
 20
336.9711967884426
 30
0.0
 40
12.0
100
AcDbArc
 50
39.47245984834387
 51
62.70168236142314
  0
ARC
  5
12F
330
2
100
AcDbEntity
  8
0
100
AcDbCircle
 10
214.6847696506111
 20
319.9711967884426
 30
0.0
 40
88.0
100
AcDbArc
 50
3.338576202429692
 51
15.47977482031475
  0
LINE
  5
130
330
2
100
AcDbEntity
  8
MITTE
 48
10.0
100
AcDbLine
 10
291.6847696506111
 20
334.0001091525406
 30
0.0
 11
291.6847696506111
 21
307.1264755806493
 31
0.0
  0
ARC
  5
131
330
2
100
AcDbEntity
  8
0
100
AcDbCircle
 10
291.6847696506111
 20
319.9711967884426
 30
0.0
 40
12.0
100
AcDbArc
 50
315.0000000000002
 51
39.47245984834387
  0
ARC
  5
132
330
2
100
AcDbEntity
  8
LINIE
 48
10.0
100
AcDbCircle
 10
291.6847696506111
 20
319.9711967884426
 30
0.0
 40
4.0
100
AcDbArc
 50
81.14562423575737
 51
16.6507017804859
  0
CIRCLE
  5
133
330
2
100
AcDbEntity
  8
0
100
AcDbCircle
 10
291.6847696506111
 20
319.9711967884426
 30
0.0
 40
3.3235
  0
ARC
  5
134
330
2
100
AcDbEntity
  8
0
100
AcDbCircle
 10
303.0731172989296
 20
408.359544436761
 30
0.0
 40
65.0
100
AcDbArc
 50
182.2305728409488
 51
228.7467412799729
  0
ARC
  5
135
330
2
100
AcDbEntity
  8
0
100
AcDbCircle
 10
126.2964220022927
 20
408.3595444367611
 30
0.0
 40
65.0
100
AcDbArc
 50
319.2477660926265
 51
357.769427159051
  0
ARC
  5
136
330
2
100
AcDbEntity
  8
0
100
AcDbCircle
 10
214.6847696506111
 20
319.9711967884426
 30
0.0
 40
56.0
100
AcDbArc
 50
62.70168236142314
 51
108.4896255071067
  0
LINE
  5
137
330
2
100
AcDbEntity
  8
MITTE
 48
10.0
100
AcDbLine
 10
169.793081900598
 20
364.8628845384551
 30
0.0
 11
155.8093591040806
 21
378.8466073349724
 31
0.0
  0
CIRCLE
  5
138
330
2
100
AcDbEntity
  8
0
100
AcDbCircle
 10
163.4195280145865
 20
371.2364384244673
 30
0.0
 40
5.75
  0
LINE
  5
139
330
2
100
AcDbEntity
  8
0
100
AcDbLine
 10
219.6847696506111
 20
395.4711967884426
 30
0.0
 11
219.6847696506111
 21
375.74753585798
 31
0.0
  0
LINE
  5
13A
330
2
100
AcDbEntity
  8
0
100
AcDbLine
 10
209.6847696506111
 20
395.4711967884427
 30
0.0
 11
209.6847696506111
 21
375.74753585798
 31
0.0
  0
ARC
  5
13B
330
2
100
AcDbEntity
  8
0
100
AcDbCircle
 10
215.0959864818162
 20
357.2414977823915
 30
0.0
 40
8.0
100
AcDbArc
 50
19.35914998622957
 51
159.8259803411059
  0
ARC
  5
13C
330
2
100
AcDbEntity
  8
0
100
AcDbCircle
 10
212.1847696506111
 20
395.4711967884427
 30
0.0
 40
2.5
100
AcDbArc
 50
90.0
 51
180.0
  0
ARC
  5
13D
330
2
100
AcDbEntity
  8
0
100
AcDbCircle
 10
217.1847696506111
 20
395.4711967884426
 30
0.0
 40
2.5
100
AcDbArc
 50
0.0
 51
90.0
  0
LINE
  5
13E
330
2
100
AcDbEntity
  8
0
100
AcDbLine
 10
212.1847696506111
 20
397.9711967884427
 30
0.0
 11
217.1847696506111
 21
397.9711967884426
 31
0.0
  0
ARC
  5
13F
330
2
100
AcDbEntity
  8
0
100
AcDbCircle
 10
214.6847696506111
 20
319.9711967884426
 30
0.0
 40
88.0
100
AcDbArc
 50
74.52022517968521
 51
105.4797748203147
  0
LINE
  5
140
330
2
100
AcDbEntity
  8
MITTE
 48
10.0
100
AcDbLine
 10
259.4710920892957
 20
364.7575192271276
 30
0.0
 11
272.3492716063834
 21
377.6356987442154
 31
0.0
  0
ARC
  5
141
330
2
100
AcDbEntity
  8
MITTE
 48
15.0
100
AcDbCircle
 10
214.6847696506111
 20
319.9711967884426
 30
0.0
 40
72.5
100
AcDbArc
 50
36.42334422562012
 51
53.51171634009422
  0
CIRCLE
  5
142
330
2
100
AcDbEntity
  8
0
100
AcDbCircle
 10
265.9500112866358
 20
371.2364384244672
 30
0.0
 40
5.75
  0
LINE
  5
16E
330
2
100
AcDbEntity
  8
0
100
AcDbLine
 10
378.1611180579173
 20
302.4711967884426
 30
0.0
 11
443.6611180579173
 21
302.4711967884426
 31
0.0
  0
LINE
  5
16F
330
2
100
AcDbEntity
  8
0
100
AcDbLine
 10
378.1611180579173
 20
337.4711967884426
 30
0.0
 11
443.6611180579173
 21
337.4711967884426
 31
0.0
  0
LINE
  5
170
330
2
100
AcDbEntity
  8
0
100
AcDbLine
 10
386.1611180579173
 20
340.7711967884426
 30
0.0
 11
436.1611180579172
 21
340.7711967884426
 31
0.0
  0
LINE
  5
189
330
2
100
AcDbEntity
  8
0
100
AcDbLine
 10
378.1611180579173
 20
302.4711967884426
 30
0.0
 11
376.1611180579173
 21
304.4711967884426
 31
0.0
  0
LINE
  5
18A
330
2
100
AcDbEntity
  8
0
100
AcDbLine
 10
378.1611180579173
 20
337.4711967884426
 30
0.0
 11
378.1611180579173
 21
302.4711967884426
 31
0.0
  0
LINE
  5
18B
330
2
100
AcDbEntity
  8
0
100
AcDbLine
 10
378.1611180579173
 20
337.4711967884426
 30
0.0
 11
376.1611180579173
 21
335.4711967884426
 31
0.0
  0
LINE
  5
18C
330
2
100
AcDbEntity
  8
0
100
AcDbLine
 10
376.1611180579173
 20
335.4711967884426
 30
0.0
 11
376.1611180579173
 21
304.4711967884427
 31
0.0
  0
LINE
  5
18D
330
2
100
AcDbEntity
  8
0
100
AcDbLine
 10
386.1611180579173
 20
337.4711967884427
 30
0.0
 11
386.1611180579173
 21
340.7711967884426
 31
0.0
  0
LINE
  5
18E
330
2
100
AcDbEntity
  8
0
100
AcDbLine
 10
520.6111180579171
 20
368.9711967884426
 30
0.0
 11
520.6111180579171
 21
276.4379535285589
 31
0.0
  0
ARC
  5
18F
330
2
100
AcDbEntity
  8
0
100
AcDbCircle
 10
510.6111180579171
 20
363.4711967884426
 30
0.0
 40
10.0
100
AcDbArc
 50
270.0
 51
0.0
1001
ACAD
1000
ASC_BOUNDS
1002
{
1070
    19
1002
}
  0
ARC
  5
190
330
2
100
AcDbEntity
  8
0
100
AcDbCircle
 10
492.611118057917
 20
355.9711967884426
 30
0.0
 40
2.5
100
AcDbArc
 50
270.0000000000026
 51
0.0000000000000127
  0
ARC
  5
191
330
2
100
AcDbEntity
  8
0
100
AcDbCircle
 10
482.2532536816481
 20
363.4711967884426
 30
0.0
 40
10.0
100
AcDbArc
 50
225.0
 51
270.0
1001
ACAD
1000
ASC_BOUNDS
1002
{
1070
    19
1002
}
  0
LINE
  5
19F
330
2
100
AcDbEntity
  8
LINIE
  6
GESTRICHELT
 48
10.0
100
AcDbLine
 10
452.1111180579172
 20
382.2711967884426
 30
0.0
 11
452.1111180579173
 21
257.6711967884427
 31
0.0
1001
ACAD
1000
ASC_BOUNDS
1002
{
1070
    19
1002
}
  0
LINE
  5
1A1
330
2
100
AcDbEntity
  8
0
100
AcDbLine
 10
510.6111180579171
 20
324.9711967884426
 30
0.0
 11
470.611118057917
 21
324.9711967884426
 31
0.0
  0
LINE
  5
1A2
330
2
100
AcDbEntity
  8
0
100
AcDbLine
 10
510.6111180579171
 20
314.9711967884426
 30
0.0
 11
470.611118057917
 21
314.9711967884426
 31
0.0
  0
LINE
  5
1A3
330
2
100
AcDbEntity
  8
0
100
AcDbLine
 10
446.7611180579173
 20
342.4711967884426
 30
0.0
 11
446.7611180579173
 21
297.4711967884426
 31
0.0
  0
LINE
  5
1A4
330
2
100
AcDbEntity
  8
0
100
AcDbLine
 10
446.1611180579173
 20
342.1247866269289
 30
0.0
 11
446.1611180579173
 21
297.8176069499564
 31
0.0
  0
ARC
  5
1A5
330
2
100
AcDbEntity
  8
0
100
AcDbCircle
 10
470.6111180579171
 20
268.9711967884426
 30
0.0
 40
10.0
100
AcDbArc
 50
103.6002851900802
 51
179.9999999999999
1001
ACAD
1000
ASC_BOUNDS
1002
{
1070
    19
1002
}
  0
LINE
  5
1A6
330
2
100
AcDbEntity
  8
LINIE
  6
GESTRICHELT
 48
10.0
100
AcDbLine
 10
447.1111180579173
 20
257.4711967884426
 30
0.0
 11
451.9111180579172
 21
257.4711967884426
 31
0.0
  0
ARC
  5
1A7
330
2
100
AcDbEntity
  8
LINIE
  6
GESTRICHELT
 48
10.0
100
AcDbCircle
 10
451.9111180579172
 20
257.6711967884427
 30
0.0
 40
0.2
100
AcDbArc
 50
270.0
 51
0.0000000000000509
1001
ACAD
1000
ASC_BOUNDS
1002
{
1070
    19
1002
}
  0
ARC
  5
1A8
330
2
100
AcDbEntity
  8
0
100
AcDbCircle
 10
443.6611180579173
 20
299.9711967884426
 30
0.0
 40
2.5
100
AcDbArc
 50
0.0
 51
90.0
  0
LINE
  5
1A9
330
2
100
AcDbEntity
  8
0
100
AcDbLine
 10
446.7611180579173
 20
297.4711967884426
 30
0.0
 11
447.1111180579172
 21
297.4711967884426
 31
0.0
  0
LINE
  5
1AA
330
2
100
AcDbEntity
  8
0
100
AcDbLine
 10
446.7611180579174
 20
297.4711967884426
 30
0.0
 11
446.1611180579173
 21
297.8176069499564
 31
0.0
  0
ARC
  5
1AB
330
2
100
AcDbEntity
  8
0
100
AcDbCircle
 10
495.6111180579171
 20
276.4711967884426
 30
0.0
 40
10.0
100
AcDbArc
 50
0.0000000000000254
 51
89.99999999999996
1001
ACAD
1000
ASC_BOUNDS
1002
{
1070
    19
1002
}
  0
ARC
  5
1AC
330
2
100
AcDbEntity
  8
0
100
AcDbCircle
 10
465.9081790370914
 20
288.4103933913476
 30
0.0
 40
10.0
100
AcDbArc
 50
283.6002851900806
 51
315.0000000000004
1001
ACAD
1000
ASC_BOUNDS
1002
{
1070
    19
1002
}
  0
LINE
  5
1AD
330
2
100
AcDbEntity
  8
0
100
AcDbLine
 10
495.6111180579171
 20
286.4711967884426
 30
0.0
 11
482.2532536816481
 21
286.4711967884426
 31
0.0
1001
ACAD
1000
ASC_BOUNDS
1002
{
1070
    19
1002
}
  0
ARC
  5
1AE
330
2
100
AcDbEntity
  8
0
100
AcDbCircle
 10
482.2532536816481
 20
276.4711967884426
 30
0.0
 40
10.0
100
AcDbArc
 50
89.99999999999998
 51
134.9999999999999
1001
ACAD
1000
ASC_BOUNDS
1002
{
1070
    19
1002
}
  0
LINE
  5
1AF
330
2
100
AcDbEntity
  8
0
100
AcDbLine
 10
472.9792468489569
 20
281.3393255794821
 30
0.0
 11
475.1821858697828
 21
283.5422646003081
 31
0.0
1001
ACAD
1000
ASC_BOUNDS
1002
{
1070
    19
1002
}
  0
ARC
  5
1B0
330
2
100
AcDbEntity
  8
0
100
AcDbCircle
 10
470.6111180579169
 20
304.9711967884426
 30
0.0
 40
10.0
100
AcDbArc
 50
89.99999999999998
 51
180.0
  0
ARC
  5
1B1
330
2
100
AcDbEntity
  8
0
100
AcDbCircle
 10
470.611118057917
 20
334.9711967884426
 30
0.0
 40
10.0
100
AcDbArc
 50
179.9999999999999
 51
270.0
  0
LINE
  5
1B2
330
2
100
AcDbEntity
  8
0
100
AcDbLine
 10
436.1611180579172
 20
337.4711967884426
 30
0.0
 11
436.1611180579172
 21
340.7711967884426
 31
0.0
  0
ARC
  5
1B3
330
2
100
AcDbEntity
  8
0
100
AcDbCircle
 10
443.6611180579173
 20
339.9711967884426
 30
0.0
 40
2.5
100
AcDbArc
 50
270.0
 51
0.0
  0
LINE
  5
1B4
330
2
100
AcDbEntity
  8
0
100
AcDbLine
 10
446.7611180579173
 20
342.4711967884426
 30
0.0
 11
447.111118057917
 21
342.4711967884426
 31
0.0
  0
LINE
  5
1B5
330
2
100
AcDbEntity
  8
0
100
AcDbLine
 10
446.7611180579173
 20
342.4711967884426
 30
0.0
 11
446.1611180579173
 21
342.1247866269289
 31
0.0
  0
ARC
  5
1B6
330
2
100
AcDbEntity
  8
0
100
AcDbCircle
 10
510.6111180579171
 20
334.9711967884426
 30
0.0
 40
10.0
100
AcDbArc
 50
270.0
 51
0.0
  0
ARC
  5
1B7
330
2
100
AcDbEntity
  8
0
100
AcDbCircle
 10
510.6111180579171
 20
304.9711967884426
 30
0.0
 40
10.0
100
AcDbArc
 50
0.0
 51
89.99999999999998
  0
LINE
  5
1B8
330
2
100
AcDbEntity
  8
0
100
AcDbLine
 10
510.6111180579171
 20
353.4711967884426
 30
0.0
 11
482.2532536816481
 21
353.4711967884426
 31
0.0
1001
ACAD
1000
ASC_BOUNDS
1002
{
1070
    19
1002
}
  0
LINE
  5
1B9
330
2
100
AcDbEntity
  8
0
100
AcDbLine
 10
511.1111180579171
 20
356.9711967884426
 30
0.0
 11
495.1111180579171
 21
356.9711967884426
 31
0.0
  0
LINE
  5
1BA
330
2
100
AcDbEntity
  8
0
100
AcDbLine
 10
460.6111180579172
 20
397.9711967884426
 30
0.0
 11
521.549846422075
 21
374.06296229596
 31
0.0
  0
ARC
  5
1BB
330
2
100
AcDbEntity
  8
0
100
AcDbCircle
 10
470.6111180579171
 20
370.9711967884426
 30
0.0
 40
10.0
100
AcDbArc
 50
180.0
 51
256.3997148099197
1001
ACAD
1000
ASC_BOUNDS
1002
{
1070
    19
1002
}
  0
LINE
  5
1BC
330
2
100
AcDbEntity
  8
LINIE
  6
GESTRICHELT
 48
10.0
100
AcDbLine
 10
447.1111180579172
 20
382.4711967884426
 30
0.0
 11
451.9111180579172
 21
382.4711967884426
 31
0.0
  0
ARC
  5
1BD
330
2
100
AcDbEntity
  8
LINIE
  6
GESTRICHELT
 48
10.0
100
AcDbCircle
 10
451.9111180579172
 20
382.2711967884426
 30
0.0
 40
0.2
100
AcDbArc
 50
0.0000000000000636
 51
89.99999999999998
  0
LINE
  5
1BE
330
2
100
AcDbEntity
  8
0
100
AcDbLine
 10
472.9792468489569
 20
358.603067997403
 30
0.0
 11
475.1821858697828
 21
356.4001289765771
 31
0.0
1001
ACAD
1000
ASC_BOUNDS
1002
{
1070
    19
1002
}
  0
ARC
  5
1BF
330
2
100
AcDbEntity
  8
0
100
AcDbCircle
 10
465.9081790370914
 20
351.5320001855376
 30
0.0
 40
10.0
100
AcDbArc
 50
44.99999999999958
 51
76.39971480991937
1001
ACAD
1000
ASC_BOUNDS
1002
{
1070
    19
1002
}
  0
LINE
  5
1C0
330
2
100
AcDbEntity
  8
0
100
AcDbLine
 10
495.1111180579172
 20
356.9711967884426
 30
0.0
 11
495.1111180579172
 21
355.9711967884426
 31
0.0
1001
ACAD
1000
ASC_BOUNDS
1002
{
1070
    19
1005
0
1002
}
  0
LINE
  5
1C1
330
2
100
AcDbEntity
  8
0
100
AcDbLine
 10
506.1111180579171
 20
359.9711967884426
 30
0.0
 11
498.1111180579171
 21
359.9711967884426
 31
0.0
  0
LINE
  5
1C2
330
2
100
AcDbEntity
  8
0
100
AcDbLine
 10
507.1111180579171
 20
358.9711967884428
 30
0.0
 11
507.1111180579171
 21
356.9711967884428
 31
0.0
1001
ACAD
1000
ASC_BOUNDS
1002
{
1070
    19
1002
}
  0
LINE
  5
1C3
330
2
100
AcDbEntity
  8
0
100
AcDbLine
 10
507.1111180579171
 20
358.9711967884428
 30
0.0
 11
506.1111180579171
 21
359.9711967884426
 31
0.0
  0
LINE
  5
1C4
330
2
100
AcDbEntity
  8
0
100
AcDbLine
 10
497.111118057917
 20
358.9711967884428
 30
0.0
 11
497.111118057917
 21
356.9711967884426
 31
0.0
1001
ACAD
1000
ASC_BOUNDS
1002
{
1070
    19
1002
}
  0
LINE
  5
1C5
330
2
100
AcDbEntity
  8
0
100
AcDbLine
 10
507.1111180579171
 20
358.9711967884428
 30
0.0
 11
497.111118057917
 21
358.9711967884428
 31
0.0
  0
LINE
  5
1C6
330
2
100
AcDbEntity
  8
0
100
AcDbLine
 10
498.1111180579171
 20
359.9711967884426
 30
0.0
 11
497.111118057917
 21
358.9711967884428
 31
0.0
  0
LINE
  5
1C7
330
2
100
AcDbEntity
  8
0
100
AcDbLine
 10
447.111118057917
 20
409.9711967884426
 30
0.0
 11
458.6111180579172
 21
409.9711967884426
 31
0.0
  0
LINE
  5
1C8
330
2
100
AcDbEntity
  8
0
100
AcDbLine
 10
460.6111180579172
 20
407.9711967884426
 30
0.0
 11
458.6111180579172
 21
409.9711967884426
 31
0.0
  0
LINE
  5
1C9
330
2
100
AcDbEntity
  8
0
100
AcDbLine
 10
526.6111180579171
 20
374.9711967884426
 30
0.0
 11
575.611118057917
 21
374.9711967884426
 31
0.0
1001
ACAD
1000
ASC_BOUNDS
1002
{
1070
    19
1002
}
  0
LINE
  5
1CA
330
2
100
AcDbEntity
  8
0
100
AcDbLine
 10
511.1111180579171
 20
356.9711967884426
 30
0.0
 11
511.1111180579171
 21
355.9711967884426
 31
0.0
1001
ACAD
1000
ASC_BOUNDS
1002
{
1070
    19
1005
0
1002
}
  0
ARC
  5
1CB
330
2
100
AcDbEntity
  8
0
100
AcDbCircle
 10
513.611118057917
 20
355.9711967884426
 30
0.0
 40
2.5
100
AcDbArc
 50
180.0
 51
246.682866155961
  0
ARC
  5
1CC
330
2
100
AcDbEntity
  8
0
100
AcDbCircle
 10
526.6111180579171
 20
368.9711967884426
 30
0.0
 40
6.0
100
AcDbArc
 50
89.99999999999998
 51
119.210747604311
1001
ACAD
1000
ASC_BOUNDS
1002
{
1070
    19
1002
}
  0
ARC
  5
1CD
330
2
100
AcDbEntity
  8
0
100
AcDbCircle
 10
522.4629192070267
 20
376.3902564521381
 30
0.0
 40
2.5
100
AcDbArc
 50
248.5783165533324
 51
299.2107476043108
  0
ARC
  5
1CE
330
2
100
AcDbEntity
  8
0
100
AcDbCircle
 10
526.6111180579171
 20
368.9711967884426
 30
0.0
 40
6.0
100
AcDbArc
 50
119.210747604311
 51
180.0000000000006
1001
ACAD
1000
ASC_BOUNDS
1002
{
1070
    19
1002
}
  0
ARC
  5
1CF
330
2
100
AcDbEntity
  8
0
100
AcDbCircle
 10
575.611118057917
 20
377.4711967884426
 30
0.0
 40
2.5
100
AcDbArc
 50
270.0
 51
323.1301023541557
1001
ACAD
1000
ASC_BOUNDS
1002
{
1070
    19
1002
}
  0
LINE
  5
1D0
330
2
100
AcDbEntity
  8
0
100
AcDbLine
 10
1054.382378381228
 20
282.7323841501335
 30
0.0
 11
1061.252444848667
 21
245.1278098020441
 31
0.0
  0
ARC
  5
1D1
330
2
100
AcDbEntity
  8
0
100
AcDbCircle
 10
972.4478262479006
 20
289.9711967884425
 30
0.0
 40
73.0
100
AcDbArc
 50
205.2880282852063
 51
270.0
  0
ARC
  5
1D2
330
2
100
AcDbEntity
  8
0
100
AcDbCircle
 10
972.4478262479006
 20
319.9711967884425
 30
0.0
 40
90.0
100
AcDbArc
 50
218.3212863366506
 51
346.796880321182
  0
LINE
  5
1D3
330
2
100
AcDbEntity
  8
0
100
AcDbLine
 10
822.5111180579171
 20
355.4148476023387
 30
0.0
 11
822.5111180579171
 21
234.4148476023387
 31
0.0
1001
ACAD
1000
ASC_BOUNDS
1002
{
1070
    19
1002
}
  0
LINE
  5
1D4
330
2
100
AcDbEntity
  8
0
100
AcDbLine
 10
750.511118057917
 20
296.4821697236954
 30
0.0
 11
750.511118057917
 21
232.9148476023387
 31
0.0
1001
ACAD
1000
ASC_BOUNDS
1002
{
1070
    19
1002
}
  0
LINE
  5
1D5
330
2
100
AcDbEntity
  8
0
100
AcDbLine
 10
610.5111180579172
 20
375.9711967884426
 30
0.0
 11
610.5111180579164
 21
216.9711967884426
 31
0.0
1001
ACAD
1000
ASC_BOUNDS
1002
{
1070
    19
1002
}
  0
LINE
  5
1D6
330
2
100
AcDbEntity
  8
0
100
AcDbLine
 10
650.511118057917
 20
365.4148476023387
 30
0.0
 11
650.511118057917
 21
233.4148476023387
 31
0.0
1001
ACAD
1000
ASC_BOUNDS
1002
{
1070
    19
1005
0
1005
0
1005
0
1005
0
1002
}
  0
LINE
  5
1D7
330
2
100
AcDbEntity
  8
0
100
AcDbLine
 10
650.5111180579172
 20
365.4148476023386
 30
0.0
 11
650.5111180579169
 21
233.4148476023388
 31
0.0
1001
ACAD
1000
ASC_BOUNDS
1002
{
1070
    19
1005
0
1002
}
  0
ARC
  5
1D8
330
2
100
AcDbEntity
  8
0
100
AcDbCircle
 10
972.4478262479006
 20
319.9711967884425
 30
0.0
 40
90.0
100
AcDbArc
 50
346.796880321182
 51
218.3212863366506
  0
LINE
  5
1D9
330
2
100
AcDbEntity
  8
0
100
AcDbLine
 10
604.1111180579178
 20
375.9711967884426
 30
0.0
 11
604.1111180579171
 21
216.9711967884426
 31
0.0
1001
ACAD
1000
ASC_BOUNDS
1002
{
1070
    19
1002
}
  0
LINE
  5
210
330
2
100
AcDbEntity
  8
MITTE
 48
20.0
100
AcDbLine
 10
972.4478262479006
 20
421.6105591676919
 30
0.0
 11
972.4478262479006
 21
184.4044245025409
 31
0.0
  0
LINE
  5
211
330
2
100
AcDbEntity
  8
LINIE
 48
10.0
100
AcDbLine
 10
674.1883733041414
 20
298.2580568090765
 30
0.0
 11
674.1883733041414
 21
240.553809547023
 31
0.0
  0
LINE
  5
212
102
{ACAD_REACTORS
330
222
102
}
330
2
100
AcDbEntity
  8
0
100
AcDbLine
 10
772.365618057917
 20
219.8938476023387
 30
0.0
 11
770.8866180579169
 21
218.4148476023387
 31
0.0
1001
ACAD
1000
ASC_BOUNDS
1002
{
1070
    19
1002
}
  0
LINE
  5
213
330
2
100
AcDbEntity
  8
0
100
AcDbLine
 10
771.689250907182
 20
229.4148476023387
 30
0.0
 11
757.5111180579169
 21
229.4148476023387
 31
0.0
1001
ACAD
1000
ASC_BOUNDS
1002
{
1070
    19
1002
}
  0
LINE
  5
214
102
{ACAD_REACTORS
330
222
102
}
330
2
100
AcDbEntity
  8
0
100
AcDbLine
 10
763.0616283151339
 20
218.4148476023387
 30
0.0
 11
807.9606078007001
 21
218.4148476023387
 31
0.0
1001
ACAD
1000
ASC_BOUNDS
1002
{
1070
    19
1005
0
1002
}
  0
HATCH
  5
222
330
2
100
AcDbEntity
  8
LINIE
 48
10.0
100
AcDbHatch
 10
0.0
 20
0.0
 30
0.0
210
0.0
220
0.0
230
1.0
  2
ANSI31
 70
     0
 71
     1
 91
        4
 92
        5
 93
        6
 72
     1
 10
804.1356180579168
 20
218.4148476023387
 11
807.9606078007001
 21
218.4148476023387
 72
     2
 10
805.5111180579169
 20
218.9148476023388
 40
2.499999999999964
 50
348.4630409671819
 51
359.9999999999974
 73
     1
 72
     1
 10
808.0111180579169
 20
218.9148476023387
 11
808.0111180579169
 21
226.9148476023387
 72
     2
 10
810.511118057917
 20
226.9148476023386
 40
2.499999999999997
 50
180.0000000000013
 51
215.718805985772
 73
     0
 72
     4
 94
        3
 73
     0
 74
     0
 95
        9
 96
        5
 40
41.68509778057305
 40
41.68509778057305
 40
41.68509778057305
 40
41.68509778057305
 40
43.97539401037382
 40
46.09696782555252
 40
46.09696782555252
 40
46.09696782555252
 40
46.09696782555252
 10
808.4813881840736
 20
228.3743669202061
 10
807.7343504662801
 20
228.5432736989101
 10
806.295308089701
 20
228.8686441674384
 10
804.838867402495
 20
228.9807797410879
 10
804.1356180579164
 20
229.0003230569636
 72
     1
 10
804.1356180579171
 20
229.0003230569635
 11
804.1356180579168
 21
218.4148476023387
 97
        6
330
262
330
223
330
260
330
214
330
25E
330
263
 92
        5
 93
        4
 72
     4
 94
        3
 73
     0
 74
     0
 95
        8
 96
        4
 40
40.20165906937301
 40
40.20165906937301
 40
40.20165906937301
 40
40.20165906937301
 40
41.68509778057305
 40
41.68509778057305
 40
41.68509778057305
 40
41.68509778057305
 10
804.1356180579166
 20
229.0003230569636
 10
803.6438947467074
 20
229.013988059382
 10
803.1507642688728
 20
229.010844431293
 10
802.656618057917
 20
228.9959956561328
 72
     1
 10
802.6566180579171
 20
228.9959956561328
 11
802.656618057917
 21
219.8938476023387
 72
     1
 10
802.656618057917
 20
219.8938476023387
 11
804.1356180579171
 21
218.4148476023386
 72
     1
 10
804.1356180579171
 20
218.4148476023386
 11
804.1356180579171
 21
229.0003230569637
 97
        4
330
223
330
261
330
25F
330
260
 92
        5
 93
        4
 72
     1
 10
770.8866180579168
 20
218.4148476023386
 11
772.365618057917
 21
219.8938476023386
 72
     1
 10
772.365618057917
 20
219.8938476023386
 11
772.365618057917
 21
229.5526362866972
 72
     4
 94
        3
 73
     0
 74
     0
 95
        8
 96
        4
 40
8.357331474458064
 40
8.357331474458064
 40
8.357331474458064
 40
8.357331474458064
 40
9.859576091809579
 40
9.859576091809579
 40
9.859576091809579
 40
9.859576091809579
 10
772.3656180579202
 20
229.5526362866978
 10
771.8701534484136
 20
229.4568207414409
 10
771.37694684783
 20
229.3502316341944
 10
770.8866180579211
 20
229.2330371109591
 72
     1
 10
770.886618057917
 20
229.2330371109581
 11
770.8866180579168
 21
218.4148476023386
 97
        4
330
223
330
24E
330
212
330
25D
 92
        5
 93
        5
 72
     4
 94
        3
 73
     0
 74
     0
 95
        9
 96
        5
 40
0.0
 40
0.0
 40
0.0
 40
0.0
 40
3.505619563075816
 40
8.357331474458064
 40
8.357331474458064
 40
8.357331474458064
 40
8.357331474458064
 10
770.8866180579211
 20
229.2330371109591
 10
769.7423928243008
 20
228.9595534129023
 10
767.0519418221122
 20
228.1698908715027
 10
764.4953218882684
 20
227.0641398570596
 10
763.0111180579169
 20
226.4222142155803
 72
     1
 10
763.0111180579169
 20
226.4222142155803
 11
763.011118057917
 21
218.9148476023387
 72
     2
 10
765.511118057917
 20
218.9148476023388
 40
2.500000000000019
 50
180.0000000000025
 51
191.5369590328181
 73
     1
 72
     1
 10
763.0616283151339
 20
218.4148476023387
 11
770.8866180579168
 21
218.4148476023386
 72
     1
 10
770.8866180579168
 20
218.4148476023386
 11
770.8866180579169
 21
229.2330371109578
 97
        5
330
223
330
251
330
24D
330
214
330
24E
 75
     0
 76
     1
 52
0.0
 41
25.0
 77
     0
 78
     1
 53
45.0
 43
228.6863634756683
 44
-26.29486211941469
 45
-2.20970869120796
 46
2.209708691207961
 79
     0
 47
0.3395931865206437
 98
        4
 10
805.1557984903023
 20
222.2015562038583
 10
803.79696482201
 20
222.8807420994161
 10
771.524671535148
 20
223.5599295046114
 10
767.7878789473433
 20
222.8807420994161
  0
SPLINE
  5
223
102
{ACAD_REACTORS
330
222
102
}
330
2
100
AcDbEntity
  8
LINIE
 48
10.0
100
AcDbSpline
210
0.0
220
0.0
230
1.0
 70
     8
 71
     3
 72
    12
 73
     8
 74
     6
 42
0.0000000001
 43
0.0000000001
 44
0.0000000001
 40
0.0
 40
0.0
 40
0.0
 40
0.0
 40
4.851711911382247
 40
18.01859907913513
 40
32.66528729343511
 40
43.80667159575175
 40
46.09696782555251
 40
46.09696782555251
 40
46.09696782555251
 40
46.09696782555251
 10
763.0111180579169
 20
226.4222142155803
 30
0.0
 10
764.4953218882684
 20
227.0641398570596
 30
0.0
 10
770.0074533295599
 20
229.4481645031431
 30
0.0
 10
781.1279958729387
 20
231.1064063080896
 30
0.0
 10
793.8576999058938
 20
227.4730236176221
 30
0.0
 10
803.3532700452047
 20
229.5338450764218
 30
0.0
 10
807.7343504662799
 20
228.5432736989101
 30
0.0
 10
808.4813881840736
 20
228.3743669202061
 30
0.0
 11
763.0111180579169
 21
226.4222142155803
 31
0.0
 11
767.5088332001108
 21
228.2414632284227
 31
0.0
 11
780.5390741651807
 21
230.1334828056339
 31
0.0
 11
795.0980051187747
 21
228.5325439762599
 31
0.0
 11
806.2355864113623
 21
228.8236232144596
 31
0.0
 11
808.4813881840736
 21
228.3743669202061
 31
0.0
  0
LINE
  5
226
330
2
100
AcDbEntity
  8
0
100
AcDbLine
 10
677.0796205753955
 20
238.4148476023388
 30
0.0
 11
686.511118057917
 21
238.4148476023388
 31
0.0
1001
ACAD
1000
ASC_BOUNDS
1002
{
1070
    19
1002
}
  0
LINE
  5
227
330
2
100
AcDbEntity
  8
0
100
AcDbLine
 10
675.011118057917
 20
230.4148476023387
 30
0.0
 11
757.5111180579169
 21
230.4148476023387
 31
0.0
1001
ACAD
1000
ASC_BOUNDS
1002
{
1070
    19
1002
}
  0
LINE
  5
228
330
2
100
AcDbEntity
  8
0
100
AcDbLine
 10
610.5111180579171
 20
233.4148476023387
 30
0.0
 11
650.511118057917
 21
233.4148476023387
 31
0.0
1001
ACAD
1000
ASC_BOUNDS
1002
{
1070
    19
1005
0
1002
}
  0
ARC
  5
229
330
2
100
AcDbEntity
  8
0
100
AcDbCircle
 10
677.0111180579171
 20
231.9148476023387
 30
0.0
 40
2.5
100
AcDbArc
 50
180.0
 51
216.869897645844
  0
LINE
  5
22A
330
2
100
AcDbEntity
  8
0
100
AcDbLine
 10
650.5111180579169
 20
233.4148476023388
 30
0.0
 11
663.8508640200726
 21
233.4148476023387
 31
0.0
1001
ACAD
1000
ASC_BOUNDS
1002
{
1070
    19
1002
}
  0
LINE
  5
22B
330
2
100
AcDbEntity
  8
LINIE
 48
10.0
100
AcDbLine
 10
651.8841388494542
 20
238.4148476023387
 30
0.0
 11
674.8391742760708
 21
238.4148476023387
 31
0.0
  0
ARC
  5
22C
330
2
100
AcDbEntity
  8
0
100
AcDbCircle
 10
677.0796205753955
 20
228.4148476023388
 30
0.0
 40
10.0
100
AcDbArc
 50
90.0
 51
131.4096221092712
1001
ACAD
1000
ASC_BOUNDS
1002
{
1070
    19
1002
}
  0
ARC
  5
22D
330
2
100
AcDbEntity
  8
0
100
AcDbCircle
 10
663.8508640200726
 20
243.4148476023388
 30
0.0
 40
10.0
100
AcDbArc
 50
269.9999999999997
 51
311.4096221092712
1001
ACAD
1000
ASC_BOUNDS
1002
{
1070
    19
1002
}
  0
LINE
  5
22E
330
2
100
AcDbEntity
  8
0
100
AcDbLine
 10
674.511118057917
 20
231.9148476023387
 30
0.0
 11
674.511118057917
 21
238.0793597378636
 31
0.0
  0
LINE
  5
22F
330
2
100
AcDbEntity
  8
0
100
AcDbLine
 10
737.011118057917
 20
200.9237660668518
 30
0.0
 11
737.011118057917
 21
219.0606296762051
 31
0.0
  0
LINE
  5
230
330
2
100
AcDbEntity
  8
0
100
AcDbLine
 10
723.7847365534128
 20
200.6484161924227
 30
0.0
 11
723.7847365534126
 21
219.3359795506347
 31
0.0
  0
LINE
  5
231
330
2
100
AcDbEntity
  8
0
100
AcDbLine
 10
727.6278295877501
 20
200.9237660668517
 30
0.0
 11
727.6278295877503
 21
219.0606296762051
 31
0.0
  0
LINE
  5
232
330
2
100
AcDbEntity
  8
0
100
AcDbLine
 10
701.3944065280839
 20
200.9237660668517
 30
0.0
 11
701.3944065280839
 21
219.0606296762051
 31
0.0
  0
LINE
  5
233
330
2
100
AcDbEntity
  8
0
100
AcDbLine
 10
705.2374995624213
 20
200.6484161924227
 30
0.0
 11
705.2374995624213
 21
219.3359795506342
 31
0.0
  0
LINE
  5
234
330
2
100
AcDbEntity
  8
0
100
AcDbLine
 10
692.011118057917
 20
200.9237660668517
 30
0.0
 11
692.011118057917
 21
219.0606296762051
 31
0.0
  0
LINE
  5
235
330
2
100
AcDbEntity
  8
MITTE
 48
8.0
100
AcDbLine
 10
714.5111180579171
 20
235.9408171986383
 30
0.0
 11
714.5111180579171
 21
196.2057134667714
 31
0.0
  0
LINE
  5
236
330
2
100
AcDbEntity
  8
0
100
AcDbLine
 10
727.6278295877501
 20
200.9237660668517
 30
0.0
 11
723.7847365534128
 21
200.9237660668517
 31
0.0
  0
LINE
  5
237
330
2
100
AcDbEntity
  8
0
100
AcDbLine
 10
735.502199593404
 20
199.4148476023388
 30
0.0
 11
693.52003652243
 21
199.4148476023388
 31
0.0
  0
LINE
  5
238
330
2
100
AcDbEntity
  8
0
100
AcDbLine
 10
701.3944065280839
 20
200.9237660668517
 30
0.0
 11
705.2374995624213
 21
200.9237660668517
 31
0.0
  0
ARC
  5
239
330
2
100
AcDbEntity
  8
0
100
AcDbCircle
 10
696.7027622930005
 20
207.4631156606729
 30
0.0
 40
8.048268058334087
100
AcDbArc
 50
234.342521810184
 51
305.6574781898164
  0
LINE
  5
23A
330
2
100
AcDbEntity
  8
0
100
AcDbLine
 10
692.011118057917
 20
200.9237660668517
 30
0.0
 11
693.52003652243
 21
199.4148476023388
 31
0.0
1001
ACAD
1000
ASC_BOUNDS
1002
{
1070
    19
1002
}
  0
ARC
  5
23B
330
2
100
AcDbEntity
  8
0
100
AcDbCircle
 10
714.5111180579171
 20
234.8898476023388
 30
0.0
 40
35.475
100
AcDbArc
 50
254.8460917587442
 51
285.1539082412557
  0
LINE
  5
23C
330
2
100
AcDbEntity
  8
0
100
AcDbLine
 10
737.011118057917
 20
200.9237660668518
 30
0.0
 11
735.502199593404
 21
199.4148476023388
 31
0.0
1001
ACAD
1000
ASC_BOUNDS
1002
{
1070
    19
1002
}
  0
ARC
  5
23D
330
2
100
AcDbEntity
  8
0
100
AcDbCircle
 10
732.3194738228336
 20
207.4631156606729
 30
0.0
 40
8.048268058334087
100
AcDbArc
 50
234.3425218101836
 51
305.6574781898159
  0
LINE
  5
23E
330
2
100
AcDbEntity
  8
0
100
AcDbLine
 10
727.6278295877501
 20
219.0606296762051
 30
0.0
 11
723.7847365534128
 21
219.0606296762051
 31
0.0
  0
LINE
  5
23F
330
2
100
AcDbEntity
  8
0
100
AcDbLine
 10
737.011118057917
 20
220.5695481407181
 30
0.0
 11
692.011118057917
 21
220.5695481407181
 31
0.0
  0
LINE
  5
240
330
2
100
AcDbEntity
  8
0
100
AcDbLine
 10
737.011118057917
 20
230.4148476023388
 30
0.0
 11
692.011118057917
 21
230.4148476023386
 31
0.0
1001
ACAD
1000
ASC_BOUNDS
1002
{
1070
    19
1002
}
  0
ARC
  5
241
330
2
100
AcDbEntity
  8
0
100
AcDbCircle
 10
694.5111180579171
 20
233.4148476023387
 30
0.0
 40
4.0
100
AcDbArc
 50
180.0
 51
228.590377890729
1001
ACAD
1000
ASC_BOUNDS
1002
{
1070
    19
1002
}
  0
LINE
  5
242
330
2
100
AcDbEntity
  8
0
100
AcDbLine
 10
701.3944065280839
 20
219.0606296762051
 30
0.0
 11
705.2374995624213
 21
219.0606296762051
 31
0.0
  0
ARC
  5
243
330
2
100
AcDbEntity
  8
0
100
AcDbCircle
 10
696.7027622930005
 20
212.521280082384
 30
0.0
 40
8.048268058334087
100
AcDbArc
 50
54.3425218101836
 51
125.6574781898159
  0
LINE
  5
244
330
2
100
AcDbEntity
  8
0
100
AcDbLine
 10
692.011118057917
 20
219.0606296762051
 30
0.0
 11
693.52003652243
 21
220.5695481407181
 31
0.0
1001
ACAD
1000
ASC_BOUNDS
1002
{
1070
    19
1002
}
  0
LINE
  5
245
330
2
100
AcDbEntity
  8
0
100
AcDbLine
 10
692.011118057917
 20
220.5695481407181
 30
0.0
 11
692.011118057917
 21
230.4148476023387
 31
0.0
1001
ACAD
1000
ASC_BOUNDS
1002
{
1070
    19
1002
}
  0
ARC
  5
246
330
2
100
AcDbEntity
  8
0
100
AcDbCircle
 10
714.5111180579171
 20
185.094548140718
 30
0.0
 40
35.475
100
AcDbArc
 50
74.84609175874429
 51
105.1539082412558
  0
LINE
  5
247
330
2
100
AcDbEntity
  8
0
100
AcDbLine
 10
690.5111180579171
 20
233.4148476023387
 30
0.0
 11
690.511118057917
 21
234.4148476023388
 31
0.0
1001
ACAD
1000
ASC_BOUNDS
1002
{
1070
    19
1002
}
  0
ARC
  5
248
330
2
100
AcDbEntity
  8
0
100
AcDbCircle
 10
686.511118057917
 20
234.4148476023388
 30
0.0
 40
4.0
100
AcDbArc
 50
0.0000000000001018
 51
90.0
1001
ACAD
1000
ASC_BOUNDS
1002
{
1070
    19
1002
}
  0
ARC
  5
249
330
2
100
AcDbEntity
  8
0
100
AcDbCircle
 10
748.0111180579171
 20
232.9148476023387
 30
0.0
 40
2.5
100
AcDbArc
 50
270.0
 51
0.0
1001
ACAD
1000
ASC_BOUNDS
1002
{
1070
    19
1002
}
  0
LINE
  5
24A
330
2
100
AcDbEntity
  8
0
100
AcDbLine
 10
737.011118057917
 20
220.569548140718
 30
0.0
 11
737.011118057917
 21
230.4148476023387
 31
0.0
1001
ACAD
1000
ASC_BOUNDS
1002
{
1070
    19
1002
}
  0
LINE
  5
24B
330
2
100
AcDbEntity
  8
0
100
AcDbLine
 10
737.011118057917
 20
219.0606296762051
 30
0.0
 11
735.5021995934041
 21
220.5695481407181
 31
0.0
1001
ACAD
1000
ASC_BOUNDS
1002
{
1070
    19
1002
}
  0
ARC
  5
24C
330
2
100
AcDbEntity
  8
0
100
AcDbCircle
 10
732.3194738228336
 20
212.521280082384
 30
0.0
 40
8.048268058334087
100
AcDbArc
 50
54.34252181018408
 51
125.6574781898164
  0
ARC
  5
24D
102
{ACAD_REACTORS
330
222
102
}
330
2
100
AcDbEntity
  8
0
100
AcDbCircle
 10
765.511118057917
 20
218.9148476023387
 30
0.0
 40
2.5
100
AcDbArc
 50
180.0000000000001
 51
191.5369590328155
1001
ACAD
1000
ASC_BOUNDS
1002
{
1070
    19
1002
}
  0
LINE
  5
24E
102
{ACAD_REACTORS
330
222
102
}
330
2
100
AcDbEntity
  8
LINIE
 48
10.0
100
AcDbLine
 10
770.886618057917
 20
229.233037110974
 30
0.0
 11
770.8866180579169
 21
218.4148476023387
 31
0.0
1001
ACAD
1000
ASC_BOUNDS
1002
{
1070
    19
1002
}
  0
LINE
  5
24F
330
2
100
AcDbEntity
  8
0
100
AcDbLine
 10
757.5111180579169
 20
230.4148476023387
 30
0.0
 11
757.5111180579169
 21
229.4148476023387
 31
0.0
1001
ACAD
1000
ASC_BOUNDS
1002
{
1070
    19
1002
}
  0
ARC
  5
250
330
2
100
AcDbEntity
  8
0
100
AcDbCircle
 10
760.511118057917
 20
226.9148476023387
 30
0.0
 40
2.5
100
AcDbArc
 50
0.0000000000001018
 51
90.0
1001
ACAD
1000
ASC_BOUNDS
1002
{
1070
    19
1002
}
  0
LINE
  5
251
102
{ACAD_REACTORS
330
222
102
}
330
2
100
AcDbEntity
  8
0
100
AcDbLine
 10
763.0111180579169
 20
226.9148476023387
 30
0.0
 11
763.011118057917
 21
218.9148476023387
 31
0.0
1001
ACAD
1000
ASC_BOUNDS
1002
{
1070
    19
1002
}
  0
LINE
  5
25A
330
2
100
AcDbEntity
  8
0
100
AcDbLine
 10
817.511118057917
 20
229.4148476023387
 30
0.0
 11
786.6242656835079
 21
229.4148476023387
 31
0.0
1001
ACAD
1000
ASC_BOUNDS
1002
{
1070
    19
1002
}
  0
LINE
  5
25B
330
2
100
AcDbEntity
  8
MITTE
 48
10.0
100
AcDbLine
 10
787.511118057917
 20
235.1161919293998
 30
0.0
 11
787.511118057917
 21
214.3157168788904
 31
0.0
  0
LINE
  5
25C
330
2
100
AcDbEntity
  8
0
100
AcDbLine
 10
772.365618057917
 20
219.8938476023387
 30
0.0
 11
802.6566180579171
 21
219.8938476023387
 31
0.0
1001
ACAD
1000
ASC_BOUNDS
1002
{
1070
    19
1002
}
  0
LINE
  5
25D
102
{ACAD_REACTORS
330
222
102
}
330
2
100
AcDbEntity
  8
0
100
AcDbLine
 10
772.365618057917
 20
229.5526362867125
 30
0.0
 11
772.3656180579169
 21
219.8938476023386
 31
0.0
1001
ACAD
1000
ASC_BOUNDS
1002
{
1070
    19
1002
}
  0
ARC
  5
25E
102
{ACAD_REACTORS
330
222
102
}
330
2
100
AcDbEntity
  8
0
100
AcDbCircle
 10
805.5111180579169
 20
218.9148476023387
 30
0.0
 40
2.5
100
AcDbArc
 50
348.4630409671844
 51
0.0000000000001145
1001
ACAD
1000
ASC_BOUNDS
1002
{
1070
    19
1002
}
  0
LINE
  5
25F
102
{ACAD_REACTORS
330
222
102
}
330
2
100
AcDbEntity
  8
0
100
AcDbLine
 10
802.656618057917
 20
219.8938476023387
 30
0.0
 11
804.1356180579169
 21
218.4148476023387
 31
0.0
1001
ACAD
1000
ASC_BOUNDS
1002
{
1070
    19
1002
}
  0
LINE
  5
260
102
{ACAD_REACTORS
330
222
102
}
330
2
100
AcDbEntity
  8
LINIE
 48
10.0
100
AcDbLine
 10
804.1356180579171
 20
229.0003230569727
 30
0.0
 11
804.1356180579169
 21
218.4148476023387
 31
0.0
1001
ACAD
1000
ASC_BOUNDS
1002
{
1070
    19
1002
}
  0
LINE
  5
261
102
{ACAD_REACTORS
330
222
102
}
330
2
100
AcDbEntity
  8
0
100
AcDbLine
 10
802.656618057917
 20
228.9959956561353
 30
0.0
 11
802.656618057917
 21
219.8938476023387
 31
0.0
1001
ACAD
1000
ASC_BOUNDS
1002
{
1070
    19
1002
}
  0
ARC
  5
262
102
{ACAD_REACTORS
330
222
102
}
330
2
100
AcDbEntity
  8
0
100
AcDbCircle
 10
810.511118057917
 20
226.9148476023387
 30
0.0
 40
2.5
100
AcDbArc
 50
90.0
 51
180.0000000000001
1001
ACAD
1000
ASC_BOUNDS
1002
{
1070
    19
1002
}
  0
LINE
  5
263
102
{ACAD_REACTORS
330
222
102
}
330
2
100
AcDbEntity
  8
0
100
AcDbLine
 10
808.0111180579169
 20
226.9148476023387
 30
0.0
 11
808.0111180579169
 21
218.9148476023387
 31
0.0
1001
ACAD
1000
ASC_BOUNDS
1002
{
1070
    19
1002
}
  0
ARC
  5
264
330
2
100
AcDbEntity
  8
0
100
AcDbCircle
 10
817.511118057917
 20
234.4148476023387
 30
0.0
 40
5.0
100
AcDbArc
 50
270.0
 51
0.0
1001
ACAD
1000
ASC_BOUNDS
1002
{
1070
    19
1002
}
  0
LINE
  5
266
330
2
100
AcDbEntity
  8
0
100
AcDbLine
 10
1016.777065971953
 20
219.719929661863
 30
0.0
 11
1053.161234760197
 21
231.5602109756042
 31
0.0
  0
ARC
  5
267
330
2
100
AcDbEntity
  8
0
100
AcDbCircle
 10
944.6978262479005
 20
196.9195481407182
 30
0.0
 40
23.65000000000001
100
AcDbArc
 50
77.17421556953945
 51
109.8516022315849
  0
LINE
  5
268
330
2
100
AcDbEntity
  8
0
100
AcDbLine
 10
949.9478262479005
 20
220.5695481407182
 30
0.0
 11
911.9478262479006
 21
220.5695481407181
 31
0.0
  0
ARC
  5
269
330
2
100
AcDbEntity
  8
0
100
AcDbCircle
 10
944.6978262479005
 20
223.0648476023389
 30
0.0
 40
23.65000000000001
100
AcDbArc
 50
250.1483977684151
 51
289.8516022315849
  0
LINE
  5
26A
330
2
100
AcDbEntity
  8
0
100
AcDbLine
 10
914.9478262479005
 20
199.4148476023388
 30
0.0
 11
953.9478262479006
 21
199.4148476023388
 31
0.0
1001
ACAD
1000
ASC_BOUNDS
1002
{
1070
    19
1005
0
1002
}
  0
LINE
  5
26B
330
2
100
AcDbEntity
  8
0
100
AcDbLine
 10
932.229015450005
 20
200.8202415145701
 30
0.0
 11
932.229015450005
 21
219.164154228487
 31
0.0
  0
LINE
  5
26C
330
2
100
AcDbEntity
  8
0
100
AcDbLine
 10
936.6666370457961
 20
200.8202415145701
 30
0.0
 11
936.6666370457961
 21
219.164154228487
 31
0.0
  0
LINE
  5
26D
330
2
100
AcDbEntity
  8
0
100
AcDbLine
 10
916.1666370457961
 20
200.8202415145701
 30
0.0
 11
916.1666370457961
 21
219.164154228487
 31
0.0
  0
LINE
  5
26E
330
2
100
AcDbEntity
  8
0
100
AcDbLine
 10
913.9478262479006
 20
200.4148476023388
 30
0.0
 11
913.9478262479006
 21
219.4148476023389
 31
0.0
1001
ACAD
1000
ASC_BOUNDS
1002
{
1070
    19
1002
}
  0
LINE
  5
26F
330
2
100
AcDbEntity
  8
MITTE
 48
7.0
100
AcDbLine
 10
934.4478262479006
 20
196.3570869947324
 30
0.0
 11
934.4478262479006
 21
232.7481218328295
 31
0.0
  0
ARC
  5
270
330
2
100
AcDbEntity
  8
0
100
AcDbCircle
 10
924.1978262479007
 20
223.0648476023389
 30
0.0
 40
23.65000000000001
100
AcDbArc
 50
250.1483977684142
 51
289.8516022315858
  0
LINE
  5
271
330
2
100
AcDbEntity
  8
0
100
AcDbLine
 10
916.1666370457961
 20
200.8202415145701
 30
0.0
 11
913.9478262479006
 21
200.4148476023388
 31
0.0
  0
LINE
  5
272
330
2
100
AcDbEntity
  8
0
100
AcDbLine
 10
913.9478262479006
 20
200.4148476023388
 30
0.0
 11
914.9478262479005
 21
199.4148476023388
 31
0.0
1001
ACAD
1000
ASC_BOUNDS
1002
{
1070
    19
1002
}
  0
LINE
  5
273
330
2
100
AcDbEntity
  8
0
100
AcDbLine
 10
936.6666370457961
 20
200.8202415145701
 30
0.0
 11
932.229015450005
 21
200.8202415145701
 31
0.0
  0
ARC
  5
274
330
2
100
AcDbEntity
  8
0
100
AcDbCircle
 10
913.9478262479006
 20
231.9148476023387
 30
0.0
 40
2.5
100
AcDbArc
 50
180.0
 51
270.0
  0
ARC
  5
275
330
2
100
AcDbEntity
  8
0
100
AcDbCircle
 10
913.9478262479006
 20
231.9148476023387
 30
0.0
 40
2.5
100
AcDbArc
 50
180.0
 51
270.0
  0
ARC
  5
276
330
2
100
AcDbEntity
  8
0
100
AcDbCircle
 10
924.1978262479007
 20
196.9195481407182
 30
0.0
 40
23.65000000000001
100
AcDbArc
 50
70.14839776841424
 51
109.8516022315857
  0
LINE
  5
277
330
2
100
AcDbEntity
  8
0
100
AcDbLine
 10
931.6810680587748
 20
229.4148476023387
 30
0.0
 11
913.9478262479006
 21
229.4148476023387
 31
0.0
1001
ACAD
1000
ASC_BOUNDS
1002
{
1070
    19
1005
0
1002
}
  0
LINE
  5
278
330
2
100
AcDbEntity
  8
0
100
AcDbLine
 10
911.9478262479006
 20
229.4148476023387
 30
0.0
 11
931.6810680587748
 21
229.4148476023387
 31
0.0
1001
ACAD
1000
ASC_BOUNDS
1002
{
1070
    19
1002
}
  0
LINE
  5
279
330
2
100
AcDbEntity
  8
0
100
AcDbLine
 10
913.9478262479006
 20
219.4148476023389
 30
0.0
 11
916.1666370457961
 21
219.164154228487
 31
0.0
  0
LINE
  5
27A
330
2
100
AcDbEntity
  8
0
100
AcDbLine
 10
913.9478262479006
 20
219.4148476023389
 30
0.0
 11
911.9478262479006
 21
220.5695481407181
 31
0.0
1001
ACAD
1000
ASC_BOUNDS
1002
{
1070
    19
1002
}
  0
LINE
  5
27B
330
2
100
AcDbEntity
  8
0
100
AcDbLine
 10
911.9478262479006
 20
220.5695481407181
 30
0.0
 11
911.9478262479006
 21
229.4148476023387
 31
0.0
1001
ACAD
1000
ASC_BOUNDS
1002
{
1070
    19
1002
}
  0
LINE
  5
27C
330
2
100
AcDbEntity
  8
0
100
AcDbLine
 10
936.6666370457961
 20
219.164154228487
 30
0.0
 11
932.229015450005
 21
219.164154228487
 31
0.0
  0
LINE
  5
27D
330
2
100
AcDbEntity
  8
0
100
AcDbLine
 10
911.4478262479005
 20
249.8713214769157
 30
0.0
 11
911.4478262479005
 21
231.9148476023387
 31
0.0
  0
LINE
  5
27E
330
2
100
AcDbEntity
  8
0
100
AcDbLine
 10
911.4478262479005
 20
249.8713214769157
 30
0.0
 11
911.4478262479005
 21
231.9148476023387
 31
0.0
  0
LINE
  5
27F
330
2
100
AcDbEntity
  8
0
100
AcDbLine
 10
1028.729015450005
 20
200.8202415145701
 30
0.0
 11
1028.729015450005
 21
219.164154228487
 31
0.0
  0
LINE
  5
280
330
2
100
AcDbEntity
  8
0
100
AcDbLine
 10
1030.9478262479
 20
200.4148476023388
 30
0.0
 11
1030.9478262479
 21
219.4148476023389
 31
0.0
1001
ACAD
1000
ASC_BOUNDS
1002
{
1070
    19
1002
}
  0
LINE
  5
281
330
2
100
AcDbEntity
  8
0
100
AcDbLine
 10
989.9478262479005
 20
200.4148476023388
 30
0.0
 11
989.9478262479005
 21
216.9711967884425
 31
0.0
1001
ACAD
1000
ASC_BOUNDS
1002
{
1070
    19
1002
}
  0
LINE
  5
282
330
2
100
AcDbEntity
  8
0
100
AcDbLine
 10
992.1666370457961
 20
200.8202415145701
 30
0.0
 11
992.1666370457961
 21
216.9711967884425
 31
0.0
  0
LINE
  5
283
330
2
100
AcDbEntity
  8
0
100
AcDbLine
 10
1008.229015450005
 20
200.8202415145701
 30
0.0
 11
1008.229015450005
 21
217.6639575136709
 31
0.0
  0
LINE
  5
284
330
2
100
AcDbEntity
  8
0
100
AcDbLine
 10
1012.666637045796
 20
200.8202415145701
 30
0.0
 11
1012.666637045796
 21
218.5537084130181
 31
0.0
  0
LINE
  5
285
330
2
100
AcDbEntity
  8
0
100
AcDbLine
 10
954.9478262479006
 20
200.4148476023388
 30
0.0
 11
954.9478262479006
 21
218.4148476023378
 31
0.0
1001
ACAD
1000
ASC_BOUNDS
1002
{
1070
    19
1002
}
  0
LINE
  5
286
330
2
100
AcDbEntity
  8
0
100
AcDbLine
 10
952.729015450005
 20
200.8202415145701
 30
0.0
 11
952.729015450005
 21
218.4148476023378
 31
0.0
  0
LINE
  5
287
330
2
100
AcDbEntity
  8
MITTE
 48
7.0
100
AcDbLine
 10
1010.4478262479
 20
196.3570869947324
 30
0.0
 11
1010.4478262479
 21
232.7481218328295
 31
0.0
  0
LINE
  5
288
330
2
100
AcDbEntity
  8
0
100
AcDbLine
 10
990.9478262479005
 20
199.4148476023388
 30
0.0
 11
1029.9478262479
 21
199.4148476023388
 31
0.0
1001
ACAD
1000
ASC_BOUNDS
1002
{
1070
    19
1005
0
1002
}
  0
ARC
  5
289
330
2
100
AcDbEntity
  8
0
100
AcDbCircle
 10
1000.1978262479
 20
223.0648476023389
 30
0.0
 40
23.65000000000001
100
AcDbArc
 50
250.1483977684151
 51
289.8516022315849
  0
LINE
  5
28A
330
2
100
AcDbEntity
  8
0
100
AcDbLine
 10
954.9478262479006
 20
200.4148476023388
 30
0.0
 11
952.729015450005
 21
200.8202415145701
 31
0.0
  0
LINE
  5
28B
330
2
100
AcDbEntity
  8
0
100
AcDbLine
 10
954.9478262479006
 20
200.4148476023388
 30
0.0
 11
953.9478262479006
 21
199.4148476023388
 31
0.0
1001
ACAD
1000
ASC_BOUNDS
1002
{
1070
    19
1002
}
  0
LINE
  5
28C
330
2
100
AcDbEntity
  8
0
100
AcDbLine
 10
992.1666370457961
 20
200.8202415145701
 30
0.0
 11
989.9478262479005
 21
200.4148476023388
 31
0.0
  0
LINE
  5
28D
330
2
100
AcDbEntity
  8
0
100
AcDbLine
 10
989.9478262479005
 20
200.4148476023388
 30
0.0
 11
990.9478262479005
 21
199.4148476023388
 31
0.0
1001
ACAD
1000
ASC_BOUNDS
1002
{
1070
    19
1002
}
  0
ARC
  5
28E
330
2
100
AcDbEntity
  8
0
100
AcDbCircle
 10
1020.6978262479
 20
223.0648476023389
 30
0.0
 40
23.65000000000001
100
AcDbArc
 50
250.1483977684151
 51
289.8516022315849
  0
LINE
  5
28F
330
2
100
AcDbEntity
  8
0
100
AcDbLine
 10
1012.666637045796
 20
200.8202415145701
 30
0.0
 11
1008.229015450005
 21
200.8202415145701
 31
0.0
  0
LINE
  5
290
330
2
100
AcDbEntity
  8
0
100
AcDbLine
 10
1030.9478262479
 20
200.4148476023388
 30
0.0
 11
1029.9478262479
 21
199.4148476023388
 31
0.0
1001
ACAD
1000
ASC_BOUNDS
1002
{
1070
    19
1002
}
  0
LINE
  5
291
330
2
100
AcDbEntity
  8
0
100
AcDbLine
 10
1030.9478262479
 20
200.4148476023388
 30
0.0
 11
1028.729015450005
 21
200.8202415145701
 31
0.0
  0
LINE
  5
292
330
2
100
AcDbEntity
  8
0
100
AcDbLine
 10
972.4478262479006
 20
216.9711967884425
 30
0.0
 11
999.4478262479006
 21
216.9711967884425
 31
0.0
  0
ARC
  5
293
330
2
100
AcDbEntity
  8
0
100
AcDbCircle
 10
952.4478262479005
 20
218.9148476023387
 30
0.0
 40
2.5
100
AcDbArc
 50
180.0
 51
191.5369590328365
  0
LINE
  5
294
330
2
100
AcDbEntity
  8
0
100
AcDbLine
 10
958.0017578846314
 20
218.4148476023378
 30
0.0
 11
949.9983365051175
 21
218.4148476023378
 31
0.0
  0
LINE
  5
295
330
2
100
AcDbEntity
  8
0
100
AcDbLine
 10
949.9478262479005
 20
220.5251745841434
 30
0.0
 11
949.9478262479005
 21
218.9148476023387
 31
0.0
  0
ARC
  5
296
330
2
100
AcDbEntity
  8
0
100
AcDbCircle
 10
999.4478262479006
 20
272.9711967884425
 30
0.0
 40
56.0
100
AcDbArc
 50
270.0
 51
288.0261308132874
  0
ARC
  5
297
330
2
100
AcDbEntity
  8
0
100
AcDbCircle
 10
1020.6978262479
 20
196.9195481407182
 30
0.0
 40
23.65000000000001
100
AcDbArc
 50
70.14839776841511
 51
93.50511215251156
  0
LINE
  5
298
330
2
100
AcDbEntity
  8
0
100
AcDbLine
 10
1032.9478262479
 20
220.5695481407182
 30
0.0
 11
1019.387870675081
 21
220.5695481407182
 31
0.0
  0
LINE
  5
299
330
2
100
AcDbEntity
  8
0
100
AcDbLine
 10
1030.9478262479
 20
219.4148476023389
 30
0.0
 11
1032.9478262479
 21
220.5695481407182
 31
0.0
1001
ACAD
1000
ASC_BOUNDS
1002
{
1070
    19
1002
}
  0
LINE
  5
29A
330
2
100
AcDbEntity
  8
0
100
AcDbLine
 10
1032.9478262479
 20
220.5695481407182
 30
0.0
 11
1032.9478262479
 21
224.9822829627897
 31
0.0
1001
ACAD
1000
ASC_BOUNDS
1002
{
1070
    19
1002
}
  0
LINE
  5
29B
330
2
100
AcDbEntity
  8
0
100
AcDbLine
 10
1030.9478262479
 20
219.4148476023389
 30
0.0
 11
1028.729015450005
 21
219.164154228487
 31
0.0
  0
ARC
  5
29C
330
2
100
AcDbEntity
  8
0
100
AcDbCircle
 10
1049.447826247901
 20
242.9711967884425
 30
0.0
 40
12.0
100
AcDbArc
 50
288.0261308132874
 51
10.35332004392947
  0
CIRCLE
  5
29D
330
2
100
AcDbEntity
  8
0
100
AcDbCircle
 10
1049.447826247901
 20
242.9711967884425
 30
0.0
 40
3.3235
  0
LINE
  5
29E
330
2
100
AcDbEntity
  8
MITTE
 48
10.0
100
AcDbLine
 10
1049.447826247901
 20
249.0171390312807
 30
0.0
 11
1049.447826247901
 21
237.2740452853157
 31
0.0
  0
ARC
  5
29F
330
2
100
AcDbEntity
  8
LINIE
 48
10.0
100
AcDbCircle
 10
1049.447826247901
 20
242.9711967884425
 30
0.0
 40
4.0
100
AcDbArc
 50
163.3492982195146
 51
98.85437576424262
  0
LINE
  5
2A0
330
2
100
AcDbEntity
  8
MITTE
 48
10.0
100
AcDbLine
 10
1044.710883346342
 20
242.9711967884425
 30
0.0
 11
1055.563146754693
 21
242.9711967884425
 31
0.0
  0
LINE
  5
2BC
330
2
100
AcDbEntity
  8
MITTE
 48
15.0
100
AcDbLine
 10
597.7688895984003
 20
299.4148476023387
 30
0.0
 11
826.8971329595927
 21
299.4148476023387
 31
0.0
  0
LINE
  5
2BD
330
2
100
AcDbEntity
  8
0
100
AcDbLine
 10
677.0796205753955
 20
360.4148476023386
 30
0.0
 11
817.511118057917
 21
360.4148476023387
 31
0.0
1001
ACAD
1000
ASC_BOUNDS
1002
{
1070
    19
1002
}
  0
LINE
  5
2BE
330
2
100
AcDbEntity
  8
0
100
AcDbLine
 10
610.511118057917
 20
365.4148476023388
 30
0.0
 11
610.5111180579171
 21
349.4148476023387
 31
0.0
1001
ACAD
1000
ASC_BOUNDS
1002
{
1070
    19
1005
0
1005
0
1002
}
  0
ARC
  5
2BF
330
2
100
AcDbEntity
  8
0
100
AcDbCircle
 10
666.8508640200727
 20
294.4148476023388
 30
0.0
 40
10.0
100
AcDbArc
 50
48.59037789072882
 51
90.00000000000033
  0
LINE
  5
2C0
330
2
100
AcDbEntity
  8
0
100
AcDbLine
 10
650.511118057917
 20
304.4148476023388
 30
0.0
 11
666.8508640200725
 21
304.4148476023388
 31
0.0
  0
ARC
  5
2C1
330
2
100
AcDbEntity
  8
0
100
AcDbCircle
 10
753.011118057917
 20
296.4821697236954
 30
0.0
 40
2.5
100
AcDbArc
 50
89.99999999999998
 51
180.0
1001
ACAD
1000
ASC_BOUNDS
1002
{
1070
    19
1002
}
  0
LINE
  5
2C2
330
2
100
AcDbEntity
  8
0
100
AcDbLine
 10
610.5111180579171
 20
365.4148476023392
 30
0.0
 11
663.8508640200726
 21
365.4148476023387
 31
0.0
1001
ACAD
1000
ASC_BOUNDS
1002
{
1070
    19
1002
}
  0
LINE
  5
2C3
330
2
100
AcDbEntity
  8
LINIE
 48
10.0
100
AcDbLine
 10
651.8841388494542
 20
360.4148476023387
 30
0.0
 11
674.8391742760708
 21
360.4148476023387
 31
0.0
  0
LINE
  5
2C4
330
2
100
AcDbEntity
  8
LINIE
 48
10.0
100
AcDbLine
 10
670.0562985063214
 20
360.4148476023386
 30
0.0
 11
651.9243653862855
 21
360.4148476023386
 31
0.0
  0
ARC
  5
2C5
330
2
100
AcDbEntity
  8
0
100
AcDbCircle
 10
663.8508640200726
 20
355.4148476023386
 30
0.0
 40
10.0
100
AcDbArc
 50
48.59037789072882
 51
90.00000000000033
1001
ACAD
1000
ASC_BOUNDS
1002
{
1070
    19
1002
}
  0
ARC
  5
2C6
330
2
100
AcDbEntity
  8
0
100
AcDbCircle
 10
677.0796205753955
 20
370.4148476023386
 30
0.0
 40
10.0
100
AcDbArc
 50
228.5903778907288
 51
270.0
1001
ACAD
1000
ASC_BOUNDS
1002
{
1070
    19
1002
}
  0
ARC
  5
2C7
330
2
100
AcDbEntity
  8
0
100
AcDbCircle
 10
817.511118057917
 20
355.4148476023387
 30
0.0
 40
5.0
100
AcDbArc
 50
0.0000000000000254
 51
90.0
1001
ACAD
1000
ASC_BOUNDS
1002
{
1070
    19
1002
}
  0
LINE
  5
2D2
330
2
100
AcDbEntity
  8
MITTE
 48
10.0
100
AcDbLine
 10
1041.474329001757
 20
299.4148476023387
 30
0.0
 11
904.9295474792121
 21
299.4148476023387
 31
0.0
  0
ARC
  5
2D3
330
2
100
AcDbEntity
  8
MITTE
 48
15.0
100
AcDbCircle
 10
972.4478262479006
 20
319.9711967884425
 30
0.0
 40
72.5
100
AcDbArc
 50
13.38326018538489
 51
53.4068810111945
  0
LINE
  5
2D4
330
2
100
AcDbEntity
  8
MITTE
 48
20.0
100
AcDbLine
 10
874.132127459427
 20
319.9711967884425
 30
0.0
 11
1070.92540429633
 21
319.9711967884425
 31
0.0
  0
ARC
  5
2D5
330
2
100
AcDbEntity
  8
MITTE
 48
15.0
100
AcDbCircle
 10
972.4478262479006
 20
319.9711967884425
 30
0.0
 40
72.5
100
AcDbArc
 50
187.4328260304643
 51
233.5117163400941
  0
CIRCLE
  5
2D6
330
2
100
AcDbEntity
  8
0
100
AcDbCircle
 10
921.1825846118758
 20
268.7059551524178
 30
0.0
 40
5.75
  0
LINE
  5
2D7
330
2
100
AcDbEntity
  8
MITTE
 48
10.0
100
AcDbLine
 10
927.6615038092161
 20
275.1848743497574
 30
0.0
 11
914.7833242921285
 21
262.3066948326697
 31
0.0
  0
CIRCLE
  5
2D8
330
2
100
AcDbEntity
  8
0
100
AcDbCircle
 10
1023.713067883925
 20
268.7059551524178
 30
0.0
 40
5.75
  0
LINE
  5
2D9
330
2
100
AcDbEntity
  8
MITTE
 48
10.0
100
AcDbLine
 10
1017.339513997914
 20
275.0795090384301
 30
0.0
 11
1031.323236794431
 21
261.0957862419127
 31
0.0
  0
ARC
  5
2DA
330
2
100
AcDbEntity
  8
MITTE
 48
15.0
100
AcDbCircle
 10
972.4478262479006
 20
319.9711967884425
 30
0.0
 40
72.5
100
AcDbArc
 50
306.5931189888055
 51
324.1811683713761
  0
LINE
  5
2DB
330
2
100
AcDbEntity
  8
MITTE
 48
10.0
100
AcDbLine
 10
927.6615038092161
 20
364.7575192271276
 30
0.0
 11
914.7833242921285
 21
377.6356987442154
 31
0.0
  0
ARC
  5
2DC
330
2
100
AcDbEntity
  8
MITTE
 48
15.0
100
AcDbCircle
 10
972.4478262479006
 20
319.9711967884425
 30
0.0
 40
72.5
100
AcDbArc
 50
126.4882836599058
 51
143.57665577438
  0
CIRCLE
  5
2DD
330
2
100
AcDbEntity
  8
0
100
AcDbCircle
 10
921.1825846118758
 20
371.2364384244672
 30
0.0
 40
5.75
  0
LINE
  5
2DE
330
2
100
AcDbEntity
  8
MITTE
 48
10.0
100
AcDbLine
 10
1017.339513997914
 20
364.862884538455
 30
0.0
 11
1031.323236794431
 21
378.8466073349723
 31
0.0
  0
CIRCLE
  5
2DF
330
2
100
AcDbEntity
  8
0
100
AcDbCircle
 10
1023.713067883925
 20
371.2364384244672
 30
0.0
 40
5.75
  0
ENDSEC
  0
SECTION
  2
OBJECTS
  0
DICTIONARY
  5
1B
330
0
100
AcDbDictionary
281
     1
  3
ACAD_COLOR
350
340
  3
ACAD_GROUP
350
19
  3
ACAD_LAYOUT
350
343
  3
ACAD_MATERIAL
350
33F
  3
ACAD_MLINESTYLE
350
1A
  3
ACAD_PLOTSETTINGS
350
344
  3
ACAD_PLOTSTYLENAME
350
33D
  3
ACAD_TABLESTYLE
350
341
  3
ACAD_VISUALSTYLE
350
81C
  3
ACDBVARIABLEDICTIONARY
350
302
  3
ACMDICTIONARY
350
2E0
  3
AMG
350
34D
  3
AMGSNAPSETTINGS
350
44E
  3
ASE_INDEX_DICTIONARY
350
807
  0
DICTIONARY
  5
3
330
2
100
AcDbDictionary
280
     1
281
     1
  0
DICTIONARY
  5
340
102
{ACAD_REACTORS
330
1B
102
}
330
1B
100
AcDbDictionary
281
     1
  0
DICTIONARY
  5
19
102
{ACAD_REACTORS
330
1B
102
}
330
1B
100
AcDbDictionary
281
     1
  0
DICTIONARY
  5
343
102
{ACAD_REACTORS
330
1B
102
}
330
1B
100
AcDbDictionary
281
     1
  3
Layout1
350
346
  3
Model
350
345
  0
DICTIONARY
  5
33F
102
{ACAD_REACTORS
330
1B
102
}
330
1B
100
AcDbDictionary
281
     1
  3
ByBlock
350
81A
  3
ByLayer
350
819
  3
Global
350
81B
  0
DICTIONARY
  5
1A
102
{ACAD_REACTORS
330
1B
102
}
330
1B
100
AcDbDictionary
281
     1
  3
STANDARD
350
1C
  0
DICTIONARY
  5
344
102
{ACAD_REACTORS
330
1B
102
}
330
1B
100
AcDbDictionary
281
     1
  0
ACDBDICTIONARYWDFLT
  5
33D
102
{ACAD_REACTORS
330
1B
102
}
330
1B
100
AcDbDictionary
281
     1
  3
Normal
350
33E
100
AcDbDictionaryWithDefault
340
33E
  0
DICTIONARY
  5
341
102
{ACAD_REACTORS
330
1B
102
}
330
1B
100
AcDbDictionary
281
     1
  3
Standard
350
342
  0
DICTIONARY
  5
81C
102
{ACAD_REACTORS
330
1B
102
}
330
1B
100
AcDbDictionary
281
     1
  3
2dWireframe
350
822
  3
3D Hidden
350
824
  3
3dWireframe
350
823
  3
Basic
350
821
  3
Brighten
350
828
  3
ColorChange
350
82C
  3
Conceptual
350
825
  3
Dim
350
827
  3
Facepattern
350
82B
  3
Flat
350
81D
  3
FlatWithEdges
350
81E
  3
Gouraud
350
81F
  3
GouraudWithEdges
350
820
  3
Linepattern
350
82A
  3
Realistic
350
826
  3
Thicken
350
829
  0
DICTIONARY
  5
302
102
{ACAD_REACTORS
330
1B
102
}
330
1B
100
AcDbDictionary
281
     1
  3
CTABLESTYLE
350
80B
  3
INDEXCTL
350
303
  0
DICTIONARY
  5
2E0
102
{ACAD_REACTORS
330
1B
102
}
330
1B
100
AcDbDictionary
280
     1
281
     1
  3
ACMSTDDICTIONARY
360
2E1
  3
AMDTSECTSYM_ARROWCOLOR
360
3B7
  0
DICTIONARY
  5
34D
102
{ACAD_REACTORS
330
1B
102
}
330
1B
100
AcDbDictionary
281
     1
  0
DICTIONARY
  5
44E
102
{ACAD_REACTORS
330
1B
102
}
330
1B
100
AcDbDictionary
281
     1
  0
DICTIONARY
  5
807
102
{ACAD_REACTORS
330
1B
102
}
330
1B
100
AcDbDictionary
281
     1
  3
ASEBlockHierarchyIndexRecord
350
809
1001
DCO15
1040
1561276832.128
  0
LAYOUT
  5
346
102
{ACAD_REACTORS
330
343
102
}
330
343
100
AcDbPlotSettings
  1

  2
Basyouni CAD 1
  4

  6

 40
0.0
 41
0.0
 42
0.0
 43
0.0
 44
0.0
 45
0.0
 46
0.0
 47
0.0
 48
0.0
 49
0.0
140
0.0
141
0.0
142
1.0
143
1.0
 70
   688
 72
     0
 73
     0
 74
     5
  7
Zeich.ctb
 75
    16
147
1.0
 76
     0
 77
     2
 78
   300
148
0.0
149
0.0
100
AcDbLayout
  1
Layout1
 70
     0
 71
     1
 10
0.0
 20
0.0
 11
420.0
 21
297.0
 12
0.0
 22
0.0
 32
0.0
 14
1.000000000000000E+20
 24
1.000000000000000E+20
 34
1.000000000000000E+20
 15
-1.000000000000000E+20
 25
-1.000000000000000E+20
 35
-1.000000000000000E+20
146
0.0
 13
0.0
 23
0.0
 33
0.0
 16
1.0
 26
0.0
 36
0.0
 17
0.0
 27
1.0
 37
0.0
 76
     0
330
8
  0
LAYOUT
  5
345
102
{ACAD_REACTORS
330
343
102
}
330
343
100
AcDbPlotSettings
  1

  2
none_device
  4
Letter_(8.50_x_11.00_Inches)
  6

 40
6.349999904632568
 41
6.349999904632568
 42
6.350006103515625
 43
6.350006103515625
 44
215.8999938964844
 45
279.3999938964844
 46
0.0
 47
0.0
 48
0.0
 49
0.0
140
0.0
141
0.0
142
1.0
143
114.2857194757788
 70
 11952
 72
     0
 73
     1
 74
     0
  7
Zeich.ctb
 75
     0
147
0.0087499996026357
 76
     0
 77
     2
 78
   300
148
0.0
149
962.4043555032374
100
AcDbLayout
  1
Model
 70
     1
 71
     0
 10
0.0
 20
0.0
 11
12.0
 21
9.0
 12
0.0
 22
0.0
 32
0.0
 14
0.0
 24
0.0
 34
0.0
 15
0.0
 25
0.0
 35
0.0
146
0.0
 13
0.0
 23
0.0
 33
0.0
 16
1.0
 26
0.0
 36
0.0
 17
0.0
 27
1.0
 37
0.0
 76
     0
330
2
331
817
1001
ACAD_PSEXT
1000
Kein
1000
Kein
1000
Nicht anwendbar
1000
Das Layout wird erst geplottet, wenn ein neuer Plotter-Konfigurationsname ausgewählt wird.
1070
     0
  0
MATERIAL
  5
81A
102
{ACAD_XDICTIONARY
360
85B
102
}
102
{ACAD_REACTORS
330
33F
102
}
330
33F
100
AcDbMaterial
  1
ByBlock
  0
MATERIAL
  5
819
102
{ACAD_XDICTIONARY
360
859
102
}
102
{ACAD_REACTORS
330
33F
102
}
330
33F
100
AcDbMaterial
  1
ByLayer
  0
MATERIAL
  5
81B
102
{ACAD_XDICTIONARY
360
85D
102
}
102
{ACAD_REACTORS
330
33F
102
}
330
33F
100
AcDbMaterial
  1
Global
  0
MLINESTYLE
  5
1C
102
{ACAD_REACTORS
330
1A
102
}
330
1A
100
AcDbMlineStyle
  2
STANDARD
 70
     0
  3

 62
     0
 51
90.0
 52
90.0
 71
     2
 49
0.5
 62
   256
  6
BYLAYER
 49
-0.5
 62
   256
  6
BYLAYER
  0
ACDBPLACEHOLDER
  5
33E
102
{ACAD_REACTORS
330
33D
102
}
330
33D
  0
TABLESTYLE
  5
342
102
{ACAD_XDICTIONARY
360
857
102
}
102
{ACAD_REACTORS
330
341
102
}
330
341
100
AcDbTableStyle
  3
Standard
 70
     0
 71
     0
 40
0.06
 41
0.06
280
     0
281
     0
  7
STANDARD
140
0.18
170
     2
 62
     0
 63
     7
283
     0
274
    -2
284
     1
 64
     0
275
    -2
285
     1
 65
     0
276
    -2
286
     1
 66
     0
277
    -2
287
     1
 67
     0
278
    -2
288
     1
 68
     0
279
    -2
289
     1
 69
     0
  7
STANDARD
140
0.25
170
     5
 62
     0
 63
     7
283
     0
274
    -2
284
     1
 64
     0
275
    -2
285
     1
 65
     0
276
    -2
286
     1
 66
     0
277
    -2
287
     1
 67
     0
278
    -2
288
     1
 68
     0
279
    -2
289
     1
 69
     0
  7
STANDARD
140
0.18
170
     5
 62
     0
 63
     7
283
     0
274
    -2
284
     1
 64
     0
275
    -2
285
     1
 65
     0
276
    -2
286
     1
 66
     0
277
    -2
287
     1
 67
     0
278
    -2
288
     1
 68
     0
279
    -2
289
     1
 69
     0
  0
VISUALSTYLE
  5
822
102
{ACAD_REACTORS
330
81C
102
}
330
81C
100
AcDbVisualStyle
  2
2dWireframe
 70
     4
 71
     0
 72
     2
 73
     0
 90
        0
 40
-0.6
 41
-30.0
 62
     5
 63
     7
421
 16777215
 74
     1
 91
        4
 64
     7
 65
   257
 75
     1
175
     1
 42
1.0
 92
        0
 66
   257
 43
1.0
 76
     1
 77
     6
 78
     2
 67
     7
 79
     5
170
     0
171
     0
290
     0
174
     0
 93
        1
 44
0.0
173
     0
291
     0
 45
0.0
1001
ACAD
1000
AcDbSavedByObjectVersion
1070
     0
  0
VISUALSTYLE
  5
824
102
{ACAD_REACTORS
330
81C
102
}
330
81C
100
AcDbVisualStyle
  2
3D Hidden
 70
     6
 71
     1
 72
     2
 73
     2
 90
        0
 40
-0.6
 41
-30.0
 62
     5
 63
     7
421
 16777215
 74
     2
 91
        2
 64
     7
 65
   257
 75
     2
175
     1
 42
40.0
 92
        0
 66
   257
 43
1.0
 76
     1
 77
     6
 78
     2
 67
     7
 79
     3
170
     0
171
     0
290
     0
174
     0
 93
        1
 44
0.0
173
     0
291
     0
 45
0.0
1001
ACAD
1000
AcDbSavedByObjectVersion
1070
     0
  0
VISUALSTYLE
  5
823
102
{ACAD_REACTORS
330
81C
102
}
330
81C
100
AcDbVisualStyle
  2
3dWireframe
 70
     5
 71
     0
 72
     2
 73
     0
 90
        0
 40
-0.6
 41
-30.0
 62
     5
 63
     7
421
 16777215
 74
     1
 91
        4
 64
     7
 65
   257
 75
     1
175
     1
 42
1.0
 92
        0
 66
   257
 43
1.0
 76
     1
 77
     6
 78
     2
 67
     7
 79
     5
170
     0
171
     0
290
     0
174
     0
 93
        1
 44
0.0
173
     0
291
     0
 45
0.0
1001
ACAD
1000
AcDbSavedByObjectVersion
1070
     0
  0
VISUALSTYLE
  5
821
102
{ACAD_REACTORS
330
81C
102
}
330
81C
100
AcDbVisualStyle
  2
Basic
 70
     7
 71
     1
 72
     0
 73
     1
 90
        0
 40
-0.6
 41
-30.0
 62
     5
 63
     7
421
 16777215
 74
     0
 91
        4
 64
     7
 65
   257
 75
     1
175
     1
 42
1.0
 92
        8
 66
     7
 43
1.0
 76
     1
 77
     6
 78
     2
 67
     7
 79
     5
170
     0
171
     0
290
     0
174
     0
 93
        1
 44
0.0
173
     0
291
     1
 45
0.0
1001
ACAD
1000
AcDbSavedByObjectVersion
1070
     0
  0
VISUALSTYLE
  5
828
102
{ACAD_REACTORS
330
81C
102
}
330
81C
100
AcDbVisualStyle
  2
Brighten
 70
    12
 71
     2
 72
     2
 73
     0
 90
        0
 40
-0.6
 41
-30.0
 62
     5
 63
     7
421
 16777215
 74
     1
 91
        4
 64
     7
 65
   257
 75
     1
175
     1
 42
1.0
 92
        8
 66
     7
 43
1.0
 76
     1
 77
     6
 78
     2
 67
     7
 79
     5
170
     0
171
     0
290
     0
174
     0
 93
        1
 44
50.0
173
     0
291
     1
 45
0.0
1001
ACAD
1000
AcDbSavedByObjectVersion
1070
     0
  0
VISUALSTYLE
  5
82C
102
{ACAD_REACTORS
330
81C
102
}
330
81C
100
AcDbVisualStyle
  2
ColorChange
 70
    16
 71
     2
 72
     2
 73
     3
 90
        0
 40
-0.6
 41
-30.0
 62
     5
 63
     8
421
  8421504
 74
     1
 91
        4
 64
     7
 65
   257
 75
     1
175
     1
 42
1.0
 92
        8
 66
     8
424
  8421504
 43
1.0
 76
     1
 77
     6
 78
     2
 67
     7
 79
     5
170
     0
171
     0
290
     0
174
     0
 93
        1
 44
0.0
173
     0
291
     1
 45
0.0
1001
ACAD
1000
AcDbSavedByObjectVersion
1070
     0
  0
VISUALSTYLE
  5
825
102
{ACAD_REACTORS
330
81C
102
}
330
81C
100
AcDbVisualStyle
  2
Conceptual
 70
     9
 71
     3
 72
     2
 73
     0
 90
        0
 40
-0.6
 41
-30.0
 62
     5
 63
     7
421
 16777215
 74
     2
 91
        2
 64
     7
 65
   257
 75
     1
175
     1
 42
40.0
 92
        8
 66
     7
 43
1.0
 76
     1
 77
     6
 78
     2
 67
     7
 79
     3
170
     0
171
     0
290
     0
174
     0
 93
        1
 44
0.0
173
     0
291
     0
 45
0.0
1001
ACAD
1000
AcDbSavedByObjectVersion
1070
     0
  0
VISUALSTYLE
  5
827
102
{ACAD_REACTORS
330
81C
102
}
330
81C
100
AcDbVisualStyle
  2
Dim
 70
    11
 71
     2
 72
     2
 73
     0
 90
        0
 40
-0.6
 41
-30.0
 62
     5
 63
     7
421
 16777215
 74
     1
 91
        4
 64
     7
 65
   257
 75
     1
175
     1
 42
1.0
 92
        8
 66
     7
 43
1.0
 76
     1
 77
     6
 78
     2
 67
     7
 79
     5
170
     0
171
     0
290
     0
174
     0
 93
        1
 44
-50.0
173
     0
291
     1
 45
0.0
1001
ACAD
1000
AcDbSavedByObjectVersion
1070
     0
  0
VISUALSTYLE
  5
82B
102
{ACAD_REACTORS
330
81C
102
}
330
81C
100
AcDbVisualStyle
  2
Facepattern
 70
    15
 71
     2
 72
     2
 73
     0
 90
        0
 40
-0.6
 41
-30.0
 62
     5
 63
     7
421
 16777215
 74
     1
 91
        4
 64
     7
 65
   257
 75
     1
175
     1
 42
1.0
 92
        8
 66
     7
 43
1.0
 76
     1
 77
     6
 78
     2
 67
     7
 79
     5
170
     0
171
     0
290
     0
174
     0
 93
        1
 44
0.0
173
     0
291
     1
 45
0.0
1001
ACAD
1000
AcDbSavedByObjectVersion
1070
     0
  0
VISUALSTYLE
  5
81D
102
{ACAD_REACTORS
330
81C
102
}
330
81C
100
AcDbVisualStyle
  2
Flat
 70
     0
 71
     2
 72
     1
 73
     1
 90
        2
 40
-0.6
 41
30.0
 62
     5
 63
     7
421
 16777215
 74
     0
 91
        4
 64
     7
 65
   257
 75
     1
175
     1
 42
1.0
 92
        8
 66
     7
 43
1.0
 76
     1
 77
     6
 78
     2
 67
     7
 79
     5
170
     0
171
     0
290
     0
174
     0
 93
       13
 44
0.0
173
     0
291
     1
 45
0.0
1001
ACAD
1000
AcDbSavedByObjectVersion
1070
     0
  0
VISUALSTYLE
  5
81E
102
{ACAD_REACTORS
330
81C
102
}
330
81C
100
AcDbVisualStyle
  2
FlatWithEdges
 70
     1
 71
     2
 72
     1
 73
     1
 90
        2
 40
-0.6
 41
30.0
 62
     5
 63
     7
421
 16777215
 74
     1
 91
        4
 64
     7
 65
   257
 75
     1
175
     1
 42
1.0
 92
        0
 66
   257
 43
1.0
 76
     1
 77
     6
 78
     2
 67
     7
 79
     5
170
     0
171
     0
290
     0
174
     0
 93
       13
 44
0.0
173
     0
291
     1
 45
0.0
1001
ACAD
1000
AcDbSavedByObjectVersion
1070
     0
  0
VISUALSTYLE
  5
81F
102
{ACAD_REACTORS
330
81C
102
}
330
81C
100
AcDbVisualStyle
  2
Gouraud
 70
     2
 71
     2
 72
     2
 73
     1
 90
        2
 40
-0.6
 41
30.0
 62
     5
 63
     7
421
 16777215
 74
     0
 91
        4
 64
     7
 65
   257
 75
     1
175
     1
 42
1.0
 92
        0
 66
     7
 43
1.0
 76
     1
 77
     6
 78
     2
 67
     7
 79
     5
170
     0
171
     0
290
     0
174
     0
 93
       13
 44
0.0
173
     0
291
     1
 45
0.0
1001
ACAD
1000
AcDbSavedByObjectVersion
1070
     0
  0
VISUALSTYLE
  5
820
102
{ACAD_REACTORS
330
81C
102
}
330
81C
100
AcDbVisualStyle
  2
GouraudWithEdges
 70
     3
 71
     2
 72
     2
 73
     1
 90
        2
 40
-0.6
 41
30.0
 62
     5
 63
     7
421
 16777215
 74
     1
 91
        4
 64
     7
 65
   257
 75
     1
175
     1
 42
1.0
 92
        0
 66
   257
 43
1.0
 76
     1
 77
     6
 78
     2
 67
     7
 79
     5
170
     0
171
     0
290
     0
174
     0
 93
       13
 44
0.0
173
     0
291
     1
 45
0.0
1001
ACAD
1000
AcDbSavedByObjectVersion
1070
     0
  0
VISUALSTYLE
  5
82A
102
{ACAD_REACTORS
330
81C
102
}
330
81C
100
AcDbVisualStyle
  2
Linepattern
 70
    14
 71
     2
 72
     2
 73
     0
 90
        0
 40
-0.6
 41
-30.0
 62
     5
 63
     7
421
 16777215
 74
     1
 91
        4
 64
     7
 65
   257
 75
     7
175
     7
 42
1.0
 92
        8
 66
     7
 43
1.0
 76
     1
 77
     6
 78
     2
 67
     7
 79
     5
170
     0
171
     0
290
     0
174
     0
 93
        1
 44
0.0
173
     0
291
     1
 45
0.0
1001
ACAD
1000
AcDbSavedByObjectVersion
1070
     0
  0
VISUALSTYLE
  5
826
102
{ACAD_REACTORS
330
81C
102
}
330
81C
100
AcDbVisualStyle
  2
Realistic
 70
     8
 71
     2
 72
     2
 73
     0
 90
        0
 40
-0.6
 41
-30.0
 62
     5
 63
     7
421
 16777215
 74
     1
 91
        0
 64
     7
 65
   257
 75
     1
175
     1
 42
1.0
 92
        8
 66
     8
424
  7895160
 43
1.0
 76
     1
 77
     6
 78
     2
 67
     7
 79
     5
170
     0
171
     0
290
     0
174
     0
 93
       13
 44
0.0
173
     0
291
     0
 45
0.0
1001
ACAD
1000
AcDbSavedByObjectVersion
1070
     0
  0
VISUALSTYLE
  5
829
102
{ACAD_REACTORS
330
81C
102
}
330
81C
100
AcDbVisualStyle
  2
Thicken
 70
    13
 71
     2
 72
     2
 73
     0
 90
        0
 40
-0.6
 41
-30.0
 62
     5
 63
     7
421
 16777215
 74
     1
 91
        4
 64
     7
 65
   257
 75
     1
175
     1
 42
1.0
 92
       12
 66
     7
 43
1.0
 76
     1
 77
     6
 78
     2
 67
     7
 79
     5
170
     0
171
     0
290
     0
174
     0
 93
        1
 44
0.0
173
     0
291
     1
 45
0.0
1001
ACAD
1000
AcDbSavedByObjectVersion
1070
     0
  0
DICTIONARYVAR
  5
80B
102
{ACAD_REACTORS
330
302
102
}
330
302
100
DictionaryVariables
280
     0
  1
STANDARD
  0
DICTIONARYVAR
  5
303
102
{ACAD_REACTORS
330
302
102
}
330
302
100
DictionaryVariables
280
     0
  1
1
  0
DICTIONARY
  5
2E1
102
{ACAD_REACTORS
330
2E0
102
}
330
2E0
100
AcDbDictionary
281
     1
  0
XRECORD
  5
3B7
102
{ACAD_REACTORS
330
2E0
102
}
330
2E0
100
AcDbXrecord
280
     1
 90
-1023410169
  0
XRECORD
  5
809
102
{ACAD_REACTORS
330
807
102
}
330
807
100
AcDbXrecord
280
     1
  0
DICTIONARY
  5
85B
330
81A
100
AcDbDictionary
280
     1
281
     1
  3
ACAD_XREC_ROUNDTRIP
360
85C
  0
DICTIONARY
  5
859
330
819
100
AcDbDictionary
280
     1
281
     1
  3
ACAD_XREC_ROUNDTRIP
360
85A
  0
DICTIONARY
  5
85D
330
81B
100
AcDbDictionary
280
     1
281
     1
  3
ACAD_XREC_ROUNDTRIP
360
85E
  0
DICTIONARY
  5
857
330
342
100
AcDbDictionary
280
     1
281
     1
  3
ACAD_XREC_ROUNDTRIP
360
858
  0
XRECORD
  5
85C
102
{ACAD_REACTORS
330
85B
102
}
330
85B
100
AcDbXrecord
280
     1
102
MATERIAL
148
0.0
149
0.0
149
0.0
 93
        0
 94
       63
282
     0
 72
     1
 77
     1
171
     1
175
     1
179
     1
273
     0
  0
XRECORD
  5
85A
102
{ACAD_REACTORS
330
859
102
}
330
859
100
AcDbXrecord
280
     1
102
MATERIAL
148
0.0
149
0.0
149
0.0
 93
        0
 94
       63
282
     0
 72
     1
 77
     1
171
     1
175
     1
179
     1
273
     0
  0
XRECORD
  5
85E
102
{ACAD_REACTORS
330
85D
102
}
330
85D
100
AcDbXrecord
280
     1
102
MATERIAL
148
0.0
149
0.0
149
0.0
 93
        0
 94
       63
282
     0
 72
     1
 77
     1
171
     1
175
     1
179
     1
273
     0
  0
XRECORD
  5
858
102
{ACAD_REACTORS
330
857
102
}
330
857
100
AcDbXrecord
280
     1
102
ACAD_ROUNDTRIP_PRE2007_TABLESTYLE
 90
        4
 91
        0
  1

 92
        4
 93
        0
  2

 94
        4
 95
        0
  3

  0
ENDSEC
  0
EOF
