  0
SECTION
  2
HEADER
  9
$ACADVER
  1
AC1018
  9
$ACADMAINTVER
 70
   104
  9
$DWGCODEPAGE
  3
ANSI_1252
  9
$LASTSAVEDBY
  1
basyouni
  9
$CUSTOMPROPERTYTAG
  1
AmdtFileType
  9
$CUSTOMPROPERTY
  1
84
  9
$INSBASE
 10
0.0
 20
0.0
 30
0.0
  9
$EXTMIN
 10
98.28284719931289
 20
177.4343054804556
 30
0.0
  9
$EXTMAX
 10
1074.773051812481
 20
414.6404401456066
 30
0.0
  9
$LIMMIN
 10
0.0
 20
0.0
  9
$LIMMAX
 10
1200.0
 20
550.0
  9
$ORTHOMODE
 70
     1
  9
$REGENMODE
 70
     1
  9
$FILLMODE
 70
     1
  9
$QTEXTMODE
 70
     0
  9
$MIRRTEXT
 70
     1
  9
$LTSCALE
 40
1.0
  9
$ATTMODE
 70
     1
  9
$TEXTSIZE
 40
10.0
  9
$TRACEWID
 40
1.0
  9
$TEXTSTYLE
  7
STANDARD
  9
$CLAYER
  8
0
  9
$CELTYPE
  6
BYLAYER
  9
$CECOLOR
 62
   256
  9
$CELTSCALE
 40
10.0
  9
$DISPSILH
 70
     0
  9
$DIMSCALE
 40
1.0
  9
$DIMASZ
 40
7.0
  9
$DIMEXO
 40
0.0
  9
$DIMDLI
 40
7.0
  9
$DIMRND
 40
0.0
  9
$DIMDLE
 40
0.0
  9
$DIMEXE
 40
1.25
  9
$DIMTP
 40
0.0
  9
$DIMTM
 40
0.0
  9
$DIMTXT
 40
10.0
  9
$DIMCEN
 40
0.0
  9
$DIMTSZ
 40
0.0
  9
$DIMTOL
 70
     0
  9
$DIMLIM
 70
     0
  9
$DIMTIH
 70
     0
  9
$DIMTOH
 70
     0
  9
$DIMSE1
 70
     0
  9
$DIMSE2
 70
     0
  9
$DIMTAD
 70
     1
  9
$DIMZIN
 70
     8
  9
$DIMBLK
  1

  9
$DIMASO
 70
     1
  9
$DIMSHO
 70
     1
  9
$DIMPOST
  1

  9
$DIMAPOST
  1

  9
$DIMALT
 70
     0
  9
$DIMALTD
 70
     2
  9
$DIMALTF
 40
25.4
  9
$DIMLFAC
 40
1.0
  9
$DIMTOFL
 70
     1
  9
$DIMTVP
 40
0.0
  9
$DIMTIX
 70
     0
  9
$DIMSOXD
 70
     0
  9
$DIMSAH
 70
     0
  9
$DIMBLK1
  1

  9
$DIMBLK2
  1

  9
$DIMSTYLE
  2
ISO-25
  9
$DIMCLRD
 70
   256
  9
$DIMCLRE
 70
   256
  9
$DIMCLRT
 70
   256
  9
$DIMTFAC
 40
1.0
  9
$DIMGAP
 40
4.0
  9
$DIMJUST
 70
     0
  9
$DIMSD1
 70
     0
  9
$DIMSD2
 70
     0
  9
$DIMTOLJ
 70
     1
  9
$DIMTZIN
 70
     8
  9
$DIMALTZ
 70
     0
  9
$DIMALTTZ
 70
     0
  9
$DIMUPT
 70
     1
  9
$DIMDEC
 70
     4
  9
$DIMTDEC
 70
     4
  9
$DIMALTU
 70
     2
  9
$DIMALTTD
 70
     2
  9
$DIMTXSTY
  7
STANDARD
  9
$DIMAUNIT
 70
     0
  9
$DIMADEC
 70
     0
  9
$DIMALTRND
 40
0.0
  9
$DIMAZIN
 70
     0
  9
$DIMDSEP
 70
    46
  9
$DIMATFIT
 70
     0
  9
$DIMFRAC
 70
     0
  9
$DIMLDRBLK
  1

  9
$DIMLUNIT
 70
     2
  9
$DIMLWD
 70
    -2
  9
$DIMLWE
 70
    -2
  9
$DIMTMOVE
 70
     0
  9
$LUNITS
 70
     2
  9
$LUPREC
 70
     4
  9
$SKETCHINC
 40
1.0
  9
$FILLETRAD
 40
2.5
  9
$AUNITS
 70
     0
  9
$AUPREC
 70
     0
  9
$MENU
  1
.
  9
$ELEVATION
 40
0.0
  9
$PELEVATION
 40
0.0
  9
$THICKNESS
 40
0.0
  9
$LIMCHECK
 70
     0
  9
$CHAMFERA
 40
2.0
  9
$CHAMFERB
 40
2.0
  9
$CHAMFERC
 40
0.0
  9
$CHAMFERD
 40
0.0
  9
$SKPOLY
 70
     0
  9
$TDCREATE
 40
2450848.753473218
  9
$TDUCREATE
 40
2450848.670139884
  9
$TDUPDATE
 40
2454753.531576713
  9
$TDUUPDATE
 40
2454753.448243380
  9
$TDINDWG
 40
2.0749491898
  9
$TDUSRTIMER
 40
2.0749490162
  9
$USRTIMER
 70
     1
  9
$ANGBASE
 50
0.0
  9
$ANGDIR
 70
     0
  9
$PDMODE
 70
     0
  9
$PDSIZE
 40
0.0
  9
$PLINEWID
 40
0.5
  9
$SPLFRAME
 70
     0
  9
$SPLINETYPE
 70
     6
  9
$SPLINESEGS
 70
     8
  9
$HANDSEED
  5
C15
  9
$SURFTAB1
 70
     6
  9
$SURFTAB2
 70
     6
  9
$SURFTYPE
 70
     6
  9
$SURFU
 70
     6
  9
$SURFV
 70
     6
  9
$UCSBASE
  2

  9
$UCSNAME
  2

  9
$UCSORG
 10
0.0
 20
0.0
 30
0.0
  9
$UCSXDIR
 10
1.0
 20
0.0
 30
0.0
  9
$UCSYDIR
 10
0.0
 20
1.0
 30
0.0
  9
$UCSORTHOREF
  2

  9
$UCSORTHOVIEW
 70
     0
  9
$UCSORGTOP
 10
0.0
 20
0.0
 30
0.0
  9
$UCSORGBOTTOM
 10
0.0
 20
0.0
 30
0.0
  9
$UCSORGLEFT
 10
0.0
 20
0.0
 30
0.0
  9
$UCSORGRIGHT
 10
0.0
 20
0.0
 30
0.0
  9
$UCSORGFRONT
 10
0.0
 20
0.0
 30
0.0
  9
$UCSORGBACK
 10
0.0
 20
0.0
 30
0.0
  9
$PUCSBASE
  2

  9
$PUCSNAME
  2

  9
$PUCSORG
 10
0.0
 20
0.0
 30
0.0
  9
$PUCSXDIR
 10
1.0
 20
0.0
 30
0.0
  9
$PUCSYDIR
 10
0.0
 20
1.0
 30
0.0
  9
$PUCSORTHOREF
  2

  9
$PUCSORTHOVIEW
 70
     0
  9
$PUCSORGTOP
 10
0.0
 20
0.0
 30
0.0
  9
$PUCSORGBOTTOM
 10
0.0
 20
0.0
 30
0.0
  9
$PUCSORGLEFT
 10
0.0
 20
0.0
 30
0.0
  9
$PUCSORGRIGHT
 10
0.0
 20
0.0
 30
0.0
  9
$PUCSORGFRONT
 10
0.0
 20
0.0
 30
0.0
  9
$PUCSORGBACK
 10
0.0
 20
0.0
 30
0.0
  9
$USERI1
 70
     0
  9
$USERI2
 70
     0
  9
$USERI3
 70
     0
  9
$USERI4
 70
     0
  9
$USERI5
 70
     0
  9
$USERR1
 40
0.0
  9
$USERR2
 40
0.0
  9
$USERR3
 40
0.0
  9
$USERR4
 40
0.0
  9
$USERR5
 40
0.0
  9
$WORLDVIEW
 70
     1
  9
$SHADEDGE
 70
     3
  9
$SHADEDIF
 70
    70
  9
$TILEMODE
 70
     1
  9
$MAXACTVP
 70
    16
  9
$PINSBASE
 10
0.0
 20
0.0
 30
0.0
  9
$PLIMCHECK
 70
     0
  9
$PEXTMIN
 10
1.000000000000000E+20
 20
1.000000000000000E+20
 30
1.000000000000000E+20
  9
$PEXTMAX
 10
-1.000000000000000E+20
 20
-1.000000000000000E+20
 30
-1.000000000000000E+20
  9
$PLIMMIN
 10
0.0
 20
0.0
  9
$PLIMMAX
 10
420.0
 20
297.0
  9
$UNITMODE
 70
     0
  9
$VISRETAIN
 70
     0
  9
$PLINEGEN
 70
     0
  9
$PSLTSCALE
 70
     0
  9
$TREEDEPTH
 70
  3020
  9
$CMLSTYLE
  2
STANDARD
  9
$CMLJUST
 70
     0
  9
$CMLSCALE
 40
1.0
  9
$PROXYGRAPHICS
 70
     1
  9
$MEASUREMENT
 70
     0
  9
$CELWEIGHT
370
    -1
  9
$ENDCAPS
280
     0
  9
$JOINSTYLE
280
     0
  9
$LWDISPLAY
290
     0
  9
$INSUNITS
 70
     0
  9
$HYPERLINKBASE
  1

  9
$STYLESHEET
  1
ZEICH.CTB
  9
$XEDIT
290
     1
  9
$CEPSNTYPE
380
     0
  9
$PSTYLEMODE
290
     1
  9
$FINGERPRINTGUID
  2
{23329CC0-2371-11D5-B7CA-0010B575C074}
  9
$VERSIONGUID
  2
{038197C3-D4DF-4E16-8D63-CBFB5329AC78}
  9
$EXTNAMES
290
     1
  9
$PSVPSCALE
 40
0.0
  9
$OLESTARTUP
290
     0
  9
$SORTENTS
280
   127
  9
$INDEXCTL
280
     0
  9
$HIDETEXT
280
     0
  9
$XCLIPFRAME
290
     0
  9
$HALOGAP
280
     0
  9
$OBSCOLOR
 70
   257
  9
$OBSLTYPE
280
     0
  9
$INTERSECTIONDISPLAY
280
     0
  9
$INTERSECTIONCOLOR
 70
   257
  9
$DIMASSOC
280
     1
  9
$PROJECTNAME
  1

  0
ENDSEC
  0
SECTION
  2
CLASSES
  0
CLASS
  1
IDBUFFER
  2
AcDbIdBuffer
  3
ObjectDBX Classes
 90
        0
 91
        0
280
     0
281
     0
  0
CLASS
  1
DICTIONARYVAR
  2
AcDbDictionaryVar
  3
ObjectDBX Classes
 90
        0
 91
        2
280
     0
281
     0
  0
CLASS
  1
ACMESTATEMGR
  2
AcMeStateMgr
  3
AcMeServices
 90
        0
 91
        1
280
     0
281
     0
  0
CLASS
  1
ACMESCOPE
  2
AcMeScope
  3
AcMeServices
 90
        0
 91
        1
280
     0
281
     0
  0
CLASS
  1
ACMECOMMANDHISTORY
  2
AcMeCommandHistory
  3
AcMeServices
 90
        0
 91
        1
280
     0
281
     0
  0
CLASS
  1
ACRFINSADJUSTERMGR
  2
AcRfInsAdjusterMgr
  3
AcMeServices
 90
        0
 91
        1
280
     0
281
     0
  0
CLASS
  1
ACMEDRAWINGMAN
  2
AcMeDrawingMan
  3
AcMeServices
 90
        0
 91
        1
280
     0
281
     0
  0
CLASS
  1
AMATTR
  2
AcMeAttribute
  3
AcMeServices
 90
        0
 91
        0
280
     0
281
     0
  0
CLASS
  1
ACMEBOMCOLUMN
  2
AcMeBOMColumn
  3
AcMeServices
 90
        0
 91
        0
280
     0
281
     0
  0
CLASS
  1
ACMEBOMCONF
  2
AcMeBOMConf
  3
AcMeServices
 90
        0
 91
        0
280
     0
281
     0
  0
CLASS
  1
ACMEBOMTABLE
  2
AcMeBOMTable
  3
AcMeServices
 90
        0
 91
        0
280
     0
281
     0
  0
CLASS
  1
ACMEBOMENTRY
  2
AcMeBOMEntry
  3
AcMeServices
 90
        0
 91
        0
280
     0
281
     0
  0
CLASS
  1
ACMEVIEW
  2
AcMeView
  3
AcMeServices
 90
        0
 91
        1
280
     0
281
     0
  0
CLASS
  1
LAYER_INDEX
  2
AcDbLayerIndex
  3
ObjectDBX Classes
 90
        0
 91
        0
280
     0
281
     0
  0
CLASS
  1
ACIMSYSVARMAN
  2
AcImSysVarManager
  3
AcMeServices
 90
        0
 91
        5
280
     0
281
     0
  0
CLASS
  1
ACIMINTSYSVAR
  2
AcImIntSysVar
  3
AcMeServices
 90
        0
 91
       27
280
     0
281
     0
  0
CLASS
  1
ACIMSTRSYSVAR
  2
AcImStrSysVar
  3
AcMeServices
 90
        0
 91
        5
280
     0
281
     0
  0
CLASS
  1
ACMSTANDARDJIS
  2
AcmStandardJIS
  3
"Amdt_StdImp|Product Description: AutoCAD Mechanical|Company: Autodesk"
 90
        0
 91
        0
280
     0
281
     0
  0
CLASS
  1
ACMSTANDARDANSI
  2
AcmStandardANSI
  3
"Amdt_StdImp|Product Description: AutoCAD Mechanical|Company: Autodesk"
 90
        0
 91
        1
280
     0
281
     0
  0
CLASS
  1
ACMSTANDARDBSI
  2
AcmStandardBSI
  3
"Amdt_StdImp|Product Description: AutoCAD Mechanical|Company: Autodesk"
 90
        0
 91
        0
280
     0
281
     0
  0
CLASS
  1
ACMSTANDARDDIN
  2
AcmStandardDIN
  3
"Amdt_StdImp|Product Description: AutoCAD Mechanical|Company: Autodesk"
 90
        0
 91
        0
280
     0
281
     0
  0
CLASS
  1
ACMSTANDARDISO
  2
AcmStandardISO
  3
"Amdt_StdImp|Product Description: AutoCAD Mechanical|Company: Autodesk"
 90
        0
 91
        0
280
     0
281
     0
  0
CLASS
  1
ACDBDICTIONARYWDFLT
  2
AcDbDictionaryWithDefault
  3
ObjectDBX Classes
 90
        0
 91
        1
280
     0
281
     0
  0
CLASS
  1
ACME_DOCUMENT
  2
AcMeDbDoc
  3
AcMeServices
 90
        0
 91
        1
280
     0
281
     0
  0
CLASS
  1
AMGSETTINGSOBJ
  2
AmgSettingsObj
  3
"AcadM|Product Description: AutoCAD Mechanical|Company: Autodesk"
 90
        0
 91
        2
280
     0
281
     0
  0
CLASS
  1
ACIMREALSYSVAR
  2
AcImRealSysVar
  3
AcMeServices
 90
        0
 91
        1
280
     0
281
     0
  0
CLASS
  1
ACDBENTITYCACHE
  2
AcMeEntityCache
  3
AcMeServices
 90
        0
 91
        1
280
     0
281
     0
  0
CLASS
  1
GSMANAGER
  2
AcMeGSManager
  3
AcMeServices
 90
        0
 91
        1
280
     0
281
     0
  0
CLASS
  1
AMDTINTERNALREACTOR
  2
AmdtInternalReactor
  3
AcMeServices
 90
        0
 91
        2
280
     0
281
     0
  0
CLASS
  1
ACME_DATABASE
  2
AcMeDbDatabase
  3
AcMeServices
 90
        0
 91
        1
280
     0
281
     0
  0
CLASS
  1
ACMDATADICTIONARY
  2
AcmDataDictionary
  3
"AcmSymBB|Product Description: AutoCAD Mechanical|Company: Autodesk"
 90
        0
 91
        1
280
     0
281
     0
  0
CLASS
  1
ACMDATAENTRYBLOCK
  2
AcmDataEntryBlock
  3
"AcmSymBB|Product Description: AutoCAD Mechanical|Company: Autodesk"
 90
        0
 91
        0
280
     0
281
     0
  0
CLASS
  1
ACMSURFSTANDARDJIS
  2
AcmSurfTextStdJIS
  3
"Amdt_StdImp|Product Description: AutoCAD Mechanical|Company: Autodesk"
 90
        0
 91
        0
280
     0
281
     0
  0
CLASS
  1
ACMFCFSTANDARDJIS
  2
AcmFCFStdJIS
  3
"Amdt_StdImp|Product Description: AutoCAD Mechanical|Company: Autodesk"
 90
        0
 91
        0
280
     0
281
     0
  0
CLASS
  1
ACMWELDSTANDARDJIS
  2
AcmWeldingStdJIS
  3
"Amdt_StdImp|Product Description: AutoCAD Mechanical|Company: Autodesk"
 90
        0
 91
        0
280
     0
281
     0
  0
CLASS
  1
ACMIDSTANDARDJIS
  2
AcmIdStdJIS
  3
"Amdt_StdImp|Product Description: AutoCAD Mechanical|Company: Autodesk"
 90
        0
 91
        0
280
     0
281
     0
  0
CLASS
  1
ACMDATUMSTANDARDJIS
  2
AcmDatumStdJIS
  3
"Amdt_StdImp|Product Description: AutoCAD Mechanical|Company: Autodesk"
 90
        0
 91
        0
280
     0
281
     0
  0
CLASS
  1
ACMBOMSTANDARDJIS
  2
AcmBOMStdJIS
  3
"Amdt_StdImp|Product Description: AutoCAD Mechanical|Company: Autodesk"
 90
        0
 91
        0
280
     0
281
     0
  0
CLASS
  1
AMGOBJPROPCFG
  2
AmgObjPropCfg
  3
"AmgLay|Product Description: AutoCAD Mechanical|Company: Autodesk"
 90
        1
 91
        1
280
     0
281
     0
  0
CLASS
  1
ACMSURFSTANDARDANSI
  2
AcmSurfTextStdANSI
  3
"Amdt_StdImp|Product Description: AutoCAD Mechanical|Company: Autodesk"
 90
        0
 91
        1
280
     0
281
     0
  0
CLASS
  1
ACMFCFSTANDARDANSI
  2
AcmFCFStdANSI
  3
"Amdt_StdImp|Product Description: AutoCAD Mechanical|Company: Autodesk"
 90
        0
 91
        1
280
     0
281
     0
  0
CLASS
  1
ACMWELDSTANDARDANSI
  2
AcmWeldingStdANSI
  3
"Amdt_StdImp|Product Description: AutoCAD Mechanical|Company: Autodesk"
 90
        0
 91
        1
280
     0
281
     0
  0
CLASS
  1
ACMIDSTANDARDANSI
  2
AcmIdStdANSI
  3
"Amdt_StdImp|Product Description: AutoCAD Mechanical|Company: Autodesk"
 90
        0
 91
        1
280
     0
281
     0
  0
CLASS
  1
ACMDATUMSTANDARDANSI
  2
AcmDatumStdANSI
  3
"Amdt_StdImp|Product Description: AutoCAD Mechanical|Company: Autodesk"
 90
        0
 91
        1
280
     0
281
     0
  0
CLASS
  1
ACMBOMSTANDARDANSI
  2
AcmBOMStdANSI
  3
"Amdt_StdImp|Product Description: AutoCAD Mechanical|Company: Autodesk"
 90
        0
 91
        1
280
     0
281
     0
  0
CLASS
  1
ACMSURFSTANDARDBSI
  2
AcmSurfTextStdBSI
  3
"Amdt_StdImp|Product Description: AutoCAD Mechanical|Company: Autodesk"
 90
        0
 91
        0
280
     0
281
     0
  0
CLASS
  1
ACMFCFSTANDARDBSI
  2
AcmFCFStdBSI
  3
"Amdt_StdImp|Product Description: AutoCAD Mechanical|Company: Autodesk"
 90
        0
 91
        0
280
     0
281
     0
  0
CLASS
  1
ACMWELDSTANDARDBSI
  2
AcmWeldingStdBSI
  3
"Amdt_StdImp|Product Description: AutoCAD Mechanical|Company: Autodesk"
 90
        0
 91
        0
280
     0
281
     0
  0
CLASS
  1
ACMIDSTANDARDBSI
  2
AcmIdStdBSI
  3
"Amdt_StdImp|Product Description: AutoCAD Mechanical|Company: Autodesk"
 90
        0
 91
        0
280
     0
281
     0
  0
CLASS
  1
ACMDATUMSTANDARDBSI
  2
AcmDatumStdBSI
  3
"Amdt_StdImp|Product Description: AutoCAD Mechanical|Company: Autodesk"
 90
        0
 91
        0
280
     0
281
     0
  0
CLASS
  1
ACMBOMSTANDARDBSI
  2
AcmBOMStdBSI
  3
"Amdt_StdImp|Product Description: AutoCAD Mechanical|Company: Autodesk"
 90
        0
 91
        0
280
     0
281
     0
  0
CLASS
  1
AMDTEDGESTANDARDDIN
  2
AmdtEdgeStdDIN
  3
"Amdt_StdImp|Product Description: AutoCAD Mechanical|Company: Autodesk"
 90
        0
 91
        0
280
     0
281
     0
  0
CLASS
  1
ACMSURFSTANDARDDIN
  2
AcmSurfTextStdDIN
  3
"Amdt_StdImp|Product Description: AutoCAD Mechanical|Company: Autodesk"
 90
        0
 91
        0
280
     0
281
     0
  0
CLASS
  1
ACMFCFSTANDARDDIN
  2
AcmFCFStdDIN
  3
"Amdt_StdImp|Product Description: AutoCAD Mechanical|Company: Autodesk"
 90
        0
 91
        0
280
     0
281
     0
  0
CLASS
  1
ACMWELDSTANDARDDIN
  2
AcmWeldingStdDIN
  3
"Amdt_StdImp|Product Description: AutoCAD Mechanical|Company: Autodesk"
 90
        0
 91
        0
280
     0
281
     0
  0
CLASS
  1
ACMIDSTANDARDDIN
  2
AcmIdStdDIN
  3
"Amdt_StdImp|Product Description: AutoCAD Mechanical|Company: Autodesk"
 90
        0
 91
        0
280
     0
281
     0
  0
CLASS
  1
ACMDATUMSTANDARDDIN
  2
AcmDatumStdDIN
  3
"Amdt_StdImp|Product Description: AutoCAD Mechanical|Company: Autodesk"
 90
        0
 91
        0
280
     0
281
     0
  0
CLASS
  1
ACMBOMSTANDARDDIN
  2
AcmBOMStdDIN
  3
"Amdt_StdImp|Product Description: AutoCAD Mechanical|Company: Autodesk"
 90
        0
 91
        0
280
     0
281
     0
  0
CLASS
  1
AMDTEDGESTANDARDISO
  2
AmdtEdgeStdISO
  3
"Amdt_StdImp|Product Description: AutoCAD Mechanical|Company: Autodesk"
 90
        0
 91
        0
280
     0
281
     0
  0
CLASS
  1
ACMSURFSTANDARDISO
  2
AcmSurfTextStdISO
  3
"Amdt_StdImp|Product Description: AutoCAD Mechanical|Company: Autodesk"
 90
        0
 91
        0
280
     0
281
     0
  0
CLASS
  1
ACMFCFSTANDARDISO
  2
AcmFCFStdISO
  3
"Amdt_StdImp|Product Description: AutoCAD Mechanical|Company: Autodesk"
 90
        0
 91
        0
280
     0
281
     0
  0
CLASS
  1
ACMWELDSTANDARDISO
  2
AcmWeldingStdISO
  3
"Amdt_StdImp|Product Description: AutoCAD Mechanical|Company: Autodesk"
 90
        0
 91
        0
280
     0
281
     0
  0
CLASS
  1
ACMIDSTANDARDISO
  2
AcmIdStdISO
  3
"Amdt_StdImp|Product Description: AutoCAD Mechanical|Company: Autodesk"
 90
        0
 91
        0
280
     0
281
     0
  0
CLASS
  1
ACMDATUMSTANDARDISO
  2
AcmDatumStdISO
  3
"Amdt_StdImp|Product Description: AutoCAD Mechanical|Company: Autodesk"
 90
        0
 91
        0
280
     0
281
     0
  0
CLASS
  1
ACMBOMSTANDARDISO
  2
AcmBOMStdISO
  3
"Amdt_StdImp|Product Description: AutoCAD Mechanical|Company: Autodesk"
 90
        0
 91
        0
280
     0
281
     0
  0
CLASS
  1
ACAMGFILTERDAT
  2
AcAmgFilterDat
  3
"AcadM|Product Description: AutoCAD Mechanical|Company: Autodesk"
 90
        0
 91
        0
280
     0
281
     0
  0
CLASS
  1
ACGREFMASTER
  2
AcGrefMaster
  3
AcAttribServices
 90
        0
 91
        1
280
     0
281
     0
  0
CLASS
  1
AM_DRAWING_MGR
  2
AcDmDwgMgr
  3
AcMechDwgViewMgmt
 90
        0
 91
        1
280
     0
281
     0
  0
CLASS
  1
AM_DWG_DOCUMENT
  2
AcDmDwgDocument
  3
AcMechDwgViewMgmt
 90
        0
 91
        1
280
     0
281
     0
  0
CLASS
  1
AM_DWG_SHEET
  2
AcDmSheet
  3
AcMechDwgViewMgmt
 90
        0
 91
        1
280
     0
281
     0
  0
CLASS
  1
AM_VIEWDIMPARMAP
  2
AcDmViewDimParMap
  3
AcMechDwgViewMgmt
 90
        0
 91
        1
280
     0
281
     0
  0
CLASS
  1
AM_DWGMGR_NAME
  2
AcDmDwgMgrName
  3
AcMechDwgViewMgmt
 90
        0
 91
        1
280
     0
281
     0
  0
CLASS
  1
ACGREFACADMASTER
  2
AcGrefacadMaster
  3
AcGrefServices
 90
        0
 91
        1
280
     0
281
     0
  0
CLASS
  1
AMDTMENUSTATEMGR
  2
AmdtMenuStateMgr
  3
McadcomServices
 90
        0
 91
        1
280
     0
281
     0
  0
CLASS
  1
AMDTMCOMMENUSTATE
  2
AmdtMcomMenuState
  3
McadcomServices
 90
        0
 91
        1
280
     0
281
     0
  0
CLASS
  1
AMIMASTER
  2
AmiMaster
  3
AmiServices
 90
        0
 91
        1
280
     0
281
     0
  0
CLASS
  1
MAPIAMMOUDLE
  2
MApiAmModule
  3
MApiAmServices
 90
        0
 91
        1
280
     0
281
     0
  0
CLASS
  1
AMDTADMENUSTATE
  2
AmdtAdMenuState
  3
DesignerServices
 90
        0
 91
        1
280
     0
281
     0
  0
CLASS
  1
ADAPPL
  2
AcAdAppl
  3
DesignerServices
 90
        0
 91
        1
280
     0
281
     0
  0
CLASS
  1
DEPMGR
  2
AcAdDepMgr
  3
DesignerServices
 90
        0
 91
        1
280
     0
281
     0
  0
CLASS
  1
PARAMMGR
  2
AcAdParamMgr
  3
DesignerServices
 90
        0
 91
        1
280
     0
281
     0
  0
CLASS
  1
PARAMSCOPE
  2
AcAdParamScope
  3
DesignerServices
 90
        0
 91
        1
280
     0
281
     0
  0
CLASS
  1
NAMEDAPPL
  2
AcAdNamedAppl
  3
DesignerServices
 90
        0
 91
        1
280
     0
281
     0
  0
CLASS
  1
AMDTDMMENUSTATE
  2
AmdtDmMenuState
  3
AcMechDwgViewMgmt
 90
        0
 91
        1
280
     0
281
     0
  0
CLASS
  1
AMDTAMMENUSTATE
  2
AmdtAmMenuState
  3
DesignerAssemblies
 90
        0
 91
        1
280
     0
281
     0
  0
CLASS
  1
ACAMPROJECT
  2
AcAmProject
  3
DesignerAssemblies
 90
        0
 91
        1
280
     0
281
     0
  0
CLASS
  1
ACAMGRCOMPDEF
  2
AcAmGrCompDef
  3
DesignerAssemblies
 90
        0
 91
        1
280
     0
281
     0
  0
CLASS
  1
ACCMCONTEXT
  2
AcCmContext
  3
DesignerAssemblies
 90
        0
 91
        1
280
     0
281
     0
  0
CLASS
  1
ACAMCOMPDEF
  2
AcAmCompDef
  3
DesignerAssemblies
 90
        0
 91
        1
280
     0
281
     0
  0
CLASS
  1
ACAMCOMPDEFMGR
  2
AcAmCompDefMgr
  3
DesignerAssemblies
 90
        0
 91
        1
280
     0
281
     0
  0
CLASS
  1
AMCONTEXTMGR
  2
AcAmContextMgr
  3
DesignerAssemblies
 90
        0
 91
        1
280
     0
281
     0
  0
CLASS
  1
ACAMCONTEXTMODELER
  2
AcAmContextModeler
  3
DesignerAssemblies
 90
        0
 91
        1
280
     0
281
     0
  0
CLASS
  1
ACAMGTITLESTD
  2
AcAmgTitleStd
  3
"AmgTitle|Product Description: AutoCAD Mechanical|Company: Autodesk"
 90
        0
 91
        1
280
     0
281
     0
  0
CLASS
  1
ACMDETAILSTANDARDJIS
  2
AmdtDetailSymStdJIS
  3
"Amdt_StdImp|Product Description: AutoCAD Mechanical|Company: Autodesk"
 90
        0
 91
        0
280
     0
281
     0
  0
CLASS
  1
ACMSECTIONSTANDARDJIS
  2
AmdtSectionSymStdJIS
  3
"Amdt_StdImp|Product Description: AutoCAD Mechanical|Company: Autodesk"
 90
        0
 91
        0
280
     0
281
     0
  0
CLASS
  1
ACMCENTERLINESTANDARDJIS
  2
AmdtCenterLineStdJIS
  3
"Amdt_StdImp|Product Description: AutoCAD Mechanical|Company: Autodesk"
 90
        0
 91
        0
280
     0
281
     0
  0
CLASS
  1
ACMTHREADLINESTANDARDJIS
  2
AmdtThreadLineStdJIS
  3
"Amdt_StdImp|Product Description: AutoCAD Mechanical|Company: Autodesk"
 90
        0
 91
        0
280
     0
281
     0
  0
CLASS
  1
ACMNOTESTANDARDJIS
  2
AmdtNoteStdJIS
  3
"Amdt_StdImp|Product Description: AutoCAD Mechanical|Company: Autodesk"
 90
        0
 91
        0
280
     0
281
     0
  0
CLASS
  1
AMDTNOTETEMPLATEDB
  2
AmdtNoteTemplateDB
  3
AMDT_STDIMP_MODULE_NAME
 90
        0
 91
        6
280
     0
281
     0
  0
CLASS
  1
ACMDETAILSTANDARDANSI
  2
AmdtDetailSymStdANSI
  3
"Amdt_StdImp|Product Description: AutoCAD Mechanical|Company: Autodesk"
 90
        0
 91
        1
280
     0
281
     0
  0
CLASS
  1
ACMSECTIONSTANDARDANSI
  2
AmdtSectionSymStdANSI
  3
"Amdt_StdImp|Product Description: AutoCAD Mechanical|Company: Autodesk"
 90
        0
 91
        1
280
     0
281
     0
  0
CLASS
  1
ACMCENTERLINESTANDARDANSI
  2
AmdtCenterLineStdANSI
  3
"Amdt_StdImp|Product Description: AutoCAD Mechanical|Company: Autodesk"
 90
        0
 91
        1
280
     0
281
     0
  0
CLASS
  1
ACMTHREADLINESTANDARDANSI
  2
AmdtThreadLineStdANSI
  3
"Amdt_StdImp|Product Description: AutoCAD Mechanical|Company: Autodesk"
 90
        0
 91
        1
280
     0
281
     0
  0
CLASS
  1
ACMNOTESTANDARDANSI
  2
AmdtNoteStdANSI
  3
"Amdt_StdImp|Product Description: AutoCAD Mechanical|Company: Autodesk"
 90
        0
 91
        1
280
     0
281
     0
  0
CLASS
  1
ACMDETAILSTANDARDBSI
  2
AmdtDetailSymStdBSI
  3
"Amdt_StdImp|Product Description: AutoCAD Mechanical|Company: Autodesk"
 90
        0
 91
        0
280
     0
281
     0
  0
CLASS
  1
ACMSECTIONSTANDARDBSI
  2
AmdtSectionSymStdBSI
  3
"Amdt_StdImp|Product Description: AutoCAD Mechanical|Company: Autodesk"
 90
        0
 91
        0
280
     0
281
     0
  0
CLASS
  1
ACMCENTERLINESTANDARDBSI
  2
AmdtCenterLineStdBSI
  3
"Amdt_StdImp|Product Description: AutoCAD Mechanical|Company: Autodesk"
 90
        0
 91
        0
280
     0
281
     0
  0
CLASS
  1
ACMTHREADLINESTANDARDBSI
  2
AmdtThreadLineStdBSI
  3
"Amdt_StdImp|Product Description: AutoCAD Mechanical|Company: Autodesk"
 90
        0
 91
        0
280
     0
281
     0
  0
CLASS
  1
ACMNOTESTANDARDBSI
  2
AmdtNoteStdBSI
  3
"Amdt_StdImp|Product Description: AutoCAD Mechanical|Company: Autodesk"
 90
        0
 91
        0
280
     0
281
     0
  0
CLASS
  1
ACMDETAILSTANDARDDIN
  2
AmdtDetailSymStdDIN
  3
"Amdt_StdImp|Product Description: AutoCAD Mechanical|Company: Autodesk"
 90
        0
 91
        0
280
     0
281
     0
  0
CLASS
  1
ACMSECTIONSTANDARDDIN
  2
AmdtSectionSymStdDIN
  3
"Amdt_StdImp|Product Description: AutoCAD Mechanical|Company: Autodesk"
 90
        0
 91
        0
280
     0
281
     0
  0
CLASS
  1
ACMCENTERLINESTANDARDDIN
  2
AmdtCenterLineStdDIN
  3
"Amdt_StdImp|Product Description: AutoCAD Mechanical|Company: Autodesk"
 90
        0
 91
        0
280
     0
281
     0
  0
CLASS
  1
ACMTHREADLINESTANDARDDIN
  2
AmdtThreadLineStdDIN
  3
"Amdt_StdImp|Product Description: AutoCAD Mechanical|Company: Autodesk"
 90
        0
 91
        0
280
     0
281
     0
  0
CLASS
  1
ACMNOTESTANDARDDIN
  2
AmdtNoteStdDIN
  3
"Amdt_StdImp|Product Description: AutoCAD Mechanical|Company: Autodesk"
 90
        0
 91
        0
280
     0
281
     0
  0
CLASS
  1
ACMDETAILSTANDARDISO
  2
AmdtDetailSymStdISO
  3
"Amdt_StdImp|Product Description: AutoCAD Mechanical|Company: Autodesk"
 90
        0
 91
        0
280
     0
281
     0
  0
CLASS
  1
ACMSECTIONSTANDARDISO
  2
AmdtSectionSymStdISO
  3
"Amdt_StdImp|Product Description: AutoCAD Mechanical|Company: Autodesk"
 90
        0
 91
        0
280
     0
281
     0
  0
CLASS
  1
ACMCENTERLINESTANDARDISO
  2
AmdtCenterLineStdISO
  3
"Amdt_StdImp|Product Description: AutoCAD Mechanical|Company: Autodesk"
 90
        0
 91
        0
280
     0
281
     0
  0
CLASS
  1
ACMTHREADLINESTANDARDISO
  2
AmdtThreadLineStdISO
  3
"Amdt_StdImp|Product Description: AutoCAD Mechanical|Company: Autodesk"
 90
        0
 91
        0
280
     0
281
     0
  0
CLASS
  1
ACMNOTESTANDARDISO
  2
AmdtNoteStdISO
  3
"Amdt_StdImp|Product Description: AutoCAD Mechanical|Company: Autodesk"
 90
        0
 91
        0
280
     0
281
     0
  0
CLASS
  1
ACAMGLAYSTD
  2
AcAmgLayStd
  3
"AmgLay|Product Description: AutoCAD Mechanical|Company: Autodesk"
 90
        0
 91
        1
280
     0
281
     0
  0
CLASS
  1
ACAMGDIMSTD
  2
AcAmgDimStd
  3
"AmgDim|Product Description: AutoCAD Mechanical|Company: Autodesk"
 90
        0
 91
        1
280
     0
281
     0
  0
CLASS
  1
ACAMGHOLECHARTSTDANSI
  2
AcAmgHoleChartStdANSI
  3
ACMSYMBB_MODULE_NAME
 90
        0
 91
        1
280
     0
281
     0
  0
CLASS
  1
ACAMGHOLECHARTSTDBSI
  2
AcAmgHoleChartStdBSI
  3
ACMSYMBB_MODULE_NAME
 90
        0
 91
        0
280
     0
281
     0
  0
CLASS
  1
ACAMGHOLECHARTSTDDIN
  2
AcAmgHoleChartStdDIN
  3
ACMSYMBB_MODULE_NAME
 90
        0
 91
        0
280
     0
281
     0
  0
CLASS
  1
ACAMGHOLECHARTSTDISO
  2
AcAmgHoleChartStdISO
  3
ACMSYMBB_MODULE_NAME
 90
        0
 91
        0
280
     0
281
     0
  0
CLASS
  1
ACAMGHOLECHARTSTDJIS
  2
AcAmgHoleChartStdJIS
  3
ACMSYMBB_MODULE_NAME
 90
        0
 91
        0
280
     0
281
     0
  0
CLASS
  1
CATALOGSTATE
  2
AcAmCatalogState
  3
DesignerAssemblies
 90
        0
 91
        1
280
     0
281
     0
  0
CLASS
  1
ACAMGRCOMPDEFSET
  2
AcAmGrCompDefSet
  3
DesignerAssemblies
 90
        0
 91
        1
280
     0
281
     0
  0
CLASS
  1
AMDTBROWSERDBTAB
  2
AmdtBrowserDbTab
  3
McadcomServices
 90
        0
 91
        1
280
     0
281
     0
  0
CLASS
  1
CBROWSERAPPOBJECT
  2
CBrowserAppObject
  3
McadcomServices
 90
        0
 91
        3
280
     0
281
     0
  0
CLASS
  1
DM_PLACEHOLDER
  2
AcDmSelsetPlaceholder
  3
AcMechDwgViewMgmt
 90
        0
 91
        1
280
     0
281
     0
  0
CLASS
  1
MATERIAL
  2
AcDbMaterial
  3
ObjectDBX Classes
 90
     1153
 91
        3
280
     0
281
     0
  0
CLASS
  1
VISUALSTYLE
  2
AcDbVisualStyle
  3
ObjectDBX Classes
 90
     4095
 91
       16
280
     0
281
     0
  0
CLASS
  1
TABLESTYLE
  2
AcDbTableStyle
  3
ObjectDBX Classes
 90
     4095
 91
        1
280
     0
281
     0
  0
CLASS
  1
ACRFATTGENMGR
  2
AcRfAttGeneralMgr
  3
AcAttribServices
 90
        0
 91
        0
280
     0
281
     0
  0
CLASS
  1
ACRFOBJATTMGR
  2
AcRfObjAttGroupMgr
  3
AcAttribServices
 90
        0
 91
        0
280
     0
281
     0
  0
CLASS
  1
ACRFMCADAPIATTHOLDER
  2
AcRfMCADAPIAttHolder
  3
AcAttribServices
 90
        0
 91
        0
280
     0
281
     0
  0
CLASS
  1
AMDTSYSATTR
  2
AmdtSystemAttribute
  3
AcAttribServices
 90
        0
 91
        0
280
     0
281
     0
  0
CLASS
  1
ACMTAPERSTANDARDJIS
  2
AcmTaperStdJIS
  3
"Amdt_StdImp|Product Description: AutoCAD Mechanical|Company: Autodesk"
 90
        0
 91
        0
280
     0
281
     0
  0
CLASS
  1
ACMTAPERSTANDARDANSI
  2
AcmTaperStdANSI
  3
"Amdt_StdImp|Product Description: AutoCAD Mechanical|Company: Autodesk"
 90
        0
 91
        1
280
     0
281
     0
  0
CLASS
  1
ACMTAPERSTANDARDBSI
  2
AcmTaperStdBSI
  3
"Amdt_StdImp|Product Description: AutoCAD Mechanical|Company: Autodesk"
 90
        0
 91
        0
280
     0
281
     0
  0
CLASS
  1
ACMTAPERSTANDARDDIN
  2
AcmTaperStdDIN
  3
"Amdt_StdImp|Product Description: AutoCAD Mechanical|Company: Autodesk"
 90
        0
 91
        0
280
     0
281
     0
  0
CLASS
  1
ACMTAPERSTANDARDISO
  2
AcmTaperStdISO
  3
"Amdt_StdImp|Product Description: AutoCAD Mechanical|Company: Autodesk"
 90
        0
 91
        0
280
     0
281
     0
  0
CLASS
  1
CAMSSTRUCTBTNSTATE
  2
StructBtnState
  3
L"DesignerAssemblies"
 90
        0
 91
        0
280
     0
281
     0
  0
ENDSEC
  0
SECTION
  2
TABLES
  0
TABLE
  2
VPORT
  5
13
330
0
100
AcDbSymbolTable
 70
     1
  0
VPORT
  5
69E
330
13
100
AcDbSymbolTableRecord
100
AcDbViewportTableRecord
  2
*Active
 70
     0
 10
0.0
 20
0.0
 11
1.0
 21
1.0
 12
600.0000000000002
 22
275.0
 13
0.0
 23
0.0
 14
10.0
 24
10.0
 15
10.0
 25
10.0
 16
0.0
 26
0.0
 36
1.0
 17
0.0
 27
0.0
 37
0.0
 40
738.5199240986715
 41
1.624871531346351
 42
50.0
 43
0.0
 44
0.0
 50
0.0
 51
0.0
 71
     0
 72
   100
 73
     1
 74
     0
 75
     0
 76
     0
 77
     0
 78
     0
281
     0
 65
     0
110
0.0
120
0.0
130
0.0
111
1.0
121
0.0
131
0.0
112
0.0
122
1.0
132
0.0
 79
     0
146
0.0
  0
ENDTAB
  0
TABLE
  2
LTYPE
  5
E
330
0
100
AcDbSymbolTable
 70
    29
  0
LTYPE
  5
F
330
E
100
AcDbSymbolTableRecord
100
AcDbLinetypeTableRecord
  2
BYBLOCK
 70
     0
  3

 72
    65
 73
     0
 40
0.0
  0
LTYPE
  5
10
330
E
100
AcDbSymbolTableRecord
100
AcDbLinetypeTableRecord
  2
BYLAYER
 70
     0
  3

 72
    65
 73
     0
 40
0.0
  0
LTYPE
  5
6
330
E
100
AcDbSymbolTableRecord
100
AcDbLinetypeTableRecord
  2
CONTINUOUS
 70
     0
  3
Solid line
 72
    65
 73
     0
 40
0.0
  0
LTYPE
  5
24
330
E
100
AcDbSymbolTableRecord
100
AcDbLinetypeTableRecord
  2
MITTE
 70
     0
  3
____ _ ____ _ ____ _ ____ _ ____ _ ____ _ ____ 
 72
    65
 73
     4
 40
2.0
 49
1.25
 74
     0
 49
-0.25
 74
     0
 49
0.25
 74
     0
 49
-0.25
 74
     0
  0
LTYPE
  5
193
330
E
100
AcDbSymbolTableRecord
100
AcDbLinetypeTableRecord
  2
GESTRICHELT
 70
     0
  3
__ __ __ __ __ __ __ __ __ __ __ __ __ __ __ __
 72
    65
 73
     2
 40
0.75
 49
0.5
 74
     0
 49
-0.25
 74
     0
  0
LTYPE
  5
31B
330
E
100
AcDbSymbolTableRecord
100
AcDbLinetypeTableRecord
  2
ACJISTGB
 70
     0
  3
__ . . __ . .
 72
    65
 73
     6
 40
9.0
 49
4.0
 74
     0
 49
-1.0
 74
     0
 49
1.0
 74
     0
 49
-1.0
 74
     0
 49
1.0
 74
     0
 49
-1.0
 74
     0
  0
LTYPE
  5
31C
330
E
100
AcDbSymbolTableRecord
100
AcDbLinetypeTableRecord
  2
ACJISTGL
 70
     0
  3
_ _ _ _ _
 72
    65
 73
     2
 40
3.0
 49
2.0
 74
     0
 49
-1.0
 74
     0
  0
LTYPE
  5
31F
330
E
100
AcDbSymbolTableRecord
100
AcDbLinetypeTableRecord
  2
ACANSTGB
 70
     0
  3
__ . . __ . .
 72
    65
 73
     6
 40
0.35433070866
 49
0.15748031496
 74
     0
 49
-0.03937007874
 74
     0
 49
0.03937007874
 74
     0
 49
-0.03937007874
 74
     0
 49
0.03937007874
 74
     0
 49
-0.03937007874
 74
     0
  0
LTYPE
  5
320
330
E
100
AcDbSymbolTableRecord
100
AcDbLinetypeTableRecord
  2
ACANSTGL
 70
     0
  3
_ _ _ _ _
 72
    65
 73
     2
 40
0.11811023622
 49
0.07874015748
 74
     0
 49
-0.03937007874
 74
     0
  0
LTYPE
  5
323
330
E
100
AcDbSymbolTableRecord
100
AcDbLinetypeTableRecord
  2
ACBSIWELD
 70
     0
  3
_ _ _ _ _
 72
    65
 73
     2
 40
2.0
 49
2.0
 74
     0
 49
-1.0
 74
     0
  0
LTYPE
  5
324
330
E
100
AcDbSymbolTableRecord
100
AcDbLinetypeTableRecord
  2
ACBSITGB
 70
     0
  3
__ . . __ . .
 72
    65
 73
     6
 40
9.0
 49
4.0
 74
     0
 49
-1.0
 74
     0
 49
1.0
 74
     0
 49
-1.0
 74
     0
 49
1.0
 74
     0
 49
-1.0
 74
     0
  0
LTYPE
  5
325
330
E
100
AcDbSymbolTableRecord
100
AcDbLinetypeTableRecord
  2
ACBSITGL
 70
     0
  3
_ _ _ _ _
 72
    65
 73
     2
 40
3.0
 49
2.0
 74
     0
 49
-1.0
 74
     0
  0
LTYPE
  5
328
330
E
100
AcDbSymbolTableRecord
100
AcDbLinetypeTableRecord
  2
ACDINWELD
 70
     0
  3
_ _ _ _ _
 72
    65
 73
     2
 40
2.0
 49
2.0
 74
     0
 49
-1.0
 74
     0
  0
LTYPE
  5
329
330
E
100
AcDbSymbolTableRecord
100
AcDbLinetypeTableRecord
  2
ACDINTGB
 70
     0
  3
__ . . __ . .
 72
    65
 73
     6
 40
9.0
 49
4.0
 74
     0
 49
-1.0
 74
     0
 49
1.0
 74
     0
 49
-1.0
 74
     0
 49
1.0
 74
     0
 49
-1.0
 74
     0
  0
LTYPE
  5
32A
330
E
100
AcDbSymbolTableRecord
100
AcDbLinetypeTableRecord
  2
ACDINTGL
 70
     0
  3
_ _ _ _ _
 72
    65
 73
     2
 40
3.0
 49
2.0
 74
     0
 49
-1.0
 74
     0
  0
LTYPE
  5
32D
330
E
100
AcDbSymbolTableRecord
100
AcDbLinetypeTableRecord
  2
ACISOWELD
 70
     0
  3
_ _ _ _ _
 72
    65
 73
     2
 40
2.0
 49
2.0
 74
     0
 49
-1.0
 74
     0
  0
LTYPE
  5
32E
330
E
100
AcDbSymbolTableRecord
100
AcDbLinetypeTableRecord
  2
ACISOTGB
 70
     0
  3
__ . . __ . .
 72
    65
 73
     6
 40
9.0
 49
4.0
 74
     0
 49
-1.0
 74
     0
 49
1.0
 74
     0
 49
-1.0
 74
     0
 49
1.0
 74
     0
 49
-1.0
 74
     0
  0
LTYPE
  5
32F
330
E
100
AcDbSymbolTableRecord
100
AcDbLinetypeTableRecord
  2
ACISOTGL
 70
     0
  3
_ _ _ _ _
 72
    65
 73
     2
 40
3.0
 49
2.0
 74
     0
 49
-1.0
 74
     0
  0
LTYPE
  5
369
330
E
100
AcDbSymbolTableRecord
100
AcDbLinetypeTableRecord
  2
Amconstr
 70
     0
  3
_______________________
 72
    65
 73
     2
 40
9999.0
 49
9999.0
 74
     0
 49
0.0
 74
     0
  0
LTYPE
  5
36F
330
E
100
AcDbSymbolTableRecord
100
AcDbLinetypeTableRecord
  2
PHANTOM2
 70
     0
  3
Phantom (.5x) ___ _ _ ___ _ _ ___ _ _ ___ _ _
 72
    65
 73
     6
 40
1.25
 49
0.625
 74
     0
 49
-0.125
 74
     0
 49
0.125
 74
     0
 49
-0.125
 74
     0
 49
0.125
 74
     0
 49
-0.125
 74
     0
  0
LTYPE
  5
370
330
E
100
AcDbSymbolTableRecord
100
AcDbLinetypeTableRecord
  2
Amzigzag2
 70
     0
  3
/\/-/\/-/\/-/\/-/\/-/\/
 72
    65
 73
     2
 40
0.4401
 49
0.0001
 74
     4
 75
   135
340
36D
 46
0.0016
 50
0.0
 44
0.0
 45
0.0
 49
-0.4400000000000002
 74
     0
  0
LTYPE
  5
5E9
330
E
100
AcDbSymbolTableRecord
100
AcDbLinetypeTableRecord
  2
HIDDEN
 70
     0
  3
Verdeckt
 72
    65
 73
     2
 40
0.375
 49
0.25
 74
     0
 49
-0.125
 74
     0
  0
LTYPE
  5
5EA
330
E
100
AcDbSymbolTableRecord
100
AcDbLinetypeTableRecord
  2
CENTER
 70
     0
  3
Mitte ____ _ ____ _ ____ _ ____ _ ____ _ ____
 72
    65
 73
     4
 40
2.0
 49
1.25
 74
     0
 49
-0.25
 74
     0
 49
0.25
 74
     0
 49
-0.25
 74
     0
  0
LTYPE
  5
BF2
330
E
100
AcDbSymbolTableRecord
100
AcDbLinetypeTableRecord
  2
AM_ISO02W050
 70
     0
  3
__ __ __ __ __ __ __ __ __ __ __ __ __ __ __
 72
    65
 73
     2
 40
7.5
 49
6.0
 74
     0
 49
-1.5
 74
     0
  0
LTYPE
  5
BF3
330
E
100
AcDbSymbolTableRecord
100
AcDbLinetypeTableRecord
  2
AM_ISO08W050
 70
     0
  3
____ . ____ . ____ . ____ . ____ . ____ . ____
 72
    65
 73
     4
 40
18.0
 49
12.0
 74
     0
 49
-1.5
 74
     0
 49
3.0
 74
     0
 49
-1.5
 74
     0
  0
LTYPE
  5
BF4
330
E
100
AcDbSymbolTableRecord
100
AcDbLinetypeTableRecord
  2
AM_ISO09W050
 70
     0
  3
_____ . . _____ . . _____ . . ____ .. ____
 72
    65
 73
     6
 40
22.5
 49
12.0
 74
     0
 49
-1.5
 74
     0
 49
3.0
 74
     0
 49
-1.5
 74
     0
 49
3.0
 74
     0
 49
-1.5
 74
     0
  0
LTYPE
  5
BF5
330
E
100
AcDbSymbolTableRecord
100
AcDbLinetypeTableRecord
  2
AM_ISO08W050x2
 70
     0
  3
__ . __ . __ . __ . __ . __
 72
    65
 73
     4
 40
9.0
 49
6.0
 74
     0
 49
-0.75
 74
     0
 49
1.5
 74
     0
 49
-0.75
 74
     0
  0
LTYPE
  5
BF6
330
E
100
AcDbSymbolTableRecord
100
AcDbLinetypeTableRecord
  2
AM_ISO02W050x2
 70
     0
  3
 _ _ _ _ _ _ _ _ _ _ _ _
 72
    65
 73
     2
 40
3.75
 49
3.0
 74
     0
 49
-0.75
 74
     0
  0
LTYPE
  5
BF9
330
E
100
AcDbSymbolTableRecord
100
AcDbLinetypeTableRecord
  2
Amzigzag
 70
     0
  3
/\/-/\/-/\/-/\/-/\/-/\/
 72
    65
 73
     2
 40
11.0001
 49
0.0001
 74
     4
 75
   136
340
BF8
 46
0.04
 50
0.0
 44
0.0
 45
0.0
 49
-11.0
 74
     0
  0
LTYPE
  5
BFA
330
E
100
AcDbSymbolTableRecord
100
AcDbLinetypeTableRecord
  2
CENTER2
 70
     0
  3
Center (.5x) ___ _ ___ _ ___ _ ___ _ ___ _ ___
 72
    65
 73
     4
 40
1.125
 49
0.75
 74
     0
 49
-0.125
 74
     0
 49
0.125
 74
     0
 49
-0.125
 74
     0
  0
LTYPE
  5
BFB
330
E
100
AcDbSymbolTableRecord
100
AcDbLinetypeTableRecord
  2
HIDDEN2
 70
     0
  3
Hidden (.5x) _ _ _ _ _ _ _ _ _ _ _ _ _ _ _ _ _
 72
    65
 73
     2
 40
0.1875
 49
0.125
 74
     0
 49
-0.0625
 74
     0
  0
ENDTAB
  0
TABLE
  2
LAYER
  5
B
330
0
100
AcDbSymbolTable
 70
     4
  0
LAYER
  5
5
330
B
100
AcDbSymbolTableRecord
100
AcDbLayerTableRecord
  2
0
 70
     0
 62
     7
  6
CONTINUOUS
370
    -3
390
33D
  0
LAYER
  5
23
330
B
100
AcDbSymbolTableRecord
100
AcDbLayerTableRecord
  2
MITTE
 70
     0
 62
     6
  6
MITTE
370
    -3
390
33D
  0
LAYER
  5
61
330
B
100
AcDbSymbolTableRecord
100
AcDbLayerTableRecord
  2
LINIE
 70
     0
 62
     6
  6
CONTINUOUS
370
    -3
390
33D
  0
LAYER
  5
31
330
B
100
AcDbSymbolTableRecord
100
AcDbLayerTableRecord
  2
Defpoints
 70
     0
 62
     7
  6
CONTINUOUS
290
     0
370
    -3
390
33D
  0
ENDTAB
  0
TABLE
  2
STYLE
  5
C
330
0
100
AcDbSymbolTable
 70
    14
  0
STYLE
  5
D
330
C
100
AcDbSymbolTableRecord
100
AcDbTextStyleTableRecord
  2
STANDARD
 70
     0
 40
0.0
 41
1.0
 50
0.0
 71
     0
 42
10.0
  3
romans.shx
  4

  0
STYLE
  5
319
330
C
100
AcDbSymbolTableRecord
100
AcDbTextStyleTableRecord
  2
ACJISTS
 70
     0
 40
1.0
 41
1.0
 50
0.0
 71
     0
 42
10.0
  3
isocp.shx
  4
bigfont.shx
  0
STYLE
  5
31A
330
C
100
AcDbSymbolTableRecord
100
AcDbTextStyleTableRecord
  2
ACJISGDT
 70
     0
 40
0.0
 41
1.0
 50
0.0
 71
     0
 42
10.0
  3
amgdt.shx
  4

  0
STYLE
  5
31D
330
C
100
AcDbSymbolTableRecord
100
AcDbTextStyleTableRecord
  2
ACANSTSB
 70
     0
 40
1.0
 41
1.0
 50
0.0
 71
     0
 42
10.0
  3
romans.shx
  4

  0
STYLE
  5
31E
330
C
100
AcDbSymbolTableRecord
100
AcDbTextStyleTableRecord
  2
ACANSGDT
 70
     0
 40
0.0
 41
1.0
 50
0.0
 71
     0
 42
10.0
  3
amgdt.shx
  4

  0
STYLE
  5
321
330
C
100
AcDbSymbolTableRecord
100
AcDbTextStyleTableRecord
  2
ACBSITS
 70
     0
 40
1.0
 41
1.0
 50
0.0
 71
     0
 42
10.0
  3
isocp.shx
  4

  0
STYLE
  5
322
330
C
100
AcDbSymbolTableRecord
100
AcDbTextStyleTableRecord
  2
ACBSIGDT
 70
     0
 40
0.0
 41
1.0
 50
0.0
 71
     0
 42
10.0
  3
amgdt.shx
  4

  0
STYLE
  5
326
330
C
100
AcDbSymbolTableRecord
100
AcDbTextStyleTableRecord
  2
ACDINTS
 70
     0
 40
1.0
 41
1.0
 50
0.0
 71
     0
 42
10.0
  3
isocp.shx
  4

  0
STYLE
  5
327
330
C
100
AcDbSymbolTableRecord
100
AcDbTextStyleTableRecord
  2
ACDINGDT
 70
     0
 40
0.0
 41
1.0
 50
0.0
 71
     0
 42
10.0
  3
amgdt.shx
  4

  0
STYLE
  5
32B
330
C
100
AcDbSymbolTableRecord
100
AcDbTextStyleTableRecord
  2
ACISOTS
 70
     0
 40
1.0
 41
1.0
 50
0.0
 71
     0
 42
10.0
  3
isocp.shx
  4

  0
STYLE
  5
32C
330
C
100
AcDbSymbolTableRecord
100
AcDbTextStyleTableRecord
  2
ACISOGDT
 70
     0
 40
0.0
 41
1.0
 50
0.0
 71
     0
 42
10.0
  3
amgdt.shx
  4

  0
STYLE
  5
36D
330
C
100
AcDbSymbolTableRecord
100
AcDbTextStyleTableRecord
  2

 70
     1
 40
0.0
 41
1.0
 50
0.0
 71
     0
 42
10.0
  3
ltypeshp.shx
  4

  0
STYLE
  5
BF8
330
C
100
AcDbSymbolTableRecord
100
AcDbTextStyleTableRecord
  2

 70
     1
 40
0.0
 41
1.0
 50
0.0
 71
     0
 42
10.0
  3
genltshp.shx
  4

  0
STYLE
  5
BFC
330
C
100
AcDbSymbolTableRecord
100
AcDbTextStyleTableRecord
  2
ACANSTS
 70
     0
 40
1.0
 41
1.0
 50
0.0
 71
     0
 42
10.0
  3
romans.shx
  4

  0
ENDTAB
  0
TABLE
  2
VIEW
  5
11
330
0
100
AcDbSymbolTable
 70
     0
  0
ENDTAB
  0
TABLE
  2
UCS
  5
12
330
0
100
AcDbSymbolTable
 70
     0
  0
ENDTAB
  0
TABLE
  2
APPID
  5
15
330
0
100
AcDbSymbolTable
 70
     9
  0
APPID
  5
16
330
15
100
AcDbSymbolTableRecord
100
AcDbRegAppTableRecord
  2
ACAD
 70
     0
  0
APPID
  5
2E6
330
15
100
AcDbSymbolTableRecord
100
AcDbRegAppTableRecord
  2
MCAD_NO_VIS
 70
     0
  0
APPID
  5
34D
330
15
100
AcDbSymbolTableRecord
100
AcDbRegAppTableRecord
  2
ACAD_TEMP_GRAPHIC
 70
     0
  0
APPID
  5
5FF
330
15
100
AcDbSymbolTableRecord
100
AcDbRegAppTableRecord
  2
AD_DRAW
 70
     0
  0
APPID
  5
602
330
15
100
AcDbSymbolTableRecord
100
AcDbRegAppTableRecord
  2
ACATTRIBSERVICES
 70
     0
  0
APPID
  5
620
330
15
100
AcDbSymbolTableRecord
100
AcDbRegAppTableRecord
  2
DESIGNERASSEMBLIES
 70
     0
  0
APPID
  5
693
330
15
100
AcDbSymbolTableRecord
100
AcDbRegAppTableRecord
  2
ACADM_DIM_EDIT
 70
     0
  0
APPID
  5
694
330
15
100
AcDbSymbolTableRecord
100
AcDbRegAppTableRecord
  2
AMDT_DM_ADJ
 70
     0
  0
APPID
  5
69C
330
15
100
AcDbSymbolTableRecord
100
AcDbRegAppTableRecord
  2
DCO15
 70
     0
  0
ENDTAB
  0
TABLE
  2
DIMSTYLE
  5
17
330
0
100
AcDbSymbolTable
 70
    36
100
AcDbDimStyleTable
 71
     1
340
1D
  0
DIMSTYLE
105
1D
330
17
100
AcDbSymbolTableRecord
100
AcDbDimStyleTableRecord
  2
ISO-25
 70
     0
 41
7.0
 42
0.0
 43
7.0
 44
1.25
 73
     0
 74
     0
 77
     1
 78
     8
140
10.0
141
0.0
147
4.0
172
     1
176
   256
177
   256
178
   256
284
     8
288
     1
289
     0
340
D
  0
DIMSTYLE
105
10F
330
17
100
AcDbSymbolTableRecord
100
AcDbDimStyleTableRecord
  2
STANDARD
 70
     0
  4
"
 41
7.0
 42
0.0
 43
7.0
 44
1.25
 47
0.1
 48
0.1
 73
     0
 74
     0
 77
     1
 78
     8
140
10.0
141
0.0
143
0.0393701
144
0.5
147
4.0
172
     1
176
   256
177
   256
178
   256
271
     2
272
     3
274
     4
283
     0
284
     8
288
     1
340
D
  0
DIMSTYLE
105
65B
330
17
100
AcDbSymbolTableRecord
100
AcDbDimStyleTableRecord
  2
AM_ANSI
 70
     0
  4
mm
 41
0.1
 42
0.05
 43
0.5
 44
0.1
 47
0.1
 48
0.1
 78
     7
 79
     2
140
0.12
141
0.0
146
0.71
147
0.06
176
   256
177
   256
178
     2
274
     4
284
     7
340
D
371
    -1
372
    -1
  0
DIMSTYLE
105
65C
330
17
100
AcDbSymbolTableRecord
100
AcDbDimStyleTableRecord
  2
AM_ANSI$3
 70
     0
  4
mm
 41
0.1
 42
0.05
 43
0.5
 44
0.1
 47
0.1
 48
0.1
 78
     7
 79
     2
140
0.12
141
0.0
146
0.71
147
0.06
176
   256
177
   256
178
     2
274
     4
284
     7
288
     1
289
     0
340
D
371
    -1
372
    -1
  0
DIMSTYLE
105
65D
330
17
100
AcDbSymbolTableRecord
100
AcDbDimStyleTableRecord
  2
AM_ANSI$4
 70
     0
  4
mm
 41
0.1
 42
0.05
 43
0.5
 44
0.1
 47
0.1
 48
0.1
 78
     7
 79
     2
140
0.12
141
0.0
146
0.71
147
0.06
176
   256
177
   256
178
     2
274
     4
284
     7
288
     1
289
     0
340
D
371
    -1
372
    -1
  0
DIMSTYLE
105
65E
330
17
100
AcDbSymbolTableRecord
100
AcDbDimStyleTableRecord
  2
AM_ANSI$7
 70
     0
  4
mm
 41
0.1
 42
0.05
 43
0.5
 44
0.1
 47
0.1
 48
0.1
 78
     7
 79
     2
140
0.24
141
0.0
146
0.71
147
0.06
176
   256
177
   256
178
     2
274
     4
284
     7
340
D
371
    -1
372
    -1
  0
DIMSTYLE
105
65F
330
17
100
AcDbSymbolTableRecord
100
AcDbDimStyleTableRecord
  2
AM_ANSI$SF
 70
     0
  4
mm
 41
0.1
 42
0.05
 43
0.5
 44
0.1
 47
0.1
 48
0.1
 75
     1
 76
     1
 78
     7
 79
     2
140
0.12
141
0.0
146
0.71
147
0.06
176
   256
177
   256
178
     2
274
     4
284
     7
340
D
371
    -1
372
    -1
  0
DIMSTYLE
105
664
330
17
100
AcDbSymbolTableRecord
100
AcDbDimStyleTableRecord
  2
AM_ANSI$SH
 70
     0
  4
mm
 41
0.1
 42
0.05
 43
0.5
 44
0.1
 47
0.1
 48
0.1
 75
     1
 76
     1
 78
     7
 79
     2
140
0.12
141
0.0
146
0.71
147
0.06
173
     1
176
   256
177
   256
178
     2
274
     4
284
     7
340
D
343
660
371
    -1
372
    -1
  0
DIMSTYLE
105
667
330
17
100
AcDbSymbolTableRecord
100
AcDbDimStyleTableRecord
  2
AM_BSI
 70
     0
  4
mm
 41
0.1574803149606299
 42
0.05
 43
0.5
 44
0.1
 47
0.1
 48
0.1
 73
     0
 74
     0
 77
     1
 78
     7
 79
     2
140
0.12
141
0.0
146
0.71
147
0.06
172
     1
176
   256
177
   256
178
     2
274
     4
283
     0
284
     7
340
D
371
    -1
372
    -1
  0
DIMSTYLE
105
668
330
17
100
AcDbSymbolTableRecord
100
AcDbDimStyleTableRecord
  2
AM_BSI$3
 70
     0
  4
mm
 41
0.1574803149606299
 42
0.05
 43
0.5
 44
0.1
 47
0.1
 48
0.1
 73
     0
 77
     1
 78
     7
 79
     2
140
0.12
141
0.0
146
0.71
147
0.06
176
   256
177
   256
178
     2
274
     4
283
     0
284
     7
288
     1
289
     0
340
D
371
    -1
372
    -1
  0
DIMSTYLE
105
669
330
17
100
AcDbSymbolTableRecord
100
AcDbDimStyleTableRecord
  2
AM_BSI$4
 70
     0
  4
mm
 41
0.1574803149606299
 42
0.05
 43
0.5
 44
0.1
 47
0.1
 48
0.1
 73
     0
 77
     1
 78
     7
 79
     2
140
0.12
141
0.0
146
0.71
147
0.06
176
   256
177
   256
178
     2
274
     4
283
     0
284
     7
288
     1
289
     0
340
D
371
    -1
372
    -1
  0
DIMSTYLE
105
66A
330
17
100
AcDbSymbolTableRecord
100
AcDbDimStyleTableRecord
  2
AM_BSI$6
 70
     0
  4
mm
 41
0.1574803149606299
 42
0.05
 43
0.5
 44
0.1
 47
0.1
 48
0.1
 73
     0
 74
     0
 78
     7
 79
     2
140
0.12
141
0.0
146
0.71
147
0.06
172
     1
176
   256
177
   256
178
     2
274
     4
283
     0
284
     7
340
D
371
    -1
372
    -1
  0
DIMSTYLE
105
66B
330
17
100
AcDbSymbolTableRecord
100
AcDbDimStyleTableRecord
  2
AM_BSI$7
 70
     0
  4
mm
 41
0.1
 42
0.05
 43
0.5
 44
0.1
 47
0.1
 48
0.1
 73
     0
 74
     0
 77
     1
 78
     7
 79
     2
140
0.24
141
0.0
146
0.71
147
0.06
172
     1
176
   256
177
   256
178
     2
274
     4
283
     0
284
     7
340
D
371
    -1
372
    -1
  0
DIMSTYLE
105
66C
330
17
100
AcDbSymbolTableRecord
100
AcDbDimStyleTableRecord
  2
AM_BSI$SF
 70
     0
  4
mm
 41
0.1574803149606299
 42
0.05
 43
0.5
 44
0.1
 47
0.1
 48
0.1
 73
     0
 74
     0
 75
     1
 76
     1
 77
     1
 78
     7
 79
     2
140
0.12
141
0.0
146
0.71
147
0.06
172
     1
176
   256
177
   256
178
     2
274
     4
283
     0
284
     7
340
D
371
    -1
372
    -1
  0
DIMSTYLE
105
66D
330
17
100
AcDbSymbolTableRecord
100
AcDbDimStyleTableRecord
  2
AM_BSI$SH
 70
     0
  4
mm
 41
0.1574803149606299
 42
0.05
 43
0.5
 44
0.1
 47
0.1
 48
0.1
 73
     0
 74
     0
 75
     1
 76
     1
 77
     1
 78
     7
 79
     2
140
0.12
141
0.0
144
2.0
146
0.71
147
0.06
172
     1
173
     1
176
   256
177
   256
178
     2
274
     4
283
     0
284
     7
340
D
343
660
371
    -1
372
    -1
  0
DIMSTYLE
105
670
330
17
100
AcDbSymbolTableRecord
100
AcDbDimStyleTableRecord
  2
AM_DIN
 70
     0
  4
mm
 41
0.1
 42
0.05
 43
0.5
 44
0.1
 47
0.1
 48
0.1
 73
     0
 74
     0
 77
     1
 78
     7
 79
     2
140
0.12
141
0.0
146
0.71
147
0.06
172
     1
176
   256
177
   256
178
     2
274
     4
283
     0
284
     7
340
D
371
    -1
372
    -1
  0
DIMSTYLE
105
671
330
17
100
AcDbSymbolTableRecord
100
AcDbDimStyleTableRecord
  2
AM_DIN$3
 70
     0
  4
mm
 41
0.1
 42
0.05
 43
0.5
 44
0.1
 47
0.1
 48
0.1
 73
     0
 77
     1
 78
     7
 79
     2
140
0.12
141
0.0
146
0.71
147
0.06
176
   256
177
   256
178
     2
274
     4
283
     0
284
     7
288
     1
289
     0
340
D
371
    -1
372
    -1
  0
DIMSTYLE
105
672
330
17
100
AcDbSymbolTableRecord
100
AcDbDimStyleTableRecord
  2
AM_DIN$4
 70
     0
  4
mm
 41
0.1
 42
0.05
 43
0.5
 44
0.1
 47
0.1
 48
0.1
 73
     0
 77
     1
 78
     7
 79
     2
140
0.12
141
0.0
146
0.71
147
0.06
176
   256
177
   256
178
     2
274
     4
283
     0
284
     7
288
     1
289
     0
340
D
371
    -1
372
    -1
  0
DIMSTYLE
105
673
330
17
100
AcDbSymbolTableRecord
100
AcDbDimStyleTableRecord
  2
AM_DIN$6
 70
     0
  4
mm
 41
0.1
 42
0.05
 43
0.5
 44
0.1
 47
0.1
 48
0.1
 73
     0
 74
     0
 78
     7
 79
     2
140
0.12
141
0.0
146
0.71
147
0.06
172
     1
176
   256
177
   256
178
     2
274
     4
283
     0
284
     7
340
D
371
    -1
372
    -1
  0
DIMSTYLE
105
674
330
17
100
AcDbSymbolTableRecord
100
AcDbDimStyleTableRecord
  2
AM_DIN$7
 70
     0
  4
mm
 41
0.1
 42
0.05
 43
0.5
 44
0.1
 47
0.1
 48
0.1
 73
     0
 74
     0
 77
     1
 78
     7
 79
     2
140
0.24
141
0.0
146
0.71
147
0.06
172
     1
176
   256
177
   256
178
     2
274
     4
283
     0
284
     7
340
D
371
    -1
372
    -1
  0
DIMSTYLE
105
675
330
17
100
AcDbSymbolTableRecord
100
AcDbDimStyleTableRecord
  2
AM_DIN$SF
 70
     0
  4
mm
 41
0.1
 42
0.05
 43
0.5
 44
0.1
 47
0.1
 48
0.1
 73
     0
 74
     0
 75
     1
 76
     1
 77
     1
 78
     7
 79
     2
140
0.12
141
0.0
146
0.71
147
0.06
172
     1
176
   256
177
   256
178
     2
274
     4
283
     0
284
     7
340
D
371
    -1
372
    -1
  0
DIMSTYLE
105
676
330
17
100
AcDbSymbolTableRecord
100
AcDbDimStyleTableRecord
  2
AM_DIN$SH
 70
     0
  4
mm
 41
0.1
 42
0.05
 43
0.5
 44
0.1
 47
0.1
 48
0.1
 73
     0
 74
     0
 75
     1
 76
     1
 77
     1
 78
     7
 79
     2
140
0.12
141
0.0
144
2.0
146
0.71
147
0.06
172
     1
173
     1
176
   256
177
   256
178
     2
274
     4
283
     0
284
     7
340
D
343
660
371
    -1
372
    -1
  0
DIMSTYLE
105
679
330
17
100
AcDbSymbolTableRecord
100
AcDbDimStyleTableRecord
  2
AM_ISO
 70
     0
  4
mm
 41
0.1
 42
0.05
 43
0.5
 44
0.1
 47
0.1
 48
0.1
 73
     0
 74
     0
 77
     1
 78
     7
 79
     2
140
0.12
141
0.0
146
0.71
147
0.06
172
     1
176
   256
177
   256
178
     2
274
     4
283
     0
284
     7
340
D
371
    -1
372
    -1
  0
DIMSTYLE
105
67A
330
17
100
AcDbSymbolTableRecord
100
AcDbDimStyleTableRecord
  2
AM_ISO$3
 70
     0
  4
mm
 41
0.1
 42
0.05
 43
0.5
 44
0.1
 47
0.1
 48
0.1
 73
     0
 77
     1
 78
     7
 79
     2
140
0.12
141
0.0
146
0.71
147
0.06
176
   256
177
   256
178
     2
274
     4
283
     0
284
     7
288
     1
289
     0
340
D
371
    -1
372
    -1
  0
DIMSTYLE
105
67B
330
17
100
AcDbSymbolTableRecord
100
AcDbDimStyleTableRecord
  2
AM_ISO$4
 70
     0
  4
mm
 41
0.1
 42
0.05
 43
0.5
 44
0.1
 47
0.1
 48
0.1
 73
     0
 77
     1
 78
     7
 79
     2
140
0.12
141
0.0
146
0.71
147
0.06
176
   256
177
   256
178
     2
274
     4
283
     0
284
     7
288
     1
289
     0
340
D
371
    -1
372
    -1
  0
DIMSTYLE
105
67C
330
17
100
AcDbSymbolTableRecord
100
AcDbDimStyleTableRecord
  2
AM_ISO$6
 70
     0
  4
mm
 41
0.1
 42
0.05
 43
0.5
 44
0.1
 47
0.1
 48
0.1
 73
     0
 74
     0
 78
     7
 79
     2
140
0.12
141
0.0
146
0.71
147
0.06
172
     1
176
   256
177
   256
178
     2
274
     4
283
     0
284
     7
340
D
371
    -1
372
    -1
  0
DIMSTYLE
105
67D
330
17
100
AcDbSymbolTableRecord
100
AcDbDimStyleTableRecord
  2
AM_ISO$7
 70
     0
  4
mm
 41
0.1
 42
0.05
 43
0.5
 44
0.1
 47
0.1
 48
0.1
 73
     0
 74
     0
 77
     1
 78
     7
 79
     2
140
0.24
141
0.0
146
0.71
147
0.06
172
     1
176
   256
177
   256
178
     2
274
     4
283
     0
284
     7
340
D
371
    -1
372
    -1
  0
DIMSTYLE
105
67E
330
17
100
AcDbSymbolTableRecord
100
AcDbDimStyleTableRecord
  2
AM_ISO$SF
 70
     0
  4
mm
 41
0.1
 42
0.05
 43
0.5
 44
0.1
 47
0.1
 48
0.1
 73
     0
 74
     0
 75
     1
 76
     1
 77
     1
 78
     7
 79
     2
140
0.12
141
0.0
146
0.71
147
0.06
172
     1
176
   256
177
   256
178
     2
274
     4
283
     0
284
     7
340
D
371
    -1
372
    -1
  0
DIMSTYLE
105
67F
330
17
100
AcDbSymbolTableRecord
100
AcDbDimStyleTableRecord
  2
AM_ISO$SH
 70
     0
  4
mm
 41
0.1
 42
0.05
 43
0.5
 44
0.1
 47
0.1
 48
0.1
 73
     0
 74
     0
 75
     1
 76
     1
 77
     1
 78
     7
 79
     2
140
0.12
141
0.0
144
2.0
146
0.71
147
0.06
172
     1
173
     1
176
   256
177
   256
178
     2
274
     4
283
     0
284
     7
340
D
343
660
371
    -1
372
    -1
  0
DIMSTYLE
105
682
330
17
100
AcDbSymbolTableRecord
100
AcDbDimStyleTableRecord
  2
AM_JIS
 70
     0
  4
mm
 41
0.1
 42
0.05
 43
0.5
 44
0.1
 47
0.1
 48
0.1
 73
     0
 74
     0
 77
     3
 78
     7
 79
     2
140
0.12
141
0.0
146
0.71
147
0.06
172
     1
176
   256
177
   256
178
     2
274
     4
283
     0
284
     7
340
D
341
683
342
683
343
683
344
683
371
    -1
372
    -1
  0
DIMSTYLE
105
689
330
17
100
AcDbSymbolTableRecord
100
AcDbDimStyleTableRecord
  2
AM_JIS$3
 70
     0
  4
mm
 41
0.1
 42
0.05
 43
0.5
 44
0.1
 47
0.1
 48
0.1
 73
     0
 77
     3
 78
     7
 79
     2
140
0.12
141
0.0
146
0.71
147
0.06
176
   256
177
   256
178
     2
274
     4
283
     0
284
     7
288
     1
289
     0
340
D
341
683
342
683
343
683
344
683
371
    -1
372
    -1
  0
DIMSTYLE
105
68A
330
17
100
AcDbSymbolTableRecord
100
AcDbDimStyleTableRecord
  2
AM_JIS$4
 70
     0
  4
mm
 41
0.1
 42
0.05
 43
0.5
 44
0.1
 47
0.1
 48
0.1
 73
     0
 77
     3
 78
     7
 79
     2
140
0.12
141
0.0
146
0.71
147
0.06
176
   256
177
   256
178
     2
274
     4
283
     0
284
     7
288
     1
289
     0
340
D
341
683
342
683
343
683
344
683
371
    -1
372
    -1
  0
DIMSTYLE
105
68B
330
17
100
AcDbSymbolTableRecord
100
AcDbDimStyleTableRecord
  2
AM_JIS$6
 70
     0
  4
mm
 41
0.1
 42
0.05
 43
0.5
 44
0.1
 47
0.1
 48
0.1
 73
     0
 74
     0
 78
     7
 79
     2
140
0.12
141
0.0
146
0.71
147
0.06
172
     1
176
   256
177
   256
178
     2
274
     4
283
     0
284
     7
340
D
341
683
342
683
343
683
344
683
371
    -1
372
    -1
  0
DIMSTYLE
105
68C
330
17
100
AcDbSymbolTableRecord
100
AcDbDimStyleTableRecord
  2
AM_JIS$7
 70
     0
  4
mm
 41
0.1
 42
0.05
 43
0.5
 44
0.1
 47
0.1
 48
0.1
 73
     0
 74
     0
 77
     3
 78
     7
 79
     2
140
0.24
141
0.0
146
0.71
147
0.06
172
     1
176
   256
177
   256
178
     2
274
     4
283
     0
284
     7
340
D
341
683
342
683
343
683
344
683
371
    -1
372
    -1
  0
DIMSTYLE
105
68D
330
17
100
AcDbSymbolTableRecord
100
AcDbDimStyleTableRecord
  2
AM_JIS$SF
 70
     0
  4
mm
 41
0.1
 42
0.05
 43
0.5
 44
0.1
 47
0.1
 48
0.1
 73
     0
 74
     0
 75
     1
 76
     1
 77
     3
 78
     7
 79
     2
140
0.12
141
0.0
146
0.71
147
0.06
172
     1
176
   256
177
   256
178
     2
274
     4
283
     0
284
     7
340
D
341
683
342
683
343
683
344
683
371
    -1
372
    -1
  0
DIMSTYLE
105
68E
330
17
100
AcDbSymbolTableRecord
100
AcDbDimStyleTableRecord
  2
AM_JIS$SH
 70
     0
  4
mm
 41
0.1
 42
0.05
 43
0.5
 44
0.1
 47
0.1
 48
0.1
 73
     0
 74
     0
 75
     1
 76
     1
 77
     3
 78
     7
 79
     2
140
0.12
141
0.0
144
2.0
146
0.71
147
0.06
172
     1
173
     1
176
   256
177
   256
178
     2
274
     4
283
     0
284
     7
340
D
341
683
342
683
343
660
344
683
371
    -1
372
    -1
  0
ENDTAB
  0
TABLE
  2
BLOCK_RECORD
  5
1
330
0
100
AcDbSymbolTable
 70
     3
  0
BLOCK_RECORD
  5
2
102
{ACAD_XDICTIONARY
360
3
102
}
330
1
100
AcDbSymbolTableRecord
100
AcDbBlockTableRecord
  2
*MODEL_SPACE
340
340
  0
BLOCK_RECORD
  5
8
330
1
100
AcDbSymbolTableRecord
100
AcDbBlockTableRecord
  2
*PAPER_SPACE
340
341
  0
BLOCK_RECORD
  5
660
330
1
100
AcDbSymbolTableRecord
100
AcDbBlockTableRecord
  2
GENAXEH
340
0
  0
BLOCK_RECORD
  5
683
330
1
100
AcDbSymbolTableRecord
100
AcDbBlockTableRecord
  2
_Open30
340
0
  0
ENDTAB
  0
ENDSEC
  0
SECTION
  2
BLOCKS
  0
BLOCK
  5
4
330
2
100
AcDbEntity
  8
0
100
AcDbBlockBegin
  2
*MODEL_SPACE
 70
     0
 10
0.0
 20
0.0
 30
0.0
  3
*MODEL_SPACE
  1

  0
ENDBLK
  5
7
330
2
100
AcDbEntity
  8
0
100
AcDbBlockEnd
  0
BLOCK
  5
9
330
8
100
AcDbEntity
 67
     1
  8
0
100
AcDbBlockBegin
  2
*PAPER_SPACE
 70
     0
 10
0.0
 20
0.0
 30
0.0
  3
*PAPER_SPACE
  1

  0
ENDBLK
  5
A
330
8
100
AcDbEntity
 67
     1
  8
0
100
AcDbBlockEnd
  0
BLOCK
  5
662
330
660
100
AcDbEntity
  8
0
 48
10.0
100
AcDbBlockBegin
  2
GENAXEH
 70
     0
 10
0.0
 20
0.0
 30
0.0
  3
GENAXEH
  1

  0
LINE
  5
661
330
660
100
AcDbEntity
  8
0
100
AcDbLine
 10
-1.0
 20
0.0
 30
0.0
 11
1.0
 21
0.0
 31
0.0
  0
ENDBLK
  5
663
330
660
100
AcDbEntity
  8
0
 48
10.0
100
AcDbBlockEnd
  0
BLOCK
  5
687
330
683
100
AcDbEntity
  8
0
 48
10.0
100
AcDbBlockBegin
  2
_Open30
 70
     0
 10
0.0
 20
0.0
 30
0.0
  3
_Open30
  1

  0
LINE
  5
684
330
683
100
AcDbEntity
  8
0
  6
ByBlock
 62
     0
370
    -2
100
AcDbLine
 10
-1.0
 20
0.26794919
 30
0.0
 11
0.0
 21
0.0
 31
0.0
  0
LINE
  5
685
330
683
100
AcDbEntity
  8
0
  6
ByBlock
 62
     0
370
    -2
100
AcDbLine
 10
0.0
 20
0.0
 30
0.0
 11
-1.0
 21
-0.26794919
 31
0.0
  0
LINE
  5
686
330
683
100
AcDbEntity
  8
0
  6
ByBlock
 62
     0
370
    -2
100
AcDbLine
 10
0.0
 20
0.0
 30
0.0
 11
-1.0
 21
0.0
 31
0.0
  0
ENDBLK
  5
688
330
683
100
AcDbEntity
  8
0
 48
10.0
100
AcDbBlockEnd
  0
ENDSEC
  0
SECTION
  2
ENTITIES
  0
LINE
  5
20
330
2
100
AcDbEntity
  8
0
100
AcDbLine
 10
559.5983920810949
 20
369.0010777663573
 30
0.0
 11
608.098392081095
 21
369.0010777663573
 31
0.0
1001
ACAD
1000
ASC_BOUNDS
1002
{
1070
    19
1002
}
  0
LINE
  5
21
330
2
100
AcDbEntity
  8
0
100
AcDbLine
 10
559.5983920810949
 20
210.0010777663573
 30
0.0
 11
608.0983920810949
 21
210.0010777663572
 31
0.0
1001
ACAD
1000
ASC_BOUNDS
1002
{
1070
    19
1002
}
  0
LINE
  5
22
330
2
100
AcDbEntity
  8
MITTE
 48
10.0
100
AcDbLine
 10
576.9585510269141
 20
292.4447285802533
 30
0.0
 11
622.796692052332
 21
292.4447285802533
 31
0.0
  0
LINE
  5
25
330
2
100
AcDbEntity
  8
MITTE
 48
15.0
100
AcDbLine
 10
579.7561636215782
 20
292.4447285802533
 30
0.0
 11
824.4844069827706
 21
292.4447285802533
 31
0.0
  0
ARC
  5
51
330
2
100
AcDbEntity
  8
0
100
AcDbCircle
 10
192.0099233889649
 20
313.0010777663573
 30
0.0
 40
90.0
100
AcDbArc
 50
317.1708262854212
 51
204.4415405741452
  0
LINE
  5
52
330
2
100
AcDbEntity
  8
0
100
AcDbLine
 10
487.5983920810949
 20
308.0010777663573
 30
0.0
 11
487.5983920810952
 21
239.0010777663574
 31
0.0
1001
ACAD
1000
ASC_BOUNDS
1002
{
1070
    19
1002
}
  0
LINE
  5
53
330
2
100
AcDbEntity
  8
0
100
AcDbLine
 10
440.5983920810951
 20
403.0010777663573
 30
0.0
 11
440.5983920810951
 21
223.0010777663573
 31
0.0
  0
LINE
  5
54
330
2
100
AcDbEntity
  8
0
100
AcDbLine
 10
442.5983920810952
 20
401.0010777663572
 30
0.0
 11
442.5983920810947
 21
225.0010777663569
 31
0.0
1001
ACAD
1000
ASC_BOUNDS
1002
{
1070
    19
1002
}
  0
LINE
  5
55
330
2
100
AcDbEntity
  8
0
100
AcDbLine
 10
429.0983920810949
 20
403.0010777663573
 30
0.0
 11
429.0983920810951
 21
223.0010777663573
 31
0.0
1001
ACAD
1000
ASC_BOUNDS
1002
{
1070
    19
1002
}
  0
LINE
  5
56
330
2
100
AcDbEntity
  8
0
100
AcDbLine
 10
586.0983920810958
 20
369.0010777663573
 30
0.0
 11
586.0983920810951
 21
210.0010777663572
 31
0.0
1001
ACAD
1000
ASC_BOUNDS
1002
{
1070
    19
1002
}
  0
LINE
  5
57
330
2
100
AcDbEntity
  8
0
100
AcDbLine
 10
253.009923388965
 20
292.4447285802539
 30
0.0
 11
253.009923388965
 21
224.9447285802534
 31
0.0
  0
LINE
  5
58
330
2
100
AcDbEntity
  8
0
100
AcDbLine
 10
253.009923388965
 20
292.4447285802533
 30
0.0
 11
253.009923388965
 21
224.9447285802534
 31
0.0
  0
ARC
  5
59
330
2
100
AcDbEntity
  8
0
100
AcDbCircle
 10
192.0099233889649
 20
283.0010777663573
 30
0.0
 40
73.0
100
AcDbArc
 50
326.6800806293918
 51
3.593995493095943
  0
ARC
  5
5A
330
2
100
AcDbEntity
  8
0
100
AcDbCircle
 10
153.330437033948
 20
300.4447285802533
 30
0.0
 40
100.0
100
AcDbArc
 50
310.9260633096046
 51
355.4114342642145
1001
ACAD
1000
ASC_BOUNDS
1002
{
1070
    19
1005
0
1002
}
  0
LINE
  5
5B
330
2
100
AcDbEntity
  8
0
100
AcDbLine
 10
131.0099233889649
 20
292.4447285802538
 30
0.0
 11
131.0099233889649
 21
224.9447285802534
 31
0.0
  0
LINE
  5
5C
330
2
100
AcDbEntity
  8
0
100
AcDbLine
 10
131.0099233889649
 20
292.4447285802533
 30
0.0
 11
131.0099233889649
 21
224.9447285802534
 31
0.0
  0
LINE
  5
5D
330
2
100
AcDbEntity
  8
0
100
AcDbLine
 10
122.2053047881983
 20
342.1576907799589
 30
0.0
 11
103.2053047881983
 21
238.1576907799589
 31
0.0
  0
ARC
  5
5E
330
2
100
AcDbEntity
  8
0
100
AcDbCircle
 10
230.6894097439819
 20
300.4447285802533
 30
0.0
 40
100.0
100
AcDbArc
 50
184.5885657357855
 51
229.0739366903954
1001
ACAD
1000
ASC_BOUNDS
1002
{
1070
    19
1005
0
1002
}
  0
LINE
  5
5F
330
2
100
AcDbEntity
  8
MITTE
 48
20.0
100
AcDbLine
 10
192.0099233889649
 20
409.6306864343601
 30
0.0
 11
192.0099233889649
 21
187.2742208558197
 31
0.0
  0
LINE
  5
60
330
2
100
AcDbEntity
  8
LINIE
 48
10.0
100
AcDbLine
 10
529.5983920810952
 20
223.0010777663573
 30
0.0
 11
529.5983920810952
 21
326.6048538722357
 31
0.0
  0
HATCH
  5
62
330
2
100
AcDbEntity
  8
LINIE
 48
10.0
100
AcDbHatch
 10
0.0
 20
0.0
 30
0.0
210
0.0
220
0.0
230
1.0
  2
AR-CONC
 70
     0
 71
     0
 91
        2
 92
        7
 72
     1
 73
     1
 93
        6
 10
131.0099233889649
 20
292.4447285802537
 42
0.1965790673635085
 10
165.1809520862767
 20
224.8891730246978
 42
0.1804963181033798
 10
171.7317978520471
 20
222.4447285802534
 42
0.0
 10
212.2880489258827
 20
222.4447285802534
 42
0.1804963181033815
 10
218.8388946916532
 20
224.8891730246978
 42
0.1965790673635087
 10
253.009923388965
 20
292.4447285802537
 42
1.0
 97
        0
 92
        7
 72
     1
 73
     1
 93
       10
 10
214.5099233889649
 20
219.9447285802534
 42
-0.4142135623730951
 10
217.0099233889649
 20
222.4447285802534
 42
0.0
 10
207.509923388965
 20
222.4447285802534
 42
0.0
 10
167.0099233889649
 20
222.4447285802534
 42
-0.4142135623730951
 10
169.5099233889649
 20
219.9447285802534
 42
0.0
 10
169.5099233889649
 20
211.9447285802534
 42
0.0503820444849804
 10
169.5604336461819
 20
211.4447285802524
 42
0.0
 10
214.4594131317479
 20
211.4447285802524
 42
0.0568446423399838
 10
214.509092918577
 20
212.0091619742243
 42
-0.0000090034323923
 10
214.5099233889649
 20
212.0093510612587
 42
0.0
 97
        0
 75
     0
 76
     1
 52
0.0
 41
2.0
 77
     0
 78
    13
 53
50.0
 43
235.178181799908
 44
-33.26498114150002
 45
14.34520365201507
 46
-1.255042699651902
 79
     2
 49
1.5
 49
-16.5
 53
355.0
 43
235.178181799908
 44
-33.26498114150002
 45
-2.77502667226
 46
15.04384267400024
 79
     2
 49
1.199999999999999
 49
-13.2
 53
100.4514
 43
236.373615399908
 44
-33.36956794150001
 45
11.57018763428043
 46
13.78879084121907
 79
     2
 49
1.274803799999997
 49
-14.02284223999998
 53
46.18419999999999
 43
235.178181799908
 44
-29.26498114150002
 45
21.34482097251289
 46
-3.310380286580361
 79
     2
 49
2.25
 49
-24.75
 53
96.63559999999996
 43
236.956916699908
 44
-29.54084728150002
 45
18.69325411097406
 46
19.48235741800883
 79
     2
 49
1.912205759999996
 49
-21.03425999999996
 53
351.1842000000001
 43
235.178181799908
 44
-29.26498114150002
 45
18.69323890267254
 46
19.48237201850649
 79
     2
 49
1.8
 49
-19.8
 53
21.0
 43
237.178181799908
 44
-30.26498114150002
 45
11.93814104236923
 46
-8.052377813306776
 79
     2
 49
1.5
 49
-16.5
 53
326.0
 43
237.178181799908
 44
-30.26498114150002
 45
4.866306638431633
 46
14.50300090093706
 79
     2
 49
1.199999999999999
 49
-13.2
 53
71.45140000000002
 43
238.173026459908
 44
-30.93601326150003
 45
16.8044525716298
 46
6.450609934199047
 79
     2
 49
1.2748038
 49
-14.02284224
 53
37.5
 43
235.178181799908
 44
-33.26498114150002
 45
0.2431971063458134
 46
6.657877076626228
 79
     6
 49
0.0
 49
-13.04
 49
0.0
 49
-13.4
 49
0.0
 49
-13.25
 53
7.499999999999999
 43
235.178181799908
 44
-33.26498114150002
 45
5.261390748842972
 46
7.888234237647204
 79
     6
 49
0.0
 49
-7.639999999999998
 49
0.0
 49
-12.74
 49
0.0
 49
-5.049999999999998
 53
327.5
 43
230.718181799908
 44
-33.26498114150002
 45
10.67644872344818
 46
-0.4510974346875961
 79
     6
 49
0.0
 49
-5.0
 49
0.0
 49
-15.6
 49
0.0
 49
-20.7
 53
317.5
 43
228.718181799908
 44
-33.26498114150002
 45
11.66372338684772
 46
2.002099646646351
 79
     6
 49
0.0
 49
-6.5
 49
0.0
 49
-10.36
 49
0.0
 49
-14.7
 47
0.412089638767236
 98
        2
 10
205.6401449490931
 20
301.1997029792541
 10
194.0977862634256
 20
217.5455057974508
  0
LINE
  5
63
330
2
100
AcDbEntity
  8
LINIE
 48
10.0
100
AcDbLine
 10
559.5983920810949
 20
363.0101929827624
 30
0.0
 11
559.5983920810952
 21
216.0569661431932
 31
0.0
  0
LINE
  5
8F
330
2
100
AcDbEntity
  8
0
100
AcDbLine
 10
133.5099233889649
 20
193.4447285802534
 30
0.0
 11
134.5099233889649
 21
192.4447285802535
 31
0.0
1001
ACAD
1000
ASC_BOUNDS
1002
{
1070
    19
1002
}
  0
LINE
  5
90
330
2
100
AcDbEntity
  8
0
100
AcDbLine
 10
176.5099233889649
 20
222.4447285802534
 30
0.0
 11
131.5099233889649
 21
222.4447285802534
 31
0.0
1001
ACAD
1000
ASC_BOUNDS
1002
{
1070
    19
1002
}
  0
LINE
  5
91
330
2
100
AcDbEntity
  8
0
100
AcDbLine
 10
133.5099233889649
 20
222.4447285802534
 30
0.0
 11
250.5099233889649
 21
222.4447285802534
 31
0.0
1001
ACAD
1000
ASC_BOUNDS
1002
{
1070
    19
1005
0
1002
}
  0
LINE
  5
92
330
2
100
AcDbEntity
  8
0
100
AcDbLine
 10
131.5099233889649
 20
213.5994291186329
 30
0.0
 11
169.5099233889652
 21
213.5994291186328
 31
0.0
  0
LINE
  5
93
330
2
100
AcDbEntity
  8
0
100
AcDbLine
 10
133.5099233889649
 20
212.4447285802536
 30
0.0
 11
135.7287341868604
 21
212.1940352064016
 31
0.0
  0
LINE
  5
94
330
2
100
AcDbEntity
  8
0
100
AcDbLine
 10
133.5099233889649
 20
193.4447285802534
 30
0.0
 11
135.7287341868604
 21
193.8501224924847
 31
0.0
  0
LINE
  5
A2
330
2
100
AcDbEntity
  8
0
100
AcDbLine
 10
133.5099233889649
 20
193.4447285802534
 30
0.0
 11
133.5099233889649
 21
212.4447285802536
 31
0.0
1001
ACAD
1000
ASC_BOUNDS
1002
{
1070
    19
1002
}
  0
TEXT
  5
A3
330
2
100
AcDbEntity
  8
0
100
AcDbText
 10
122.4096862599422
 20
185.7362957005016
 30
0.0
 40
10.0
  1
L
100
AcDbText
  0
ARC
  5
A4
330
2
100
AcDbEntity
  8
0
100
AcDbCircle
 10
115.0099233889649
 20
236.0010777663573
 30
0.0
 40
12.0
100
AcDbArc
 50
169.6466799560705
 51
251.9738691867118
  0
ARC
  5
A5
330
2
100
AcDbEntity
  8
0
100
AcDbCircle
 10
133.5099233889649
 20
224.9447285802534
 30
0.0
 40
2.5
100
AcDbArc
 50
180.0
 51
270.0
  0
ARC
  5
A6
330
2
100
AcDbEntity
  8
0
100
AcDbCircle
 10
133.5099233889649
 20
224.9447285802534
 30
0.0
 40
2.5
100
AcDbArc
 50
180.0
 51
270.0
  0
LINE
  5
A7
330
2
100
AcDbEntity
  8
0
100
AcDbLine
 10
131.5099233889649
 20
218.0121639407043
 30
0.0
 11
111.296514876668
 21
224.5900919535188
 31
0.0
  0
LINE
  5
A8
330
2
100
AcDbEntity
  8
MITTE
 48
10.0
100
AcDbLine
 10
115.0099233889649
 20
242.0470200091955
 30
0.0
 11
115.0099233889649
 21
223.5429268908728
 31
0.0
  0
LINE
  5
A9
330
2
100
AcDbEntity
  8
0
100
AcDbLine
 10
131.5099233889649
 20
213.5994291186329
 30
0.0
 11
131.5099233889649
 21
222.4447285802534
 31
0.0
1001
ACAD
1000
ASC_BOUNDS
1002
{
1070
    19
1002
}
  0
LINE
  5
AA
330
2
100
AcDbEntity
  8
0
100
AcDbLine
 10
133.5099233889649
 20
212.4447285802536
 30
0.0
 11
131.5099233889649
 21
213.5994291186329
 31
0.0
1001
ACAD
1000
ASC_BOUNDS
1002
{
1070
    19
1002
}
  0
ARC
  5
AB
330
2
100
AcDbEntity
  8
LINIE
 48
10.0
100
AcDbCircle
 10
115.0099233889649
 20
236.0010777663573
 30
0.0
 40
4.0
100
AcDbArc
 50
81.14562423575739
 51
16.65070178048583
  0
LINE
  5
AC
330
2
100
AcDbEntity
  8
MITTE
 48
10.0
100
AcDbLine
 10
119.7468662905237
 20
236.0010777663573
 30
0.0
 11
101.2737062992816
 21
236.0010777663573
 31
0.0
  0
CIRCLE
  5
AD
330
2
100
AcDbEntity
  8
0
100
AcDbCircle
 10
115.0099233889649
 20
236.0010777663573
 30
0.0
 40
3.3235
  0
LINE
  5
BD
330
2
100
AcDbEntity
  8
0
100
AcDbLine
 10
252.5099233889649
 20
222.4447285802534
 30
0.0
 11
207.509923388965
 21
222.4447285802534
 31
0.0
1001
ACAD
1000
ASC_BOUNDS
1002
{
1070
    19
1002
}
  0
LINE
  5
BE
330
2
100
AcDbEntity
  8
0
100
AcDbLine
 10
214.5099233889649
 20
213.5994291186329
 30
0.0
 11
252.5099233889649
 21
213.5994291186328
 31
0.0
  0
ARC
  5
BF
330
2
100
AcDbEntity
  8
0
100
AcDbCircle
 10
219.759923388965
 20
189.9494291186329
 30
0.0
 40
23.65000000000001
100
AcDbArc
 50
70.14839776841593
 51
102.8257844304613
  0
LINE
  5
C0
330
2
100
AcDbEntity
  8
0
100
AcDbLine
 10
249.509923388965
 20
192.4447285802535
 30
0.0
 11
210.5099233889649
 21
192.4447285802535
 31
0.0
1001
ACAD
1000
ASC_BOUNDS
1002
{
1070
    19
1005
0
1002
}
  0
ARC
  5
C1
330
2
100
AcDbEntity
  8
0
100
AcDbCircle
 10
219.759923388965
 20
216.0947285802536
 30
0.0
 40
23.65000000000001
100
AcDbArc
 50
250.1483977684159
 51
289.851602231584
  0
LINE
  5
C2
330
2
100
AcDbEntity
  8
0
100
AcDbLine
 10
156.2287341868604
 20
193.8501224924847
 30
0.0
 11
156.2287341868604
 21
212.1940352064016
 31
0.0
  0
LINE
  5
C3
330
2
100
AcDbEntity
  8
0
100
AcDbLine
 10
151.7911125910695
 20
193.8501224924847
 30
0.0
 11
151.7911125910695
 21
212.1940352064016
 31
0.0
  0
LINE
  5
C4
330
2
100
AcDbEntity
  8
0
100
AcDbLine
 10
135.7287341868604
 20
193.8501224924847
 30
0.0
 11
135.7287341868604
 21
212.1940352064016
 31
0.0
  0
LINE
  5
C5
330
2
100
AcDbEntity
  8
0
100
AcDbLine
 10
172.2911125910695
 20
193.8501224924847
 30
0.0
 11
172.2911125910695
 21
211.4447285802524
 31
0.0
  0
LINE
  5
C6
330
2
100
AcDbEntity
  8
0
100
AcDbLine
 10
174.5099233889649
 20
193.4447285802534
 30
0.0
 11
174.5099233889649
 21
211.4447285802524
 31
0.0
1001
ACAD
1000
ASC_BOUNDS
1002
{
1070
    19
1002
}
  0
LINE
  5
C7
330
2
100
AcDbEntity
  8
0
100
AcDbLine
 10
211.7287341868604
 20
193.8501224924847
 30
0.0
 11
211.7287341868604
 21
211.4447285802524
 31
0.0
  0
LINE
  5
C8
330
2
100
AcDbEntity
  8
0
100
AcDbLine
 10
209.509923388965
 20
193.4447285802534
 30
0.0
 11
209.509923388965
 21
211.4447285802524
 31
0.0
1001
ACAD
1000
ASC_BOUNDS
1002
{
1070
    19
1002
}
  0
LINE
  5
C9
330
2
100
AcDbEntity
  8
MITTE
 48
7.0
100
AcDbLine
 10
154.0099233889649
 20
189.3869679726471
 30
0.0
 11
154.0099233889649
 21
225.7780028107442
 31
0.0
  0
ARC
  5
CA
330
2
100
AcDbEntity
  8
0
100
AcDbCircle
 10
164.2599233889649
 20
216.0947285802536
 30
0.0
 40
23.65000000000001
100
AcDbArc
 50
250.1483977684142
 51
289.8516022315858
  0
LINE
  5
CB
330
2
100
AcDbEntity
  8
0
100
AcDbLine
 10
173.5099233889649
 20
192.4447285802535
 30
0.0
 11
134.5099233889649
 21
192.4447285802535
 31
0.0
1001
ACAD
1000
ASC_BOUNDS
1002
{
1070
    19
1005
0
1002
}
  0
ARC
  5
CC
330
2
100
AcDbEntity
  8
0
100
AcDbCircle
 10
143.7599233889649
 20
216.0947285802536
 30
0.0
 40
23.65000000000001
100
AcDbArc
 50
250.1483977684159
 51
289.851602231584
  0
LINE
  5
CD
330
2
100
AcDbEntity
  8
0
100
AcDbLine
 10
151.7911125910695
 20
193.8501224924847
 30
0.0
 11
156.2287341868604
 21
193.8501224924847
 31
0.0
  0
LINE
  5
CE
330
2
100
AcDbEntity
  8
0
100
AcDbLine
 10
174.5099233889649
 20
193.4447285802534
 30
0.0
 11
173.5099233889649
 21
192.4447285802535
 31
0.0
1001
ACAD
1000
ASC_BOUNDS
1002
{
1070
    19
1002
}
  0
LINE
  5
CF
330
2
100
AcDbEntity
  8
0
100
AcDbLine
 10
172.2911125910695
 20
193.8501224924847
 30
0.0
 11
174.5099233889649
 21
193.4447285802534
 31
0.0
  0
LINE
  5
D1
330
2
100
AcDbEntity
  8
0
100
AcDbLine
 10
209.509923388965
 20
193.4447285802534
 30
0.0
 11
211.7287341868604
 21
193.8501224924847
 31
0.0
  0
LINE
  5
D2
330
2
100
AcDbEntity
  8
0
100
AcDbLine
 10
209.509923388965
 20
193.4447285802534
 30
0.0
 11
210.5099233889649
 21
192.4447285802535
 31
0.0
1001
ACAD
1000
ASC_BOUNDS
1002
{
1070
    19
1002
}
  0
LINE
  5
D3
330
2
100
AcDbEntity
  8
0
100
AcDbLine
 10
165.5638778083881
 20
222.4447285802534
 30
0.0
 11
219.2218204137649
 21
222.4447285802534
 31
0.0
  0
LINE
  5
D4
330
2
100
AcDbEntity
  8
0
100
AcDbLine
 10
169.560433646182
 20
211.4447285802524
 30
0.0
 11
214.459413131748
 21
211.4447285802524
 31
0.0
  0
LINE
  5
D5
330
2
100
AcDbEntity
  8
0
100
AcDbLine
 10
192.0099233889648
 20
210.0010777663573
 30
0.0
 11
174.5099233889649
 21
210.0010777663573
 31
0.0
  0
ARC
  5
D6
330
2
100
AcDbEntity
  8
0
100
AcDbCircle
 10
171.7317978520472
 20
232.4447285802534
 30
0.0
 40
10.0
100
AcDbArc
 50
229.0739366903954
 51
270.0
1001
ACAD
1000
ASC_BOUNDS
1002
{
1070
    19
1005
0
1002
}
  0
ARC
  5
D7
330
2
100
AcDbEntity
  8
0
100
AcDbCircle
 10
164.2599233889649
 20
189.9494291186329
 30
0.0
 40
23.65000000000001
100
AcDbArc
 50
77.17421556953862
 51
109.8516022315857
  0
ARC
  5
D8
330
2
100
AcDbEntity
  8
0
100
AcDbCircle
 10
143.7599233889649
 20
189.9494291186329
 30
0.0
 40
23.65000000000001
100
AcDbArc
 50
70.14839776841593
 51
109.851602231584
  0
LINE
  5
D9
330
2
100
AcDbEntity
  8
0
100
AcDbLine
 10
151.7911125910695
 20
212.1940352064016
 30
0.0
 11
156.2287341868604
 21
212.1940352064016
 31
0.0
  0
ARC
  5
DA
330
2
100
AcDbEntity
  8
0
100
AcDbCircle
 10
172.0099233889649
 20
211.9447285802534
 30
0.0
 40
2.5
100
AcDbArc
 50
180.0
 51
191.5369590328366
  0
ARC
  5
DB
330
2
100
AcDbEntity
  8
0
100
AcDbCircle
 10
167.0099233889649
 20
219.9447285802534
 30
0.0
 40
2.5
100
AcDbArc
 50
0.0
 51
90.0
  0
LINE
  5
DC
330
2
100
AcDbEntity
  8
0
100
AcDbLine
 10
169.5099233889649
 20
219.9447285802534
 30
0.0
 11
169.5099233889649
 21
211.9447285802534
 31
0.0
  0
ARC
  5
DD
330
2
100
AcDbEntity
  8
0
100
AcDbCircle
 10
212.2880489258827
 20
232.4447285802534
 30
0.0
 40
10.0
100
AcDbArc
 50
270.0
 51
310.9260633096046
1001
ACAD
1000
ASC_BOUNDS
1002
{
1070
    19
1005
0
1002
}
  0
ARC
  5
DE
330
2
100
AcDbEntity
  8
0
100
AcDbCircle
 10
192.0099233889649
 20
283.0010777663573
 30
0.0
 40
73.0
100
AcDbArc
 50
270.0
 51
281.4136777865659
  0
ARC
  5
DF
330
2
100
AcDbEntity
  8
0
100
AcDbCircle
 10
212.009923388965
 20
211.9447285802534
 30
0.0
 40
2.5
100
AcDbArc
 50
348.4630409671636
 51
0.0
  0
ARC
  5
E0
330
2
100
AcDbEntity
  8
0
100
AcDbCircle
 10
217.0099233889649
 20
219.9447285802534
 30
0.0
 40
2.5
100
AcDbArc
 50
90.0
 51
180.0
  0
LINE
  5
E1
330
2
100
AcDbEntity
  8
0
100
AcDbLine
 10
214.5099233889649
 20
219.9447285802534
 30
0.0
 11
214.5099233889649
 21
211.9447285802534
 31
0.0
  0
LINE
  5
E2
330
2
100
AcDbEntity
  8
0
100
AcDbLine
 10
248.2911125910695
 20
193.8501224924847
 30
0.0
 11
248.2911125910695
 21
212.1940352064016
 31
0.0
  0
LINE
  5
E3
330
2
100
AcDbEntity
  8
0
100
AcDbLine
 10
250.5099233889649
 20
193.4447285802534
 30
0.0
 11
250.5099233889649
 21
212.4447285802536
 31
0.0
1001
ACAD
1000
ASC_BOUNDS
1002
{
1070
    19
1002
}
  0
LINE
  5
E4
330
2
100
AcDbEntity
  8
0
100
AcDbLine
 10
227.7911125910695
 20
193.8501224924847
 30
0.0
 11
227.7911125910695
 21
212.1940352064016
 31
0.0
  0
LINE
  5
E5
330
2
100
AcDbEntity
  8
0
100
AcDbLine
 10
232.2287341868604
 20
193.8501224924847
 30
0.0
 11
232.2287341868604
 21
212.1940352064016
 31
0.0
  0
LINE
  5
E6
330
2
100
AcDbEntity
  8
MITTE
 48
7.0
100
AcDbLine
 10
230.009923388965
 20
189.3869679726471
 30
0.0
 11
230.009923388965
 21
225.7780028107442
 31
0.0
  0
ARC
  5
E7
330
2
100
AcDbEntity
  8
0
100
AcDbCircle
 10
240.2599233889649
 20
216.0947285802536
 30
0.0
 40
23.65000000000001
100
AcDbArc
 50
250.1483977684142
 51
289.8516022315858
  0
LINE
  5
E8
330
2
100
AcDbEntity
  8
0
100
AcDbLine
 10
227.7911125910695
 20
193.8501224924847
 30
0.0
 11
232.2287341868604
 21
193.8501224924847
 31
0.0
  0
TEXT
  5
E9
330
2
100
AcDbEntity
  8
0
100
AcDbText
 10
257.8394011669211
 20
185.4951713821792
 30
0.0
 40
10.0
  1
R
100
AcDbText
  0
LINE
  5
EA
330
2
100
AcDbEntity
  8
0
100
AcDbLine
 10
250.5099233889649
 20
193.4447285802534
 30
0.0
 11
249.509923388965
 21
192.4447285802535
 31
0.0
1001
ACAD
1000
ASC_BOUNDS
1002
{
1070
    19
1002
}
  0
LINE
  5
EB
330
2
100
AcDbEntity
  8
0
100
AcDbLine
 10
248.2911125910695
 20
193.8501224924847
 30
0.0
 11
250.5099233889649
 21
193.4447285802534
 31
0.0
  0
ARC
  5
EC
330
2
100
AcDbEntity
  8
0
100
AcDbCircle
 10
250.5099233889649
 20
224.9447285802534
 30
0.0
 40
2.5
100
AcDbArc
 50
270.0
 51
0.0
  0
ARC
  5
ED
330
2
100
AcDbEntity
  8
0
100
AcDbCircle
 10
250.5099233889649
 20
224.9447285802534
 30
0.0
 40
2.5
100
AcDbArc
 50
270.0
 51
0.0
  0
ARC
  5
EE
330
2
100
AcDbEntity
  8
0
100
AcDbCircle
 10
240.2599233889649
 20
189.9494291186329
 30
0.0
 40
23.65000000000001
100
AcDbArc
 50
70.14839776841424
 51
109.8516022315857
  0
LINE
  5
EF
330
2
100
AcDbEntity
  8
0
100
AcDbLine
 10
227.7911125910695
 20
212.1940352064016
 30
0.0
 11
232.2287341868604
 21
212.1940352064016
 31
0.0
  0
LINE
  5
F0
330
2
100
AcDbEntity
  8
0
100
AcDbLine
 10
252.5099233889649
 20
213.5994291186328
 30
0.0
 11
252.5099233889649
 21
222.4447285802534
 31
0.0
1001
ACAD
1000
ASC_BOUNDS
1002
{
1070
    19
1002
}
  0
LINE
  5
F1
330
2
100
AcDbEntity
  8
0
100
AcDbLine
 10
250.5099233889649
 20
212.4447285802536
 30
0.0
 11
252.5099233889649
 21
213.5994291186328
 31
0.0
1001
ACAD
1000
ASC_BOUNDS
1002
{
1070
    19
1002
}
  0
LINE
  5
F2
330
2
100
AcDbEntity
  8
0
100
AcDbLine
 10
250.5099233889649
 20
212.4447285802536
 30
0.0
 11
248.2911125910695
 21
212.1940352064016
 31
0.0
  0
LINE
  5
102
330
2
100
AcDbEntity
  8
0
100
AcDbLine
 10
506.5983920810952
 20
233.0010777663573
 30
0.0
 11
531.7961974455609
 21
212.3595999894511
 31
0.0
  0
LINE
  5
103
330
2
100
AcDbEntity
  8
0
100
AcDbLine
 10
493.5983920810952
 20
233.0010777663574
 30
0.0
 11
519.5983920810951
 21
233.0010777663573
 31
0.0
1001
ACAD
1000
ASC_BOUNDS
1002
{
1070
    19
1002
}
  0
LINE
  5
104
330
2
100
AcDbEntity
  8
0
100
AcDbLine
 10
489.1262561260957
 20
235.0010777663573
 30
0.0
 11
442.5983920810952
 21
235.0010777663573
 31
0.0
  0
LINE
  5
105
330
2
100
AcDbEntity
  8
0
100
AcDbLine
 10
442.5983920810949
 20
225.0010777663573
 30
0.0
 11
440.5983920810951
 21
223.0010777663573
 31
0.0
  0
LINE
  5
106
330
2
100
AcDbEntity
  8
0
100
AcDbLine
 10
429.0983920810952
 20
223.0010777663573
 30
0.0
 11
440.5983920810951
 21
223.0010777663573
 31
0.0
  0
ARC
  5
107
330
2
100
AcDbEntity
  8
0
100
AcDbCircle
 10
493.5983920810953
 20
239.0010777663574
 30
0.0
 40
6.0
100
AcDbArc
 50
180.0000000000002
 51
270.0
1001
ACAD
1000
ASC_BOUNDS
1002
{
1070
    19
1002
}
  0
LINE
  5
108
330
2
100
AcDbEntity
  8
0
100
AcDbLine
 10
535.5983920810951
 20
211.0010777663573
 30
0.0
 11
557.598392081095
 21
211.0010777663573
 31
0.0
1001
ACAD
1000
ASC_BOUNDS
1002
{
1070
    19
1002
}
  0
ARC
  5
109
330
2
100
AcDbEntity
  8
0
100
AcDbCircle
 10
519.5983920810951
 20
223.0010777663573
 30
0.0
 40
10.0
100
AcDbArc
 50
0.0
 51
90.0
1001
ACAD
1000
ASC_BOUNDS
1002
{
1070
    19
1002
}
  0
ARC
  5
10A
330
2
100
AcDbEntity
  8
0
100
AcDbCircle
 10
535.5983920810951
 20
217.0010777663573
 30
0.0
 40
6.0
100
AcDbArc
 50
180.0000000000002
 51
270.0
1001
ACAD
1000
ASC_BOUNDS
1002
{
1070
    19
1002
}
  0
LINE
  5
10B
330
2
100
AcDbEntity
  8
0
100
AcDbLine
 10
529.5983920810949
 20
223.0010777663573
 30
0.0
 11
529.5983920810949
 21
217.0010777663573
 31
0.0
1001
ACAD
1000
ASC_BOUNDS
1002
{
1070
    19
1002
}
  0
ARC
  5
10C
330
2
100
AcDbEntity
  8
0
100
AcDbCircle
 10
557.598392081095
 20
208.5010777663573
 30
0.0
 40
2.5
100
AcDbArc
 50
36.86989764584389
 51
90.0
1001
ACAD
1000
ASC_BOUNDS
1002
{
1070
    19
1002
}
  0
ARC
  5
110
330
2
100
AcDbEntity
  8
0
100
AcDbCircle
 10
192.0099233889649
 20
292.4447285802533
 30
0.0
 40
61.0
100
AcDbArc
 50
0.0
 51
180.0
1001
ACAD
1000
ASC_BOUNDS
1002
{
1070
    19
1005
0
1002
}
  0
ARC
  5
111
330
2
100
AcDbEntity
  8
0
100
AcDbCircle
 10
192.0099233889649
 20
313.0010777663573
 30
0.0
 40
89.0
100
AcDbArc
 50
105.2685646988455
 51
164.7314353011536
  0
CIRCLE
  5
112
330
2
100
AcDbEntity
  8
0
100
AcDbCircle
 10
134.0099233889649
 20
340.0010777663573
 30
0.0
 40
3.3235
  0
LINE
  5
113
330
2
100
AcDbEntity
  8
0
100
AcDbLine
 10
130.2043281193763
 20
351.3816508909449
 30
0.0
 11
174.2504787975516
 21
366.1104190144328
 31
0.0
  0
ARC
  5
114
330
2
100
AcDbEntity
  8
LINIE
 48
10.0
100
AcDbCircle
 10
134.0099233889649
 20
340.0010777663573
 30
0.0
 40
4.0
100
AcDbArc
 50
81.14562423575739
 51
16.65070178048583
  0
LINE
  5
115
330
2
100
AcDbEntity
  8
MITTE
 48
5.0
100
AcDbLine
 10
134.7205830459784
 20
323.0010777663573
 30
0.0
 11
126.0590566429039
 21
323.0010777663573
 31
0.0
  0
ARC
  5
116
330
2
100
AcDbEntity
  8
MITTE
 48
15.0
100
AcDbCircle
 10
192.0099233889649
 20
313.0010777663573
 30
0.0
 40
72.5
100
AcDbArc
 50
126.5931189888063
 51
144.1811683713767
  0
LINE
  5
117
330
2
100
AcDbEntity
  8
MITTE
 48
10.0
100
AcDbLine
 10
147.1182356389519
 20
357.8927655163698
 30
0.0
 11
133.1345128424344
 21
371.8764883128871
 31
0.0
  0
LINE
  5
118
330
2
100
AcDbEntity
  8
MITTE
 48
10.0
100
AcDbLine
 10
138.6421005350302
 20
340.0010777663573
 30
0.0
 11
119.8338428685358
 21
340.0010777663573
 31
0.0
  0
LINE
  5
119
330
2
100
AcDbEntity
  8
MITTE
 48
20.0
100
AcDbLine
 10
227.8140673257654
 20
313.0010777663573
 30
0.0
 11
98.28284719931289
 21
313.0010777663573
 31
0.0
  0
LINE
  5
11A
330
2
100
AcDbEntity
  8
MITTE
 48
10.0
100
AcDbLine
 10
122.9834206351082
 20
292.4447285802533
 30
0.0
 11
259.5282021576537
 21
292.4447285802533
 31
0.0
  0
LINE
  5
11B
330
2
100
AcDbEntity
  8
MITTE
 48
10.0
100
AcDbLine
 10
275.841917750928
 20
257.1947285802533
 30
0.0
 11
108.7875028920615
 21
257.1947285802533
 31
0.0
  0
ARC
  5
11C
330
2
100
AcDbEntity
  8
0
100
AcDbCircle
 10
134.0099233889649
 20
340.0010777663573
 30
0.0
 40
12.0
100
AcDbArc
 50
108.4896255071059
 51
169.6466799560705
  0
LINE
  5
11D
330
2
100
AcDbEntity
  8
MITTE
 48
10.0
100
AcDbLine
 10
134.0099233889649
 20
353.7047252434337
 30
0.0
 11
134.0099233889649
 21
334.4264215750421
 31
0.0
  0
ARC
  5
11E
330
2
100
AcDbEntity
  8
0
100
AcDbCircle
 10
134.1904935153442
 20
292.653926943865
 30
0.0
 40
8.0
100
AcDbArc
 50
109.6254537415548
 51
181.4984437231788
  0
ARC
  5
11F
330
2
100
AcDbEntity
  8
0
100
AcDbCircle
 10
192.0099233889649
 20
313.0010777663573
 30
0.0
 40
88.0
100
AcDbArc
 50
164.5202251796854
 51
202.5209141936014
  0
ARC
  5
120
330
2
100
AcDbEntity
  8
0
100
AcDbCircle
 10
192.0099233889649
 20
292.4447285802536
 30
0.0
 40
65.81669415865359
100
AcDbArc
 50
179.5853943548262
 51
202.0561142201634
  0
CIRCLE
  5
121
330
2
100
AcDbEntity
  8
0
100
AcDbCircle
 10
130.0099233889649
 20
323.0010777663573
 30
0.0
 40
1.95
  0
LINE
  5
122
330
2
100
AcDbEntity
  8
MITTE
 48
5.0
100
AcDbLine
 10
130.0099233889649
 20
327.2952048331172
 30
0.0
 11
130.0099233889649
 21
318.6763713798242
 31
0.0
  0
ARC
  5
123
330
2
100
AcDbEntity
  8
0
100
AcDbCircle
 10
103.6215757406466
 20
401.3894254146756
 30
0.0
 40
65.0
100
AcDbArc
 50
272.2305728409493
 51
286.0711476672102
  0
ARC
  5
124
330
2
100
AcDbEntity
  8
0
100
AcDbCircle
 10
192.0099233889649
 20
313.0010777663573
 30
0.0
 40
89.0
100
AcDbArc
 50
15.26856469884617
 51
74.73143530115445
  0
LINE
  5
125
330
2
100
AcDbEntity
  8
0
100
AcDbLine
 10
260.5134049334985
 20
340.6646461601444
 30
0.0
 11
217.6928372634551
 21
362.7643969373643
 31
0.0
  0
ARC
  5
126
330
2
100
AcDbEntity
  8
0
100
AcDbCircle
 10
192.0099233889649
 20
313.0010777663573
 30
0.0
 40
48.0
100
AcDbArc
 50
30.25955070531896
 51
149.7404492946811
  0
ARC
  5
127
330
2
100
AcDbEntity
  8
0
100
AcDbCircle
 10
249.8293532625857
 20
292.653926943865
 30
0.0
 40
8.0
100
AcDbArc
 50
293.4264341163755
 51
70.37454625844519
  0
LINE
  5
128
330
2
100
AcDbEntity
  8
0
100
AcDbLine
 10
277.4952047632035
 20
304.5157963921188
 30
0.0
 11
267.4846932284509
 21
294.5052848573662
 31
0.0
  0
ARC
  5
129
330
2
100
AcDbEntity
  8
0
100
AcDbCircle
 10
192.0099233889649
 20
313.0010777663573
 30
0.0
 40
88.0
100
AcDbArc
 50
321.1089922459292
 51
356.6614237975702
  0
ARC
  5
12A
330
2
100
AcDbEntity
  8
0
100
AcDbCircle
 10
273.8486542591297
 20
288.1413238266872
 30
0.0
 40
9.0
100
AcDbArc
 50
135.0000000000003
 51
183.5939954930959
  0
LINE
  5
12B
330
2
100
AcDbEntity
  8
0
100
AcDbLine
 10
278.2730862163694
 20
320.6295648006904
 30
0.0
 11
264.2730862163695
 21
337.6295648006904
 31
0.0
  0
ARC
  5
12C
330
2
100
AcDbEntity
  8
0
100
AcDbCircle
 10
280.3982710372834
 20
401.3894254146755
 30
0.0
 40
65.0
100
AcDbArc
 50
254.7469712997382
 51
267.7694271590507
  0
CIRCLE
  5
12D
330
2
100
AcDbEntity
  8
0
100
AcDbCircle
 10
269.0099233889649
 20
313.0010777663573
 30
0.0
 40
3.3235
  0
ARC
  5
12E
330
2
100
AcDbEntity
  8
LINIE
 48
10.0
100
AcDbCircle
 10
269.0099233889649
 20
313.0010777663573
 30
0.0
 40
4.0
100
AcDbArc
 50
81.14562423575739
 51
16.65070178048583
  0
LINE
  5
12F
330
2
100
AcDbEntity
  8
MITTE
 48
20.0
100
AcDbLine
 10
285.0906035897736
 20
313.0010777663573
 30
0.0
 11
239.0655585606374
 21
313.0010777663573
 31
0.0
  0
LINE
  5
130
330
2
100
AcDbEntity
  8
MITTE
 48
10.0
100
AcDbLine
 10
269.0099233889649
 20
327.0299901304553
 30
0.0
 11
269.0099233889649
 21
300.156356558564
 31
0.0
  0
ARC
  5
131
330
2
100
AcDbEntity
  8
0
100
AcDbCircle
 10
255.009923388965
 20
330.0010777663573
 30
0.0
 40
12.0
100
AcDbArc
 50
39.47245984834383
 51
62.70168236142307
  0
ARC
  5
132
330
2
100
AcDbEntity
  8
0
100
AcDbCircle
 10
192.0099233889649
 20
313.0010777663573
 30
0.0
 40
88.0
100
AcDbArc
 50
3.338576202429734
 51
15.47977482031462
  0
ARC
  5
133
330
2
100
AcDbEntity
  8
0
100
AcDbCircle
 10
269.0099233889649
 20
313.0010777663573
 30
0.0
 40
12.0
100
AcDbArc
 50
315.0000000000003
 51
39.47245984834383
  0
ARC
  5
134
330
2
100
AcDbEntity
  8
0
100
AcDbCircle
 10
280.3982710372834
 20
401.3894254146755
 30
0.0
 40
65.0
100
AcDbArc
 50
182.2305728409489
 51
228.7467412799728
  0
ARC
  5
135
330
2
100
AcDbEntity
  8
0
100
AcDbCircle
 10
103.6215757406466
 20
401.3894254146756
 30
0.0
 40
65.0
100
AcDbArc
 50
319.2477660926266
 51
357.7694271590509
  0
ARC
  5
136
330
2
100
AcDbEntity
  8
0
100
AcDbCircle
 10
192.0099233889649
 20
313.0010777663573
 30
0.0
 40
56.0
100
AcDbArc
 50
62.70168236142307
 51
108.4896255071059
  0
CIRCLE
  5
137
330
2
100
AcDbEntity
  8
0
100
AcDbCircle
 10
140.7446817529403
 20
364.2663194023819
 30
0.0
 40
5.75
  0
LINE
  5
138
330
2
100
AcDbEntity
  8
0
100
AcDbLine
 10
197.0099233889649
 20
388.5010777663574
 30
0.0
 11
197.0099233889649
 21
368.7774168358946
 31
0.0
  0
LINE
  5
139
330
2
100
AcDbEntity
  8
0
100
AcDbLine
 10
187.0099233889649
 20
388.5010777663574
 30
0.0
 11
187.0099233889649
 21
368.7774168358946
 31
0.0
  0
ARC
  5
13A
330
2
100
AcDbEntity
  8
0
100
AcDbCircle
 10
192.4211402201701
 20
350.2713787603062
 30
0.0
 40
8.0
100
AcDbArc
 50
19.35914998622949
 51
159.825980341106
  0
LINE
  5
13B
330
2
100
AcDbEntity
  8
0
100
AcDbLine
 10
189.5099233889649
 20
391.0010777663574
 30
0.0
 11
194.5099233889649
 21
391.0010777663574
 31
0.0
  0
ARC
  5
13C
330
2
100
AcDbEntity
  8
0
100
AcDbCircle
 10
189.5099233889649
 20
388.5010777663574
 30
0.0
 40
2.5
100
AcDbArc
 50
90.0
 51
180.0
  0
ARC
  5
13D
330
2
100
AcDbEntity
  8
0
100
AcDbCircle
 10
194.5099233889649
 20
388.5010777663574
 30
0.0
 40
2.5
100
AcDbArc
 50
0.0
 51
90.0
  0
ARC
  5
13E
330
2
100
AcDbEntity
  8
0
100
AcDbCircle
 10
192.0099233889649
 20
313.0010777663573
 30
0.0
 40
88.0
100
AcDbArc
 50
74.52022517968437
 51
105.4797748203139
  0
LINE
  5
13F
330
2
100
AcDbEntity
  8
MITTE
 48
10.0
100
AcDbLine
 10
236.7962458276495
 20
357.7874002050423
 30
0.0
 11
249.6744253447372
 21
370.6655797221301
 31
0.0
  0
ARC
  5
140
330
2
100
AcDbEntity
  8
MITTE
 48
15.0
100
AcDbCircle
 10
192.0099233889649
 20
313.0010777663573
 30
0.0
 40
72.5
100
AcDbArc
 50
36.4233442256204
 51
53.5117163400942
  0
CIRCLE
  5
141
330
2
100
AcDbEntity
  8
0
100
AcDbCircle
 10
243.2751650249897
 20
364.2663194023819
 30
0.0
 40
5.75
  0
LINE
  5
16D
330
2
100
AcDbEntity
  8
0
100
AcDbLine
 10
368.1483920810953
 20
333.8010777663573
 30
0.0
 11
418.1483920810951
 21
333.8010777663573
 31
0.0
  0
LINE
  5
16E
330
2
100
AcDbEntity
  8
0
100
AcDbLine
 10
360.1483920810953
 20
295.5010777663573
 30
0.0
 11
425.6483920810953
 21
295.5010777663573
 31
0.0
  0
LINE
  5
16F
330
2
100
AcDbEntity
  8
0
100
AcDbLine
 10
360.1483920810953
 20
330.5010777663573
 30
0.0
 11
425.6483920810953
 21
330.5010777663573
 31
0.0
  0
LINE
  5
170
330
2
100
AcDbEntity
  8
MITTE
 48
10.0
100
AcDbLine
 10
353.9543547975823
 20
313.0010777663573
 30
0.0
 11
545.0378064673598
 21
313.0010777663573
 31
0.0
  0
LINE
  5
189
330
2
100
AcDbEntity
  8
0
100
AcDbLine
 10
360.1483920810953
 20
295.5010777663573
 30
0.0
 11
358.1483920810953
 21
297.5010777663573
 31
0.0
  0
LINE
  5
18A
330
2
100
AcDbEntity
  8
0
100
AcDbLine
 10
360.1483920810953
 20
330.5010777663573
 30
0.0
 11
360.1483920810953
 21
295.5010777663573
 31
0.0
  0
LINE
  5
18B
330
2
100
AcDbEntity
  8
0
100
AcDbLine
 10
358.1483920810953
 20
328.5010777663573
 30
0.0
 11
358.1483920810953
 21
297.5010777663574
 31
0.0
  0
LINE
  5
18C
330
2
100
AcDbEntity
  8
0
100
AcDbLine
 10
360.1483920810953
 20
330.5010777663573
 30
0.0
 11
358.1483920810953
 21
328.5010777663573
 31
0.0
  0
LINE
  5
18D
330
2
100
AcDbEntity
  8
0
100
AcDbLine
 10
368.1483920810953
 20
330.5010777663574
 30
0.0
 11
368.1483920810953
 21
333.8010777663573
 31
0.0
  0
ARC
  5
18E
330
2
100
AcDbEntity
  8
0
100
AcDbCircle
 10
492.5983920810949
 20
356.5010777663573
 30
0.0
 40
10.0
100
AcDbArc
 50
270.0
 51
0.0
1001
ACAD
1000
ASC_BOUNDS
1002
{
1070
    19
1002
}
  0
ARC
  5
18F
330
2
100
AcDbEntity
  8
0
100
AcDbCircle
 10
474.5983920810949
 20
349.0010777663574
 30
0.0
 40
2.5
100
AcDbArc
 50
270.0000000000033
 51
0.0
  0
ARC
  5
190
330
2
100
AcDbEntity
  8
0
100
AcDbCircle
 10
464.2405277048261
 20
356.5010777663573
 30
0.0
 40
10.0
100
AcDbArc
 50
224.9999999999998
 51
270.0
1001
ACAD
1000
ASC_BOUNDS
1002
{
1070
    19
1002
}
  0
LINE
  5
191
330
2
100
AcDbEntity
  8
0
100
AcDbLine
 10
502.5983920810951
 20
362.0010777663574
 30
0.0
 11
502.5983920810951
 21
269.4678345064736
 31
0.0
  0
LINE
  5
192
330
2
100
AcDbEntity
  8
LINIE
  6
GESTRICHELT
 48
10.0
100
AcDbLine
 10
434.0983920810952
 20
375.3010777663572
 30
0.0
 11
434.0983920810952
 21
250.7010777663573
 31
0.0
1001
ACAD
1000
ASC_BOUNDS
1002
{
1070
    19
1002
}
  0
LINE
  5
1A1
330
2
100
AcDbEntity
  8
0
100
AcDbLine
 10
428.7483920810951
 20
335.5010777663573
 30
0.0
 11
428.7483920810951
 21
290.5010777663573
 31
0.0
  0
LINE
  5
1A2
330
2
100
AcDbEntity
  8
0
100
AcDbLine
 10
428.1483920810952
 20
335.1546676048436
 30
0.0
 11
428.1483920810952
 21
290.8474879278712
 31
0.0
  0
ARC
  5
1A3
330
2
100
AcDbEntity
  8
0
100
AcDbCircle
 10
464.2405277048261
 20
269.5010777663573
 30
0.0
 40
10.0
100
AcDbArc
 50
90.0
 51
135.0000000000001
1001
ACAD
1000
ASC_BOUNDS
1002
{
1070
    19
1002
}
  0
ARC
  5
1A4
330
2
100
AcDbEntity
  8
0
100
AcDbCircle
 10
447.8954530602693
 20
281.4402743692623
 30
0.0
 40
10.0
100
AcDbArc
 50
283.6002851900803
 51
315.0000000000005
1001
ACAD
1000
ASC_BOUNDS
1002
{
1070
    19
1002
}
  0
ARC
  5
1A5
330
2
100
AcDbEntity
  8
0
100
AcDbCircle
 10
452.5983920810951
 20
262.0010777663573
 30
0.0
 40
10.0
100
AcDbArc
 50
103.6002851900802
 51
180.0
1001
ACAD
1000
ASC_BOUNDS
1002
{
1070
    19
1002
}
  0
ARC
  5
1A6
330
2
100
AcDbEntity
  8
LINIE
  6
GESTRICHELT
 48
10.0
100
AcDbCircle
 10
433.8983920810952
 20
250.7010777663573
 30
0.0
 40
0.2
100
AcDbArc
 50
270.0
 51
0.0
1001
ACAD
1000
ASC_BOUNDS
1002
{
1070
    19
1002
}
  0
LINE
  5
1A7
330
2
100
AcDbEntity
  8
LINIE
  6
GESTRICHELT
 48
10.0
100
AcDbLine
 10
429.0983920810952
 20
250.5010777663573
 30
0.0
 11
433.8983920810952
 21
250.5010777663573
 31
0.0
  0
ARC
  5
1A8
330
2
100
AcDbEntity
  8
0
100
AcDbCircle
 10
425.6483920810953
 20
293.0010777663573
 30
0.0
 40
2.5
100
AcDbArc
 50
0.0
 51
90.0
  0
LINE
  5
1A9
330
2
100
AcDbEntity
  8
0
100
AcDbLine
 10
428.7483920810953
 20
290.5010777663573
 30
0.0
 11
428.1483920810952
 21
290.8474879278712
 31
0.0
  0
LINE
  5
1AA
330
2
100
AcDbEntity
  8
0
100
AcDbLine
 10
428.7483920810951
 20
290.5010777663573
 30
0.0
 11
429.0983920810951
 21
290.5010777663573
 31
0.0
  0
LINE
  5
1AB
330
2
100
AcDbEntity
  8
0
100
AcDbLine
 10
454.9665208721347
 20
274.3692065573967
 30
0.0
 11
457.1694598929607
 21
276.5721455782228
 31
0.0
1001
ACAD
1000
ASC_BOUNDS
1002
{
1070
    19
1002
}
  0
ARC
  5
1AC
330
2
100
AcDbEntity
  8
0
100
AcDbCircle
 10
477.5983920810951
 20
269.5010777663573
 30
0.0
 40
10.0
100
AcDbArc
 50
0.0
 51
90.0
1001
ACAD
1000
ASC_BOUNDS
1002
{
1070
    19
1002
}
  0
LINE
  5
1AD
330
2
100
AcDbEntity
  8
0
100
AcDbLine
 10
477.5983920810951
 20
279.5010777663573
 30
0.0
 11
464.2405277048261
 21
279.5010777663573
 31
0.0
1001
ACAD
1000
ASC_BOUNDS
1002
{
1070
    19
1002
}
  0
LINE
  5
1AE
330
2
100
AcDbEntity
  8
0
100
AcDbLine
 10
492.5983920810949
 20
318.0010777663573
 30
0.0
 11
452.598392081095
 21
318.0010777663573
 31
0.0
  0
LINE
  5
1AF
330
2
100
AcDbEntity
  8
0
100
AcDbLine
 10
492.5983920810949
 20
308.0010777663573
 30
0.0
 11
452.598392081095
 21
308.0010777663572
 31
0.0
  0
ARC
  5
1B1
330
2
100
AcDbEntity
  8
0
100
AcDbCircle
 10
452.598392081095
 20
328.0010777663573
 30
0.0
 40
10.0
100
AcDbArc
 50
179.9999999999998
 51
270.0
  0
ARC
  5
1B2
330
2
100
AcDbEntity
  8
0
100
AcDbCircle
 10
452.598392081095
 20
298.0010777663572
 30
0.0
 40
10.0
100
AcDbArc
 50
90.0
 51
180.0
  0
ARC
  5
1B3
330
2
100
AcDbEntity
  8
0
100
AcDbCircle
 10
425.6483920810953
 20
333.0010777663573
 30
0.0
 40
2.5
100
AcDbArc
 50
270.0
 51
0.0
  0
LINE
  5
1B4
330
2
100
AcDbEntity
  8
0
100
AcDbLine
 10
418.1483920810951
 20
330.5010777663573
 30
0.0
 11
418.1483920810951
 21
333.8010777663573
 31
0.0
  0
LINE
  5
1B5
330
2
100
AcDbEntity
  8
0
100
AcDbLine
 10
428.7483920810951
 20
335.5010777663573
 30
0.0
 11
428.1483920810952
 21
335.1546676048436
 31
0.0
  0
LINE
  5
1B6
330
2
100
AcDbEntity
  8
0
100
AcDbLine
 10
428.7483920810951
 20
335.5010777663573
 30
0.0
 11
429.0983920810949
 21
335.5010777663573
 31
0.0
  0
ARC
  5
1B7
330
2
100
AcDbEntity
  8
0
100
AcDbCircle
 10
492.5983920810949
 20
328.0010777663573
 30
0.0
 40
10.0
100
AcDbArc
 50
270.0
 51
0.0
  0
ARC
  5
1B8
330
2
100
AcDbEntity
  8
0
100
AcDbCircle
 10
492.5983920810949
 20
298.0010777663573
 30
0.0
 40
10.0
100
AcDbArc
 50
0.0
 51
90.0
  0
ARC
  5
1B9
330
2
100
AcDbEntity
  8
0
100
AcDbCircle
 10
508.5983920810949
 20
362.0010777663574
 30
0.0
 40
6.0
100
AcDbArc
 50
90.0
 51
119.2107476043104
1001
ACAD
1000
ASC_BOUNDS
1002
{
1070
    19
1002
}
  0
LINE
  5
1BA
330
2
100
AcDbEntity
  8
0
100
AcDbLine
 10
442.5983920810952
 20
391.0010777663574
 30
0.0
 11
503.537120445253
 21
367.0928432738747
 31
0.0
  0
ARC
  5
1BB
330
2
100
AcDbEntity
  8
0
100
AcDbCircle
 10
452.5983920810951
 20
364.0010777663574
 30
0.0
 40
10.0
100
AcDbArc
 50
180.0
 51
256.3997148099197
1001
ACAD
1000
ASC_BOUNDS
1002
{
1070
    19
1002
}
  0
ARC
  5
1BC
330
2
100
AcDbEntity
  8
0
100
AcDbCircle
 10
447.8954530602693
 20
344.5618811634523
 30
0.0
 40
10.0
100
AcDbArc
 50
44.99999999999959
 51
76.39971480991974
1001
ACAD
1000
ASC_BOUNDS
1002
{
1070
    19
1002
}
  0
LINE
  5
1BD
330
2
100
AcDbEntity
  8
0
100
AcDbLine
 10
454.9665208721347
 20
351.6329489753176
 30
0.0
 11
457.1694598929607
 21
349.4300099544918
 31
0.0
1001
ACAD
1000
ASC_BOUNDS
1002
{
1070
    19
1002
}
  0
ARC
  5
1BE
330
2
100
AcDbEntity
  8
LINIE
  6
GESTRICHELT
 48
10.0
100
AcDbCircle
 10
433.8983920810952
 20
375.3010777663572
 30
0.0
 40
0.2
100
AcDbArc
 50
0.0
 51
90.0
  0
LINE
  5
1BF
330
2
100
AcDbEntity
  8
LINIE
  6
GESTRICHELT
 48
10.0
100
AcDbLine
 10
429.0983920810951
 20
375.5010777663573
 30
0.0
 11
433.8983920810952
 21
375.5010777663573
 31
0.0
  0
LINE
  5
1C0
330
2
100
AcDbEntity
  8
0
100
AcDbLine
 10
492.5983920810949
 20
346.5010777663573
 30
0.0
 11
464.2405277048261
 21
346.5010777663573
 31
0.0
1001
ACAD
1000
ASC_BOUNDS
1002
{
1070
    19
1002
}
  0
LINE
  5
1C1
330
2
100
AcDbEntity
  8
0
100
AcDbLine
 10
493.0983920810951
 20
350.0010777663574
 30
0.0
 11
477.0983920810951
 21
350.0010777663574
 31
0.0
  0
LINE
  5
1C2
330
2
100
AcDbEntity
  8
0
100
AcDbLine
 10
488.0983920810949
 20
353.0010777663573
 30
0.0
 11
480.0983920810949
 21
353.0010777663573
 31
0.0
  0
LINE
  5
1C3
330
2
100
AcDbEntity
  8
0
100
AcDbLine
 10
489.0983920810951
 20
352.0010777663574
 30
0.0
 11
479.0983920810949
 21
352.0010777663574
 31
0.0
  0
LINE
  5
1C4
330
2
100
AcDbEntity
  8
0
100
AcDbLine
 10
477.0983920810952
 20
350.0010777663574
 30
0.0
 11
477.0983920810952
 21
349.0010777663574
 31
0.0
1001
ACAD
1000
ASC_BOUNDS
1002
{
1070
    19
1005
0
1002
}
  0
LINE
  5
1C5
330
2
100
AcDbEntity
  8
0
100
AcDbLine
 10
479.0983920810949
 20
352.0010777663574
 30
0.0
 11
479.0983920810949
 21
350.0010777663574
 31
0.0
1001
ACAD
1000
ASC_BOUNDS
1002
{
1070
    19
1002
}
  0
LINE
  5
1C6
330
2
100
AcDbEntity
  8
0
100
AcDbLine
 10
480.0983920810949
 20
353.0010777663573
 30
0.0
 11
479.0983920810949
 21
352.0010777663574
 31
0.0
  0
LINE
  5
1C7
330
2
100
AcDbEntity
  8
0
100
AcDbLine
 10
489.0983920810951
 20
352.0010777663574
 30
0.0
 11
489.0983920810951
 21
350.0010777663574
 31
0.0
1001
ACAD
1000
ASC_BOUNDS
1002
{
1070
    19
1002
}
  0
LINE
  5
1C8
330
2
100
AcDbEntity
  8
0
100
AcDbLine
 10
489.0983920810951
 20
352.0010777663574
 30
0.0
 11
488.0983920810949
 21
353.0010777663573
 31
0.0
  0
LINE
  5
1C9
330
2
100
AcDbEntity
  8
0
100
AcDbLine
 10
493.0983920810951
 20
350.0010777663574
 30
0.0
 11
493.0983920810951
 21
349.0010777663574
 31
0.0
1001
ACAD
1000
ASC_BOUNDS
1002
{
1070
    19
1005
0
1002
}
  0
ARC
  5
1CA
330
2
100
AcDbEntity
  8
0
100
AcDbCircle
 10
495.5983920810949
 20
349.0010777663574
 30
0.0
 40
2.5
100
AcDbArc
 50
180.0
 51
246.6828661559609
  0
ARC
  5
1CB
330
2
100
AcDbEntity
  8
0
100
AcDbCircle
 10
508.5983920810949
 20
362.0010777663574
 30
0.0
 40
6.0
100
AcDbArc
 50
119.2107476043104
 51
180.0000000000006
1001
ACAD
1000
ASC_BOUNDS
1002
{
1070
    19
1002
}
  0
ARC
  5
1CC
330
2
100
AcDbEntity
  8
0
100
AcDbCircle
 10
504.4501932302047
 20
369.4201374300527
 30
0.0
 40
2.5
100
AcDbArc
 50
248.578316553332
 51
299.2107476043104
  0
LINE
  5
1CD
330
2
100
AcDbEntity
  8
0
100
AcDbLine
 10
429.0983920810949
 20
403.0010777663573
 30
0.0
 11
440.5983920810951
 21
403.0010777663573
 31
0.0
  0
LINE
  5
1CE
330
2
100
AcDbEntity
  8
0
100
AcDbLine
 10
442.5983920810952
 20
401.0010777663572
 30
0.0
 11
440.5983920810951
 21
403.0010777663573
 31
0.0
  0
LINE
  5
1CF
330
2
100
AcDbEntity
  8
0
100
AcDbLine
 10
508.5983920810949
 20
368.0010777663574
 30
0.0
 11
557.598392081095
 21
368.0010777663574
 31
0.0
1001
ACAD
1000
ASC_BOUNDS
1002
{
1070
    19
1002
}
  0
ARC
  5
1D0
330
2
100
AcDbEntity
  8
0
100
AcDbCircle
 10
557.598392081095
 20
370.5010777663574
 30
0.0
 40
2.5
100
AcDbArc
 50
270.0
 51
323.1301023541551
1001
ACAD
1000
ASC_BOUNDS
1002
{
1070
    19
1002
}
  0
ARC
  5
1D1
330
2
100
AcDbEntity
  8
0
100
AcDbCircle
 10
976.2954737640516
 20
313.0010777663572
 30
0.0
 40
90.0
100
AcDbArc
 50
346.7968803211821
 51
218.3212863366499
  0
LINE
  5
1D2
330
2
100
AcDbEntity
  8
0
100
AcDbLine
 10
1058.230025897379
 20
275.7622651280482
 30
0.0
 11
1065.100092364818
 21
238.1576907799588
 31
0.0
  0
ARC
  5
1D3
330
2
100
AcDbEntity
  8
0
100
AcDbCircle
 10
976.2954737640516
 20
313.0010777663572
 30
0.0
 40
90.0
100
AcDbArc
 50
218.3212863366499
 51
346.7968803211821
  0
ARC
  5
1D4
330
2
100
AcDbEntity
  8
0
100
AcDbCircle
 10
976.2954737640516
 20
283.0010777663572
 30
0.0
 40
73.0
100
AcDbArc
 50
205.288028285206
 51
270.0
  0
LINE
  5
1D5
330
2
100
AcDbEntity
  8
0
100
AcDbLine
 10
820.0983920810951
 20
348.4447285802533
 30
0.0
 11
820.0983920810951
 21
227.4447285802533
 31
0.0
1001
ACAD
1000
ASC_BOUNDS
1002
{
1070
    19
1002
}
  0
LINE
  5
1D6
330
2
100
AcDbEntity
  8
0
100
AcDbLine
 10
748.0983920810951
 20
289.51205070161
 30
0.0
 11
748.0983920810951
 21
225.9447285802533
 31
0.0
1001
ACAD
1000
ASC_BOUNDS
1002
{
1070
    19
1002
}
  0
LINE
  5
1D7
330
2
100
AcDbEntity
  8
0
100
AcDbLine
 10
648.0983920810952
 20
358.4447285802533
 30
0.0
 11
648.0983920810948
 21
226.4447285802535
 31
0.0
1001
ACAD
1000
ASC_BOUNDS
1002
{
1070
    19
1005
0
1002
}
  0
LINE
  5
1D8
330
2
100
AcDbEntity
  8
0
100
AcDbLine
 10
648.0983920810951
 20
358.4447285802534
 30
0.0
 11
648.0983920810951
 21
226.4447285802534
 31
0.0
1001
ACAD
1000
ASC_BOUNDS
1002
{
1070
    19
1005
0
1005
0
1005
0
1005
0
1002
}
  0
LINE
  5
1D9
330
2
100
AcDbEntity
  8
0
100
AcDbLine
 10
608.098392081095
 20
369.0010777663573
 30
0.0
 11
608.0983920810945
 21
210.0010777663572
 31
0.0
1001
ACAD
1000
ASC_BOUNDS
1002
{
1070
    19
1002
}
  0
LINE
  5
1DA
330
2
100
AcDbEntity
  8
LINIE
 48
10.0
100
AcDbLine
 10
671.7756473273194
 20
291.2879377869911
 30
0.0
 11
671.7756473273194
 21
233.5836905249376
 31
0.0
  0
LINE
  5
1DB
330
2
100
AcDbEntity
  8
MITTE
 48
20.0
100
AcDbLine
 10
976.2954737640516
 20
414.6404401456066
 30
0.0
 11
976.2954737640516
 21
177.4343054804556
 31
0.0
  0
LINE
  5
212
330
2
100
AcDbEntity
  8
0
100
AcDbLine
 10
760.6489023383119
 20
211.4447285802533
 30
0.0
 11
805.547881823878
 21
211.4447285802533
 31
0.0
1001
ACAD
1000
ASC_BOUNDS
1002
{
1070
    19
1005
0
1002
}
  0
LINE
  5
213
330
2
100
AcDbEntity
  8
0
100
AcDbLine
 10
769.952892081095
 20
212.9237285802534
 30
0.0
 11
800.2438920810952
 21
212.9237285802534
 31
0.0
1001
ACAD
1000
ASC_BOUNDS
1002
{
1070
    19
1002
}
  0
SPLINE
  5
214
330
2
100
AcDbEntity
  8
LINIE
 48
10.0
100
AcDbSpline
210
0.0
220
0.0
230
1.0
 70
     8
 71
     3
 72
    12
 73
     8
 74
     6
 42
0.0000000001
 43
0.0000000001
 44
0.0000000001
 40
0.0
 40
0.0
 40
0.0
 40
0.0
 40
4.851711911382247
 40
18.01859907913524
 40
32.66528729343534
 40
43.80667159575188
 40
46.09696782555264
 40
46.09696782555264
 40
46.09696782555264
 40
46.09696782555264
 10
760.5983920810948
 20
219.452095193495
 30
0.0
 10
762.0825959114462
 20
220.0940208349743
 30
0.0
 10
767.5947273527381
 20
222.4780454810578
 30
0.0
 10
778.7152698961166
 20
224.1362872860042
 30
0.0
 10
791.4449739290719
 20
220.5029045955368
 30
0.0
 10
800.9405440683824
 20
222.5637260543364
 30
0.0
 10
805.3216244894581
 20
221.5731546768248
 30
0.0
 10
806.0686622072516
 20
221.4042478981207
 30
0.0
 11
760.5983920810948
 21
219.452095193495
 31
0.0
 11
765.0961072232887
 21
221.2713442063374
 31
0.0
 11
778.1263481883587
 21
223.1633637835486
 31
0.0
 11
792.6852791419528
 21
221.5624249541746
 31
0.0
 11
803.8228604345402
 21
221.8535041923743
 31
0.0
 11
806.0686622072516
 21
221.4042478981207
 31
0.0
  0
HATCH
  5
215
330
2
100
AcDbEntity
  8
LINIE
 48
10.0
100
AcDbHatch
 10
0.0
 20
0.0
 30
0.0
210
0.0
220
0.0
230
1.0
  2
ANSI31
 70
     0
 71
     0
 91
        4
 92
        5
 93
        6
 72
     1
 10
801.722892081095
 20
211.4447285802533
 11
805.547881823878
 21
211.4447285802533
 72
     2
 10
803.098392081095
 20
211.9447285802535
 40
2.499999999999964
 50
348.4630409671819
 51
360.0
 73
     1
 72
     1
 10
805.598392081095
 20
211.9447285802535
 11
805.598392081095
 21
219.9447285802534
 72
     2
 10
808.0983920810949
 20
219.9447285802532
 40
2.499999999999996
 50
180.0000000000025
 51
215.7188059857725
 73
     0
 72
     4
 94
        3
 73
     0
 74
     0
 95
        9
 96
        5
 40
41.685097780573
 40
41.685097780573
 40
41.685097780573
 40
41.685097780573
 40
43.97539401037375
 40
46.09696782555252
 40
46.09696782555252
 40
46.09696782555252
 40
46.09696782555252
 10
806.0686622072516
 20
221.4042478981207
 10
805.321624489458
 20
221.5731546768248
 10
803.8825821128789
 20
221.8985251453531
 10
802.4261414256729
 20
222.0106607190027
 10
801.7228920810945
 20
222.0302040348784
 72
     1
 10
801.722892081095
 20
222.0302040348783
 11
801.722892081095
 21
211.4447285802533
 97
        0
 92
        5
 93
        4
 72
     4
 94
        3
 73
     0
 74
     0
 95
        8
 96
        4
 40
40.2016590693731
 40
40.2016590693731
 40
40.2016590693731
 40
40.2016590693731
 40
41.685097780573
 40
41.685097780573
 40
41.685097780573
 40
41.685097780573
 10
801.7228920810945
 20
222.0302040348784
 10
801.2311687698852
 20
222.0438690372968
 10
800.7380382920507
 20
222.0407254092078
 10
800.2438920810948
 20
222.0258766340476
 72
     1
 10
800.2438920810948
 20
222.0258766340476
 11
800.2438920810948
 21
212.9237285802534
 72
     1
 10
800.2438920810948
 20
212.9237285802534
 11
801.722892081095
 21
211.4447285802533
 72
     1
 10
801.722892081095
 20
211.4447285802533
 11
801.722892081095
 21
222.0302040348784
 97
        0
 92
        5
 93
        4
 72
     1
 10
768.4738920810948
 20
211.4447285802533
 11
769.9528920810948
 21
212.9237285802533
 72
     1
 10
769.9528920810948
 20
212.9237285802533
 11
769.9528920810948
 21
222.5825172646119
 72
     4
 94
        3
 73
     0
 74
     0
 95
        8
 96
        4
 40
8.357331474458202
 40
8.357331474458202
 40
8.357331474458202
 40
8.357331474458202
 40
9.859576091809703
 40
9.859576091809703
 40
9.859576091809703
 40
9.859576091809703
 10
769.9528920810982
 20
222.5825172646125
 10
769.4574274715916
 20
222.4867017193556
 10
768.9642208710081
 20
222.3801126121092
 10
768.4738920810993
 20
222.2629180888738
 72
     1
 10
768.4738920810948
 20
222.2629180888729
 11
768.4738920810948
 21
211.4447285802533
 97
        0
 92
        5
 93
        5
 72
     4
 94
        3
 73
     0
 74
     0
 95
        9
 96
        5
 40
0.0
 40
0.0
 40
0.0
 40
0.0
 40
3.505619563075955
 40
8.357331474458202
 40
8.357331474458202
 40
8.357331474458202
 40
8.357331474458202
 10
768.4738920810993
 20
222.2629180888738
 10
767.3296668474787
 20
221.989434390817
 10
764.6392158452901
 20
221.1997718494174
 10
762.0825959114463
 20
220.0940208349743
 10
760.5983920810948
 20
219.452095193495
 72
     1
 10
760.5983920810948
 20
219.452095193495
 11
760.5983920810951
 21
211.9447285802534
 72
     2
 10
763.0983920810949
 20
211.9447285802535
 40
2.500000000000019
 50
180.0000000000013
 51
191.5369590328181
 73
     1
 72
     1
 10
760.6489023383119
 20
211.4447285802533
 11
768.4738920810948
 21
211.4447285802533
 72
     1
 10
768.4738920810948
 20
211.4447285802533
 11
768.4738920810948
 21
222.2629180888725
 97
        0
 75
     0
 76
     1
 52
0.0
 41
25.0
 77
     0
 78
     1
 53
45.0
 43
226.2736374988463
 44
-33.26498114150002
 45
-2.209708691207959
 46
2.20970869120796
 79
     0
 47
0.3395931865206437
 98
        4
 10
802.7430725134802
 20
215.231437181773
 10
801.3842388451879
 20
215.9106230773308
 10
769.1119455583259
 20
216.5898104825261
 10
765.3751529705211
 20
215.9106230773308
  0
LINE
  5
225
330
2
100
AcDbEntity
  8
0
100
AcDbLine
 10
672.5983920810951
 20
223.4447285802533
 30
0.0
 11
755.0983920810948
 21
223.4447285802533
 31
0.0
1001
ACAD
1000
ASC_BOUNDS
1002
{
1070
    19
1002
}
  0
LINE
  5
226
330
2
100
AcDbEntity
  8
0
100
AcDbLine
 10
734.5983920810951
 20
223.4447285802535
 30
0.0
 11
689.5983920810951
 21
223.4447285802533
 31
0.0
1001
ACAD
1000
ASC_BOUNDS
1002
{
1070
    19
1002
}
  0
LINE
  5
227
330
2
100
AcDbEntity
  8
0
100
AcDbLine
 10
734.5983920810951
 20
213.5994291186328
 30
0.0
 11
689.5983920810951
 21
213.5994291186328
 31
0.0
  0
ARC
  5
228
330
2
100
AcDbEntity
  8
0
100
AcDbCircle
 10
694.2900363161784
 20
205.5511610602987
 30
0.0
 40
8.048268058334087
100
AcDbArc
 50
54.34252181018347
 51
125.6574781898165
  0
LINE
  5
229
330
2
100
AcDbEntity
  8
0
100
AcDbLine
 10
689.5983920810951
 20
212.0905106541197
 30
0.0
 11
691.107310545608
 21
213.5994291186328
 31
0.0
1001
ACAD
1000
ASC_BOUNDS
1002
{
1070
    19
1002
}
  0
ARC
  5
22A
330
2
100
AcDbEntity
  8
0
100
AcDbCircle
 10
694.2900363161784
 20
200.4929966385875
 30
0.0
 40
8.048268058334087
100
AcDbArc
 50
234.3425218101835
 51
305.6574781898165
  0
LINE
  5
22B
330
2
100
AcDbEntity
  8
0
100
AcDbLine
 10
689.5983920810951
 20
193.9536470447664
 30
0.0
 11
691.107310545608
 21
192.4447285802535
 31
0.0
1001
ACAD
1000
ASC_BOUNDS
1002
{
1070
    19
1002
}
  0
LINE
  5
22C
330
2
100
AcDbEntity
  8
0
100
AcDbLine
 10
689.5983920810951
 20
193.9536470447664
 30
0.0
 11
689.5983920810951
 21
212.0905106541197
 31
0.0
  0
LINE
  5
22D
330
2
100
AcDbEntity
  8
0
100
AcDbLine
 10
608.0983920810949
 20
226.4447285802534
 30
0.0
 11
648.0983920810951
 21
226.4447285802534
 31
0.0
1001
ACAD
1000
ASC_BOUNDS
1002
{
1070
    19
1005
0
1002
}
  0
ARC
  5
22E
330
2
100
AcDbEntity
  8
0
100
AcDbCircle
 10
692.0983920810953
 20
226.4447285802534
 30
0.0
 40
4.0
100
AcDbArc
 50
180.0
 51
228.590377890729
1001
ACAD
1000
ASC_BOUNDS
1002
{
1070
    19
1002
}
  0
ARC
  5
22F
330
2
100
AcDbEntity
  8
0
100
AcDbCircle
 10
674.5983920810949
 20
224.9447285802534
 30
0.0
 40
2.5
100
AcDbArc
 50
180.0
 51
216.8698976458438
  0
LINE
  5
230
330
2
100
AcDbEntity
  8
0
100
AcDbLine
 10
689.5983920810951
 20
213.5994291186328
 30
0.0
 11
689.5983920810951
 21
223.4447285802533
 31
0.0
1001
ACAD
1000
ASC_BOUNDS
1002
{
1070
    19
1002
}
  0
ARC
  5
231
330
2
100
AcDbEntity
  8
0
100
AcDbCircle
 10
661.4381380432505
 20
236.4447285802535
 30
0.0
 40
10.0
100
AcDbArc
 50
270.0
 51
311.409622109271
1001
ACAD
1000
ASC_BOUNDS
1002
{
1070
    19
1002
}
  0
LINE
  5
232
330
2
100
AcDbEntity
  8
LINIE
 48
10.0
100
AcDbLine
 10
649.4714128726322
 20
231.4447285802534
 30
0.0
 11
672.4264482992487
 21
231.4447285802534
 31
0.0
  0
LINE
  5
233
330
2
100
AcDbEntity
  8
0
100
AcDbLine
 10
648.0983920810948
 20
226.4447285802535
 30
0.0
 11
661.4381380432505
 21
226.4447285802534
 31
0.0
1001
ACAD
1000
ASC_BOUNDS
1002
{
1070
    19
1002
}
  0
LINE
  5
234
330
2
100
AcDbEntity
  8
0
100
AcDbLine
 10
674.6668945985735
 20
231.4447285802535
 30
0.0
 11
684.0983920810949
 21
231.4447285802535
 31
0.0
1001
ACAD
1000
ASC_BOUNDS
1002
{
1070
    19
1002
}
  0
ARC
  5
235
330
2
100
AcDbEntity
  8
0
100
AcDbCircle
 10
674.6668945985735
 20
221.4447285802535
 30
0.0
 40
10.0
100
AcDbArc
 50
90.0
 51
131.409622109271
1001
ACAD
1000
ASC_BOUNDS
1002
{
1070
    19
1002
}
  0
LINE
  5
236
330
2
100
AcDbEntity
  8
0
100
AcDbLine
 10
672.0983920810951
 20
224.9447285802534
 30
0.0
 11
672.0983920810951
 21
231.1092407157782
 31
0.0
  0
ARC
  5
237
330
2
100
AcDbEntity
  8
0
100
AcDbCircle
 10
684.0983920810949
 20
227.4447285802535
 30
0.0
 40
4.0
100
AcDbArc
 50
0.0
 51
90.0
1001
ACAD
1000
ASC_BOUNDS
1002
{
1070
    19
1002
}
  0
LINE
  5
238
330
2
100
AcDbEntity
  8
0
100
AcDbLine
 10
688.0983920810953
 20
226.4447285802534
 30
0.0
 11
688.0983920810949
 21
227.4447285802535
 31
0.0
1001
ACAD
1000
ASC_BOUNDS
1002
{
1070
    19
1002
}
  0
LINE
  5
239
330
2
100
AcDbEntity
  8
0
100
AcDbLine
 10
702.8247735855992
 20
193.6782971703373
 30
0.0
 11
702.8247735855992
 21
212.3658605285489
 31
0.0
  0
LINE
  5
23A
330
2
100
AcDbEntity
  8
0
100
AcDbLine
 10
698.981680551262
 20
193.9536470447664
 30
0.0
 11
698.981680551262
 21
212.0905106541197
 31
0.0
  0
LINE
  5
23B
330
2
100
AcDbEntity
  8
0
100
AcDbLine
 10
725.2151036109282
 20
193.9536470447664
 30
0.0
 11
725.2151036109282
 21
212.0905106541197
 31
0.0
  0
LINE
  5
23C
330
2
100
AcDbEntity
  8
0
100
AcDbLine
 10
721.3720105765907
 20
193.6782971703373
 30
0.0
 11
721.3720105765907
 21
212.3658605285493
 31
0.0
  0
LINE
  5
23D
330
2
100
AcDbEntity
  8
0
100
AcDbLine
 10
734.5983920810951
 20
193.9536470447665
 30
0.0
 11
734.5983920810951
 21
212.0905106541197
 31
0.0
  0
LINE
  5
23E
330
2
100
AcDbEntity
  8
MITTE
 48
8.0
100
AcDbLine
 10
712.0983920810949
 20
228.970698176553
 30
0.0
 11
712.0983920810949
 21
189.235594444686
 31
0.0
  0
ARC
  5
23F
330
2
100
AcDbEntity
  8
0
100
AcDbCircle
 10
712.0983920810949
 20
227.9197285802535
 30
0.0
 40
35.475
100
AcDbArc
 50
254.8460917587437
 51
285.1539082412563
  0
LINE
  5
240
330
2
100
AcDbEntity
  8
0
100
AcDbLine
 10
733.089473616582
 20
192.4447285802535
 30
0.0
 11
691.107310545608
 21
192.4447285802535
 31
0.0
  0
LINE
  5
241
330
2
100
AcDbEntity
  8
0
100
AcDbLine
 10
698.981680551262
 20
193.9536470447664
 30
0.0
 11
702.8247735855992
 21
193.9536470447664
 31
0.0
  0
LINE
  5
242
330
2
100
AcDbEntity
  8
0
100
AcDbLine
 10
725.2151036109282
 20
193.9536470447664
 30
0.0
 11
721.3720105765907
 21
193.9536470447664
 31
0.0
  0
ARC
  5
243
330
2
100
AcDbEntity
  8
0
100
AcDbCircle
 10
729.9067478460116
 20
200.4929966385875
 30
0.0
 40
8.048268058334087
100
AcDbArc
 50
234.3425218101833
 51
305.6574781898165
  0
LINE
  5
244
330
2
100
AcDbEntity
  8
0
100
AcDbLine
 10
734.5983920810951
 20
193.9536470447665
 30
0.0
 11
733.089473616582
 21
192.4447285802535
 31
0.0
1001
ACAD
1000
ASC_BOUNDS
1002
{
1070
    19
1002
}
  0
ARC
  5
245
330
2
100
AcDbEntity
  8
0
100
AcDbCircle
 10
712.0983920810949
 20
178.1244291186325
 30
0.0
 40
35.475
100
AcDbArc
 50
74.84609175874367
 51
105.1539082412563
  0
LINE
  5
246
330
2
100
AcDbEntity
  8
0
100
AcDbLine
 10
698.981680551262
 20
212.0905106541197
 30
0.0
 11
702.8247735855992
 21
212.0905106541197
 31
0.0
  0
LINE
  5
247
330
2
100
AcDbEntity
  8
0
100
AcDbLine
 10
725.2151036109282
 20
212.0905106541197
 30
0.0
 11
721.3720105765907
 21
212.0905106541197
 31
0.0
  0
LINE
  5
248
330
2
100
AcDbEntity
  8
0
100
AcDbLine
 10
734.5983920810951
 20
213.5994291186327
 30
0.0
 11
734.5983920810951
 21
223.4447285802533
 31
0.0
1001
ACAD
1000
ASC_BOUNDS
1002
{
1070
    19
1002
}
  0
ARC
  5
249
330
2
100
AcDbEntity
  8
0
100
AcDbCircle
 10
729.9067478460116
 20
205.5511610602987
 30
0.0
 40
8.048268058334087
100
AcDbArc
 50
54.34252181018347
 51
125.6574781898165
  0
LINE
  5
24A
330
2
100
AcDbEntity
  8
0
100
AcDbLine
 10
734.5983920810951
 20
212.0905106541197
 30
0.0
 11
733.0894736165821
 21
213.5994291186328
 31
0.0
1001
ACAD
1000
ASC_BOUNDS
1002
{
1070
    19
1002
}
  0
ARC
  5
24B
330
2
100
AcDbEntity
  8
0
100
AcDbCircle
 10
745.5983920810949
 20
225.9447285802533
 30
0.0
 40
2.5
100
AcDbArc
 50
270.0
 51
0.0
1001
ACAD
1000
ASC_BOUNDS
1002
{
1070
    19
1002
}
  0
LINE
  5
24C
330
2
100
AcDbEntity
  8
0
100
AcDbLine
 10
769.2765249303601
 20
222.4447285802534
 30
0.0
 11
755.0983920810948
 21
222.4447285802534
 31
0.0
1001
ACAD
1000
ASC_BOUNDS
1002
{
1070
    19
1002
}
  0
ARC
  5
24D
330
2
100
AcDbEntity
  8
0
100
AcDbCircle
 10
758.0983920810949
 20
219.9447285802534
 30
0.0
 40
2.5
100
AcDbArc
 50
0.0
 51
90.0
1001
ACAD
1000
ASC_BOUNDS
1002
{
1070
    19
1002
}
  0
LINE
  5
24E
330
2
100
AcDbEntity
  8
0
100
AcDbLine
 10
755.0983920810948
 20
223.4447285802533
 30
0.0
 11
755.0983920810948
 21
222.4447285802534
 31
0.0
1001
ACAD
1000
ASC_BOUNDS
1002
{
1070
    19
1002
}
  0
ARC
  5
24F
330
2
100
AcDbEntity
  8
0
100
AcDbCircle
 10
763.0983920810949
 20
211.9447285802534
 30
0.0
 40
2.5
100
AcDbArc
 50
180.0000000000002
 51
191.5369590328157
1001
ACAD
1000
ASC_BOUNDS
1002
{
1070
    19
1002
}
  0
LINE
  5
250
330
2
100
AcDbEntity
  8
0
100
AcDbLine
 10
769.952892081095
 20
212.9237285802534
 30
0.0
 11
768.4738920810948
 21
211.4447285802533
 31
0.0
1001
ACAD
1000
ASC_BOUNDS
1002
{
1070
    19
1002
}
  0
LINE
  5
251
330
2
100
AcDbEntity
  8
LINIE
 48
10.0
100
AcDbLine
 10
768.4738920810951
 20
222.2629180888887
 30
0.0
 11
768.4738920810948
 21
211.4447285802533
 31
0.0
1001
ACAD
1000
ASC_BOUNDS
1002
{
1070
    19
1002
}
  0
LINE
  5
252
330
2
100
AcDbEntity
  8
0
100
AcDbLine
 10
769.952892081095
 20
222.5825172646272
 30
0.0
 11
769.9528920810948
 21
212.9237285802533
 31
0.0
1001
ACAD
1000
ASC_BOUNDS
1002
{
1070
    19
1002
}
  0
LINE
  5
253
330
2
100
AcDbEntity
  8
0
100
AcDbLine
 10
760.5983920810948
 20
219.9447285802534
 30
0.0
 11
760.5983920810951
 21
211.9447285802534
 31
0.0
1001
ACAD
1000
ASC_BOUNDS
1002
{
1070
    19
1002
}
  0
ARC
  5
25C
330
2
100
AcDbEntity
  8
0
100
AcDbCircle
 10
815.0983920810951
 20
227.4447285802533
 30
0.0
 40
5.0
100
AcDbArc
 50
270.0
 51
0.0
1001
ACAD
1000
ASC_BOUNDS
1002
{
1070
    19
1002
}
  0
LINE
  5
25D
330
2
100
AcDbEntity
  8
MITTE
 48
10.0
100
AcDbLine
 10
785.0983920810951
 20
228.1460729073145
 30
0.0
 11
785.0983920810951
 21
207.3455978568051
 31
0.0
  0
LINE
  5
25E
330
2
100
AcDbEntity
  8
0
100
AcDbLine
 10
815.0983920810951
 20
222.4447285802534
 30
0.0
 11
784.2115397066859
 21
222.4447285802534
 31
0.0
1001
ACAD
1000
ASC_BOUNDS
1002
{
1070
    19
1002
}
  0
LINE
  5
25F
330
2
100
AcDbEntity
  8
0
100
AcDbLine
 10
800.2438920810948
 20
212.9237285802534
 30
0.0
 11
801.722892081095
 21
211.4447285802533
 31
0.0
1001
ACAD
1000
ASC_BOUNDS
1002
{
1070
    19
1002
}
  0
LINE
  5
260
330
2
100
AcDbEntity
  8
LINIE
 48
10.0
100
AcDbLine
 10
801.722892081095
 20
222.0302040348873
 30
0.0
 11
801.722892081095
 21
211.4447285802533
 31
0.0
1001
ACAD
1000
ASC_BOUNDS
1002
{
1070
    19
1002
}
  0
LINE
  5
261
330
2
100
AcDbEntity
  8
0
100
AcDbLine
 10
800.2438920810948
 20
222.0258766340499
 30
0.0
 11
800.2438920810948
 21
212.9237285802534
 31
0.0
1001
ACAD
1000
ASC_BOUNDS
1002
{
1070
    19
1002
}
  0
ARC
  5
262
330
2
100
AcDbEntity
  8
0
100
AcDbCircle
 10
803.098392081095
 20
211.9447285802534
 30
0.0
 40
2.5
100
AcDbArc
 50
348.4630409671843
 51
0.0000000000002036
1001
ACAD
1000
ASC_BOUNDS
1002
{
1070
    19
1002
}
  0
ARC
  5
263
330
2
100
AcDbEntity
  8
0
100
AcDbCircle
 10
808.0983920810949
 20
219.9447285802534
 30
0.0
 40
2.5
100
AcDbArc
 50
90.0
 51
180.0000000000002
1001
ACAD
1000
ASC_BOUNDS
1002
{
1070
    19
1002
}
  0
LINE
  5
264
330
2
100
AcDbEntity
  8
0
100
AcDbLine
 10
805.598392081095
 20
219.9447285802534
 30
0.0
 11
805.598392081095
 21
211.9447285802534
 31
0.0
1001
ACAD
1000
ASC_BOUNDS
1002
{
1070
    19
1002
}
  0
ARC
  5
266
330
2
100
AcDbEntity
  8
0
100
AcDbCircle
 10
1053.295473764051
 20
236.0010777663572
 30
0.0
 40
12.0
100
AcDbArc
 50
288.0261308132883
 51
10.35332004392947
  0
LINE
  5
267
330
2
100
AcDbEntity
  8
0
100
AcDbLine
 10
917.7954737640517
 20
193.4447285802534
 30
0.0
 11
917.7954737640517
 21
212.4447285802536
 31
0.0
1001
ACAD
1000
ASC_BOUNDS
1002
{
1070
    19
1002
}
  0
LINE
  5
268
330
2
100
AcDbEntity
  8
0
100
AcDbLine
 10
920.0142845619469
 20
193.8501224924847
 30
0.0
 11
920.0142845619469
 21
212.1940352064016
 31
0.0
  0
LINE
  5
269
330
2
100
AcDbEntity
  8
0
100
AcDbLine
 10
956.576662966156
 20
193.8501224924847
 30
0.0
 11
956.576662966156
 21
211.4447285802524
 31
0.0
  0
LINE
  5
26A
330
2
100
AcDbEntity
  8
0
100
AcDbLine
 10
958.7954737640515
 20
193.4447285802534
 30
0.0
 11
958.7954737640515
 21
211.4447285802524
 31
0.0
1001
ACAD
1000
ASC_BOUNDS
1002
{
1070
    19
1002
}
  0
LINE
  5
26B
330
2
100
AcDbEntity
  8
0
100
AcDbLine
 10
940.5142845619472
 20
193.8501224924847
 30
0.0
 11
940.5142845619472
 21
212.1940352064016
 31
0.0
  0
LINE
  5
26C
330
2
100
AcDbEntity
  8
0
100
AcDbLine
 10
936.076662966156
 20
193.8501224924847
 30
0.0
 11
936.076662966156
 21
212.1940352064016
 31
0.0
  0
LINE
  5
26D
330
2
100
AcDbEntity
  8
MITTE
 48
7.0
100
AcDbLine
 10
938.2954737640515
 20
189.3869679726471
 30
0.0
 11
938.2954737640515
 21
225.7780028107442
 31
0.0
  0
LINE
  5
26E
330
2
100
AcDbEntity
  8
0
100
AcDbLine
 10
918.7954737640517
 20
192.4447285802535
 30
0.0
 11
957.7954737640515
 21
192.4447285802535
 31
0.0
1001
ACAD
1000
ASC_BOUNDS
1002
{
1070
    19
1005
0
1002
}
  0
ARC
  5
26F
330
2
100
AcDbEntity
  8
0
100
AcDbCircle
 10
928.0454737640516
 20
216.0947285802536
 30
0.0
 40
23.65000000000001
100
AcDbArc
 50
250.1483977684142
 51
289.8516022315858
  0
LINE
  5
270
330
2
100
AcDbEntity
  8
0
100
AcDbLine
 10
920.0142845619469
 20
193.8501224924847
 30
0.0
 11
917.7954737640517
 21
193.4447285802534
 31
0.0
  0
LINE
  5
271
330
2
100
AcDbEntity
  8
0
100
AcDbLine
 10
917.7954737640517
 20
193.4447285802534
 30
0.0
 11
918.7954737640517
 21
192.4447285802535
 31
0.0
1001
ACAD
1000
ASC_BOUNDS
1002
{
1070
    19
1002
}
  0
ARC
  5
272
330
2
100
AcDbEntity
  8
0
100
AcDbCircle
 10
948.5454737640516
 20
216.0947285802536
 30
0.0
 40
23.65000000000001
100
AcDbArc
 50
250.1483977684159
 51
289.851602231584
  0
LINE
  5
273
330
2
100
AcDbEntity
  8
0
100
AcDbLine
 10
940.5142845619472
 20
193.8501224924847
 30
0.0
 11
936.076662966156
 21
193.8501224924847
 31
0.0
  0
LINE
  5
274
330
2
100
AcDbEntity
  8
0
100
AcDbLine
 10
958.7954737640515
 20
193.4447285802534
 30
0.0
 11
956.576662966156
 21
193.8501224924847
 31
0.0
  0
LINE
  5
275
330
2
100
AcDbEntity
  8
0
100
AcDbLine
 10
958.7954737640515
 20
193.4447285802534
 30
0.0
 11
957.7954737640515
 21
192.4447285802535
 31
0.0
1001
ACAD
1000
ASC_BOUNDS
1002
{
1070
    19
1002
}
  0
LINE
  5
276
330
2
100
AcDbEntity
  8
0
100
AcDbLine
 10
915.7954737640515
 20
222.4447285802534
 30
0.0
 11
935.5287155749259
 21
222.4447285802534
 31
0.0
1001
ACAD
1000
ASC_BOUNDS
1002
{
1070
    19
1002
}
  0
LINE
  5
277
330
2
100
AcDbEntity
  8
0
100
AcDbLine
 10
935.5287155749259
 20
222.4447285802534
 30
0.0
 11
917.7954737640517
 21
222.4447285802534
 31
0.0
1001
ACAD
1000
ASC_BOUNDS
1002
{
1070
    19
1005
0
1002
}
  0
LINE
  5
278
330
2
100
AcDbEntity
  8
0
100
AcDbLine
 10
953.7954737640516
 20
213.5994291186329
 30
0.0
 11
915.7954737640515
 21
213.5994291186328
 31
0.0
  0
ARC
  5
279
330
2
100
AcDbEntity
  8
0
100
AcDbCircle
 10
928.0454737640516
 20
189.9494291186329
 30
0.0
 40
23.65000000000001
100
AcDbArc
 50
70.14839776841424
 51
109.8516022315857
  0
ARC
  5
27A
330
2
100
AcDbEntity
  8
0
100
AcDbCircle
 10
917.7954737640517
 20
224.9447285802534
 30
0.0
 40
2.5
100
AcDbArc
 50
180.0
 51
270.0
  0
ARC
  5
27B
330
2
100
AcDbEntity
  8
0
100
AcDbCircle
 10
917.7954737640517
 20
224.9447285802534
 30
0.0
 40
2.5
100
AcDbArc
 50
180.0
 51
270.0
  0
LINE
  5
27C
330
2
100
AcDbEntity
  8
0
100
AcDbLine
 10
917.7954737640517
 20
212.4447285802536
 30
0.0
 11
920.0142845619469
 21
212.1940352064016
 31
0.0
  0
LINE
  5
27D
330
2
100
AcDbEntity
  8
0
100
AcDbLine
 10
915.7954737640515
 20
213.5994291186328
 30
0.0
 11
915.7954737640515
 21
222.4447285802534
 31
0.0
1001
ACAD
1000
ASC_BOUNDS
1002
{
1070
    19
1002
}
  0
LINE
  5
27E
330
2
100
AcDbEntity
  8
0
100
AcDbLine
 10
917.7954737640517
 20
212.4447285802536
 30
0.0
 11
915.7954737640515
 21
213.5994291186328
 31
0.0
1001
ACAD
1000
ASC_BOUNDS
1002
{
1070
    19
1002
}
  0
LINE
  5
27F
330
2
100
AcDbEntity
  8
0
100
AcDbLine
 10
915.2954737640516
 20
242.9012024548304
 30
0.0
 11
915.2954737640516
 21
224.9447285802534
 31
0.0
  0
LINE
  5
280
330
2
100
AcDbEntity
  8
0
100
AcDbLine
 10
915.2954737640516
 20
242.9012024548304
 30
0.0
 11
915.2954737640516
 21
224.9447285802534
 31
0.0
  0
ARC
  5
281
330
2
100
AcDbEntity
  8
0
100
AcDbCircle
 10
948.5454737640516
 20
189.9494291186329
 30
0.0
 40
23.65000000000001
100
AcDbArc
 50
77.17421556953862
 51
109.851602231584
  0
LINE
  5
282
330
2
100
AcDbEntity
  8
0
100
AcDbLine
 10
940.5142845619472
 20
212.1940352064016
 30
0.0
 11
936.076662966156
 21
212.1940352064016
 31
0.0
  0
ARC
  5
283
330
2
100
AcDbEntity
  8
0
100
AcDbCircle
 10
956.2954737640517
 20
211.9447285802534
 30
0.0
 40
2.5
100
AcDbArc
 50
180.0
 51
191.5369590328364
  0
LINE
  5
284
330
2
100
AcDbEntity
  8
0
100
AcDbLine
 10
961.8494054007824
 20
211.4447285802524
 30
0.0
 11
953.8459840212686
 21
211.4447285802524
 31
0.0
  0
LINE
  5
285
330
2
100
AcDbEntity
  8
0
100
AcDbLine
 10
953.7954737640516
 20
213.5550555620581
 30
0.0
 11
953.7954737640516
 21
211.9447285802534
 31
0.0
  0
LINE
  5
286
330
2
100
AcDbEntity
  8
0
100
AcDbLine
 10
1016.514284561947
 20
193.8501224924847
 30
0.0
 11
1016.514284561947
 21
211.5835893909328
 31
0.0
  0
LINE
  5
287
330
2
100
AcDbEntity
  8
0
100
AcDbLine
 10
1012.076662966156
 20
193.8501224924847
 30
0.0
 11
1012.076662966156
 21
210.6938384915856
 31
0.0
  0
LINE
  5
288
330
2
100
AcDbEntity
  8
0
100
AcDbLine
 10
996.014284561947
 20
193.8501224924847
 30
0.0
 11
996.014284561947
 21
210.0010777663572
 31
0.0
  0
LINE
  5
289
330
2
100
AcDbEntity
  8
0
100
AcDbLine
 10
993.7954737640517
 20
193.4447285802534
 30
0.0
 11
993.7954737640517
 21
210.0010777663572
 31
0.0
1001
ACAD
1000
ASC_BOUNDS
1002
{
1070
    19
1002
}
  0
LINE
  5
28A
330
2
100
AcDbEntity
  8
0
100
AcDbLine
 10
1034.795473764051
 20
193.4447285802534
 30
0.0
 11
1034.795473764051
 21
212.4447285802536
 31
0.0
1001
ACAD
1000
ASC_BOUNDS
1002
{
1070
    19
1002
}
  0
LINE
  5
28B
330
2
100
AcDbEntity
  8
0
100
AcDbLine
 10
1032.576662966156
 20
193.8501224924847
 30
0.0
 11
1032.576662966156
 21
212.1940352064016
 31
0.0
  0
LINE
  5
28C
330
2
100
AcDbEntity
  8
MITTE
 48
7.0
100
AcDbLine
 10
1014.295473764051
 20
189.3869679726471
 30
0.0
 11
1014.295473764051
 21
225.7780028107442
 31
0.0
  0
LINE
  5
28D
330
2
100
AcDbEntity
  8
0
100
AcDbLine
 10
994.7954737640516
 20
192.4447285802535
 30
0.0
 11
1033.795473764051
 21
192.4447285802535
 31
0.0
1001
ACAD
1000
ASC_BOUNDS
1002
{
1070
    19
1005
0
1002
}
  0
ARC
  5
28E
330
2
100
AcDbEntity
  8
0
100
AcDbCircle
 10
1024.545473764051
 20
216.0947285802536
 30
0.0
 40
23.65000000000001
100
AcDbArc
 50
250.1483977684159
 51
289.851602231584
  0
ARC
  5
28F
330
2
100
AcDbEntity
  8
0
100
AcDbCircle
 10
1004.045473764051
 20
216.0947285802536
 30
0.0
 40
23.65000000000001
100
AcDbArc
 50
250.1483977684159
 51
289.851602231584
  0
LINE
  5
290
330
2
100
AcDbEntity
  8
0
100
AcDbLine
 10
996.014284561947
 20
193.8501224924847
 30
0.0
 11
993.7954737640517
 21
193.4447285802534
 31
0.0
  0
LINE
  5
291
330
2
100
AcDbEntity
  8
0
100
AcDbLine
 10
993.7954737640517
 20
193.4447285802534
 30
0.0
 11
994.7954737640516
 21
192.4447285802535
 31
0.0
1001
ACAD
1000
ASC_BOUNDS
1002
{
1070
    19
1002
}
  0
LINE
  5
292
330
2
100
AcDbEntity
  8
0
100
AcDbLine
 10
1016.514284561947
 20
193.8501224924847
 30
0.0
 11
1012.076662966156
 21
193.8501224924847
 31
0.0
  0
LINE
  5
293
330
2
100
AcDbEntity
  8
0
100
AcDbLine
 10
1034.795473764051
 20
193.4447285802534
 30
0.0
 11
1033.795473764051
 21
192.4447285802535
 31
0.0
1001
ACAD
1000
ASC_BOUNDS
1002
{
1070
    19
1002
}
  0
LINE
  5
294
330
2
100
AcDbEntity
  8
0
100
AcDbLine
 10
1034.795473764051
 20
193.4447285802534
 30
0.0
 11
1032.576662966156
 21
193.8501224924847
 31
0.0
  0
LINE
  5
295
330
2
100
AcDbEntity
  8
0
100
AcDbLine
 10
1020.624713488104
 20
212.7498106397777
 30
0.0
 11
1057.008882276349
 21
224.5900919535188
 31
0.0
  0
LINE
  5
296
330
2
100
AcDbEntity
  8
0
100
AcDbLine
 10
976.2954737640516
 20
210.0010777663572
 30
0.0
 11
1003.295473764051
 21
210.0010777663572
 31
0.0
  0
ARC
  5
297
330
2
100
AcDbEntity
  8
0
100
AcDbCircle
 10
1003.295473764051
 20
266.0010777663572
 30
0.0
 40
56.0
100
AcDbArc
 50
270.0
 51
288.0261308132883
  0
LINE
  5
298
330
2
100
AcDbEntity
  8
0
100
AcDbLine
 10
1036.795473764051
 20
213.5994291186329
 30
0.0
 11
1023.235518191232
 21
213.5994291186329
 31
0.0
  0
ARC
  5
299
330
2
100
AcDbEntity
  8
0
100
AcDbCircle
 10
1024.545473764051
 20
189.9494291186329
 30
0.0
 40
23.65000000000001
100
AcDbArc
 50
70.14839776841424
 51
93.50511215251156
  0
LINE
  5
29A
330
2
100
AcDbEntity
  8
0
100
AcDbLine
 10
1036.795473764051
 20
213.5994291186329
 30
0.0
 11
1036.795473764051
 21
218.0121639407043
 31
0.0
1001
ACAD
1000
ASC_BOUNDS
1002
{
1070
    19
1002
}
  0
LINE
  5
29B
330
2
100
AcDbEntity
  8
0
100
AcDbLine
 10
1034.795473764051
 20
212.4447285802536
 30
0.0
 11
1036.795473764051
 21
213.5994291186329
 31
0.0
1001
ACAD
1000
ASC_BOUNDS
1002
{
1070
    19
1002
}
  0
LINE
  5
29C
330
2
100
AcDbEntity
  8
0
100
AcDbLine
 10
1034.795473764051
 20
212.4447285802536
 30
0.0
 11
1032.576662966156
 21
212.1940352064016
 31
0.0
  0
CIRCLE
  5
29D
330
2
100
AcDbEntity
  8
0
100
AcDbCircle
 10
1053.295473764051
 20
236.0010777663572
 30
0.0
 40
3.3235
  0
LINE
  5
29E
330
2
100
AcDbEntity
  8
MITTE
 48
10.0
100
AcDbLine
 10
1053.295473764051
 20
242.0470200091954
 30
0.0
 11
1053.295473764051
 21
230.3039262632303
 31
0.0
  0
ARC
  5
29F
330
2
100
AcDbEntity
  8
LINIE
 48
10.0
100
AcDbCircle
 10
1053.295473764051
 20
236.0010777663572
 30
0.0
 40
4.0
100
AcDbArc
 50
163.3492982195145
 51
98.85437576424264
  0
LINE
  5
2A0
330
2
100
AcDbEntity
  8
MITTE
 48
10.0
100
AcDbLine
 10
1048.558530862493
 20
236.0010777663572
 30
0.0
 11
1059.410794270844
 21
236.0010777663572
 31
0.0
  0
LINE
  5
2A1
330
2
100
AcDbEntity
  8
MITTE
 48
20.0
100
AcDbLine
 10
877.9797749755781
 20
313.0010777663572
 30
0.0
 11
1074.773051812481
 21
313.0010777663572
 31
0.0
  0
LINE
  5
2BD
330
2
100
AcDbEntity
  8
0
100
AcDbLine
 10
674.6668945985735
 20
353.4447285802532
 30
0.0
 11
815.0983920810951
 21
353.4447285802534
 31
0.0
1001
ACAD
1000
ASC_BOUNDS
1002
{
1070
    19
1002
}
  0
LINE
  5
2BE
330
2
100
AcDbEntity
  8
0
100
AcDbLine
 10
608.0983920810949
 20
358.4447285802535
 30
0.0
 11
608.0983920810949
 21
342.4447285802533
 31
0.0
1001
ACAD
1000
ASC_BOUNDS
1002
{
1070
    19
1005
0
1005
0
1002
}
  0
ARC
  5
2BF
330
2
100
AcDbEntity
  8
0
100
AcDbCircle
 10
664.4381380432506
 20
287.4447285802535
 30
0.0
 40
10.0
100
AcDbArc
 50
48.59037789072882
 51
90.0
  0
LINE
  5
2C0
330
2
100
AcDbEntity
  8
0
100
AcDbLine
 10
648.0983920810951
 20
297.4447285802535
 30
0.0
 11
664.4381380432506
 21
297.4447285802535
 31
0.0
  0
ARC
  5
2C1
330
2
100
AcDbEntity
  8
0
100
AcDbCircle
 10
750.5983920810949
 20
289.51205070161
 30
0.0
 40
2.5
100
AcDbArc
 50
90.0
 51
180.0
1001
ACAD
1000
ASC_BOUNDS
1002
{
1070
    19
1002
}
  0
LINE
  5
2C2
330
2
100
AcDbEntity
  8
0
100
AcDbLine
 10
608.0983920810949
 20
358.4447285802539
 30
0.0
 11
661.4381380432505
 21
358.4447285802534
 31
0.0
1001
ACAD
1000
ASC_BOUNDS
1002
{
1070
    19
1002
}
  0
LINE
  5
2C3
330
2
100
AcDbEntity
  8
LINIE
 48
10.0
100
AcDbLine
 10
667.6435725294993
 20
353.4447285802532
 30
0.0
 11
649.5116394094635
 21
353.4447285802532
 31
0.0
  0
ARC
  5
2C4
330
2
100
AcDbEntity
  8
0
100
AcDbCircle
 10
661.4381380432505
 20
348.4447285802533
 30
0.0
 40
10.0
100
AcDbArc
 50
48.59037789072882
 51
90.0
1001
ACAD
1000
ASC_BOUNDS
1002
{
1070
    19
1002
}
  0
LINE
  5
2C5
330
2
100
AcDbEntity
  8
LINIE
 48
10.0
100
AcDbLine
 10
649.4714128726322
 20
353.4447285802534
 30
0.0
 11
672.4264482992487
 21
353.4447285802534
 31
0.0
  0
ARC
  5
2C6
330
2
100
AcDbEntity
  8
0
100
AcDbCircle
 10
674.6668945985735
 20
363.4447285802532
 30
0.0
 40
10.0
100
AcDbArc
 50
228.5903778907288
 51
270.0
1001
ACAD
1000
ASC_BOUNDS
1002
{
1070
    19
1002
}
  0
ARC
  5
2C7
330
2
100
AcDbEntity
  8
0
100
AcDbCircle
 10
815.0983920810951
 20
348.4447285802533
 30
0.0
 40
5.0
100
AcDbArc
 50
0.0
 51
90.0
1001
ACAD
1000
ASC_BOUNDS
1002
{
1070
    19
1002
}
  0
ARC
  5
2D4
330
2
100
AcDbEntity
  8
MITTE
 48
15.0
100
AcDbCircle
 10
976.2954737640516
 20
313.0010777663572
 30
0.0
 40
72.5
100
AcDbArc
 50
13.38326018538495
 51
53.40688101119361
  0
LINE
  5
2D5
330
2
100
AcDbEntity
  8
MITTE
 48
10.0
100
AcDbLine
 10
1045.321976517908
 20
292.4447285802533
 30
0.0
 11
908.777194995363
 21
292.4447285802533
 31
0.0
  0
ARC
  5
2D6
330
2
100
AcDbEntity
  8
MITTE
 48
15.0
100
AcDbCircle
 10
976.2954737640516
 20
313.0010777663572
 30
0.0
 40
72.5
100
AcDbArc
 50
187.4328260304643
 51
233.5117163400941
  0
CIRCLE
  5
2D7
330
2
100
AcDbEntity
  8
0
100
AcDbCircle
 10
925.0302321280267
 20
261.7358361303325
 30
0.0
 40
5.75
  0
LINE
  5
2D8
330
2
100
AcDbEntity
  8
MITTE
 48
10.0
100
AcDbLine
 10
931.5091513253673
 20
268.214755327672
 30
0.0
 11
918.6309718082796
 21
255.3365758105844
 31
0.0
  0
ARC
  5
2D9
330
2
100
AcDbEntity
  8
MITTE
 48
15.0
100
AcDbCircle
 10
976.2954737640516
 20
313.0010777663572
 30
0.0
 40
72.5
100
AcDbArc
 50
306.5931189888063
 51
324.1811683713767
  0
CIRCLE
  5
2DA
330
2
100
AcDbEntity
  8
0
100
AcDbCircle
 10
1027.560715400076
 20
261.7358361303325
 30
0.0
 40
5.75
  0
LINE
  5
2DB
330
2
100
AcDbEntity
  8
MITTE
 48
10.0
100
AcDbLine
 10
1021.187161514065
 20
268.1093900163447
 30
0.0
 11
1035.170884310582
 21
254.1256672198274
 31
0.0
  0
CIRCLE
  5
2DC
330
2
100
AcDbEntity
  8
0
100
AcDbCircle
 10
925.0302321280267
 20
364.2663194023819
 30
0.0
 40
5.75
  0
LINE
  5
2DD
330
2
100
AcDbEntity
  8
MITTE
 48
10.0
100
AcDbLine
 10
931.5091513253673
 20
357.7874002050423
 30
0.0
 11
918.6309718082796
 21
370.66557972213
 31
0.0
  0
ARC
  5
2DE
330
2
100
AcDbEntity
  8
MITTE
 48
15.0
100
AcDbCircle
 10
976.2954737640516
 20
313.0010777663572
 30
0.0
 40
72.5
100
AcDbArc
 50
126.4882836599058
 51
143.5766557743797
  0
LINE
  5
2DF
330
2
100
AcDbEntity
  8
MITTE
 48
10.0
100
AcDbLine
 10
1021.187161514065
 20
357.8927655163696
 30
0.0
 11
1035.170884310582
 21
371.876488312887
 31
0.0
  0
CIRCLE
  5
2E0
330
2
100
AcDbEntity
  8
0
100
AcDbCircle
 10
1027.560715400076
 20
364.2663194023819
 30
0.0
 40
5.75
  0
ENDSEC
  0
SECTION
  2
OBJECTS
  0
DICTIONARY
  5
1B
330
0
100
AcDbDictionary
281
     1
  3
ACAD_COLOR
350
5CC
  3
ACAD_GROUP
350
19
  3
ACAD_LAYOUT
350
33E
  3
ACAD_MATERIAL
350
5CB
  3
ACAD_MLINESTYLE
350
1A
  3
ACAD_PLOTSETTINGS
350
33F
  3
ACAD_PLOTSTYLENAME
350
33C
  3
ACAD_TABLESTYLE
350
6B4
  3
ACAD_VISUALSTYLE
350
6A3
  3
ACDBVARIABLEDICTIONARY
350
303
  3
ACMDICTIONARY
350
2E1
  3
AMG
350
348
  3
AMGSNAPSETTINGS
350
49F
  3
ASE_INDEX_DICTIONARY
350
69B
  0
DICTIONARY
  5
3
330
2
100
AcDbDictionary
280
     1
281
     1
  0
DICTIONARY
  5
5CC
102
{ACAD_REACTORS
330
1B
102
}
330
1B
100
AcDbDictionary
281
     1
  0
DICTIONARY
  5
19
102
{ACAD_REACTORS
330
1B
102
}
330
1B
100
AcDbDictionary
281
     1
  0
DICTIONARY
  5
33E
102
{ACAD_REACTORS
330
1B
102
}
330
1B
100
AcDbDictionary
281
     1
  3
Layout1
350
341
  3
Model
350
340
  0
DICTIONARY
  5
5CB
102
{ACAD_REACTORS
330
1B
102
}
330
1B
100
AcDbDictionary
281
     1
  3
ByBlock
350
6A1
  3
ByLayer
350
6A0
  3
Global
350
6A2
  0
DICTIONARY
  5
1A
102
{ACAD_REACTORS
330
1B
102
}
330
1B
100
AcDbDictionary
281
     1
  3
STANDARD
350
1C
  0
DICTIONARY
  5
33F
102
{ACAD_REACTORS
330
1B
102
}
330
1B
100
AcDbDictionary
281
     1
  0
ACDBDICTIONARYWDFLT
  5
33C
102
{ACAD_REACTORS
330
1B
102
}
330
1B
100
AcDbDictionary
281
     1
  3
Normal
350
33D
100
AcDbDictionaryWithDefault
340
33D
  0
DICTIONARY
  5
6B4
102
{ACAD_REACTORS
330
1B
102
}
330
1B
100
AcDbDictionary
281
     1
  3
Standard
350
6B5
  0
DICTIONARY
  5
6A3
102
{ACAD_REACTORS
330
1B
102
}
330
1B
100
AcDbDictionary
281
     1
  3
2dWireframe
350
6A9
  3
3D Hidden
350
6AB
  3
3dWireframe
350
6AA
  3
Basic
350
6A8
  3
Brighten
350
6AF
  3
ColorChange
350
6B3
  3
Conceptual
350
6AC
  3
Dim
350
6AE
  3
Facepattern
350
6B2
  3
Flat
350
6A4
  3
FlatWithEdges
350
6A5
  3
Gouraud
350
6A6
  3
GouraudWithEdges
350
6A7
  3
Linepattern
350
6B1
  3
Realistic
350
6AD
  3
Thicken
350
6B0
  0
DICTIONARY
  5
303
102
{ACAD_REACTORS
330
1B
102
}
330
1B
100
AcDbDictionary
281
     1
  3
CTABLESTYLE
350
6E5
  3
INDEXCTL
350
304
  0
DICTIONARY
  5
2E1
102
{ACAD_REACTORS
330
1B
102
}
330
1B
100
AcDbDictionary
280
     1
281
     1
  3
ACMSTDDICTIONARY
360
2E2
  3
AMDTSECTSYM_ARROWCOLOR
360
6D4
  0
DICTIONARY
  5
348
102
{ACAD_REACTORS
330
1B
102
}
330
1B
100
AcDbDictionary
281
     1
  0
DICTIONARY
  5
49F
102
{ACAD_REACTORS
330
1B
102
}
330
1B
100
AcDbDictionary
281
     1
  0
DICTIONARY
  5
69B
102
{ACAD_REACTORS
330
1B
102
}
330
1B
100
AcDbDictionary
281
     1
  3
ASEBlockHierarchyIndexRecord
350
69D
1001
DCO15
1040
1494844346.251
  0
LAYOUT
  5
341
102
{ACAD_REACTORS
330
33E
102
}
330
33E
100
AcDbPlotSettings
  1

  2
Kein
  4

  6

 40
0.0
 41
0.0
 42
0.0
 43
0.0
 44
0.0
 45
0.0
 46
0.0
 47
0.0
 48
0.0
 49
0.0
140
0.0
141
0.0
142
1.0
143
1.0
 70
   688
 72
     0
 73
     0
 74
     5
  7
Zeich.ctb
 75
    16
147
1.0
 76
     0
 77
     2
 78
   300
148
0.0
149
0.0
100
AcDbLayout
  1
Layout1
 70
     0
 71
     1
 10
0.0
 20
0.0
 11
420.0
 21
297.0
 12
0.0
 22
0.0
 32
0.0
 14
1.000000000000000E+20
 24
1.000000000000000E+20
 34
1.000000000000000E+20
 15
-1.000000000000000E+20
 25
-1.000000000000000E+20
 35
-1.000000000000000E+20
146
0.0
 13
0.0
 23
0.0
 33
0.0
 16
1.0
 26
0.0
 36
0.0
 17
0.0
 27
1.0
 37
0.0
 76
     0
330
8
  0
LAYOUT
  5
340
102
{ACAD_REACTORS
330
33E
102
}
330
33E
100
AcDbPlotSettings
  1

  2
FRITZfax Drucker
  4
A4
  6

 40
3.174999952316283
 41
3.174999952316283
 42
3.175003051757812
 43
3.17498779296875
 44
210.0
 45
297.0
 46
25.01
 47
0.0
 48
-186.038656361904
 49
-23.24869061567938
140
1079.219382002224
141
645.5088249734273
142
1.0
143
4.353201393486618
 70
 28340
 72
     1
 73
     1
 74
     4
  7
Zeich.ctb
 75
     0
147
0.2297159974027913
 76
     0
 77
     2
 78
   300
148
186.038656361904
149
23.24869061567938
100
AcDbLayout
  1
Model
 70
     1
 71
     0
 10
0.0
 20
0.0
 11
12.0
 21
9.0
 12
0.0
 22
0.0
 32
0.0
 14
0.0
 24
0.0
 34
0.0
 15
0.0
 25
0.0
 35
0.0
146
0.0
 13
0.0
 23
0.0
 33
0.0
 16
1.0
 26
0.0
 36
0.0
 17
0.0
 27
1.0
 37
0.0
 76
     0
330
2
331
69E
  0
MATERIAL
  5
6A1
102
{ACAD_XDICTIONARY
360
B88
102
}
102
{ACAD_REACTORS
330
5CB
102
}
330
5CB
100
AcDbMaterial
  1
ByBlock
  0
MATERIAL
  5
6A0
102
{ACAD_XDICTIONARY
360
B86
102
}
102
{ACAD_REACTORS
330
5CB
102
}
330
5CB
100
AcDbMaterial
  1
ByLayer
  0
MATERIAL
  5
6A2
102
{ACAD_XDICTIONARY
360
B8A
102
}
102
{ACAD_REACTORS
330
5CB
102
}
330
5CB
100
AcDbMaterial
  1
Global
  0
MLINESTYLE
  5
1C
102
{ACAD_REACTORS
330
1A
102
}
330
1A
100
AcDbMlineStyle
  2
STANDARD
 70
     0
  3

 62
     0
 51
90.0
 52
90.0
 71
     2
 49
0.5
 62
   256
  6
BYLAYER
 49
-0.5
 62
   256
  6
BYLAYER
  0
ACDBPLACEHOLDER
  5
33D
102
{ACAD_REACTORS
330
33C
102
}
330
33C
  0
TABLESTYLE
  5
6B5
102
{ACAD_XDICTIONARY
360
C13
102
}
102
{ACAD_REACTORS
330
6B4
102
}
330
6B4
100
AcDbTableStyle
  3
Standard
 70
     0
 71
     0
 40
0.06
 41
0.06
280
     0
281
     0
  7
STANDARD
140
0.18
170
     2
 62
     0
 63
     7
283
     0
274
    -2
284
     1
 64
     0
275
    -2
285
     1
 65
     0
276
    -2
286
     1
 66
     0
277
    -2
287
     1
 67
     0
278
    -2
288
     1
 68
     0
279
    -2
289
     1
 69
     0
  7
STANDARD
140
0.25
170
     5
 62
     0
 63
     7
283
     0
274
    -2
284
     1
 64
     0
275
    -2
285
     1
 65
     0
276
    -2
286
     1
 66
     0
277
    -2
287
     1
 67
     0
278
    -2
288
     1
 68
     0
279
    -2
289
     1
 69
     0
  7
STANDARD
140
0.18
170
     5
 62
     0
 63
     7
283
     0
274
    -2
284
     1
 64
     0
275
    -2
285
     1
 65
     0
276
    -2
286
     1
 66
     0
277
    -2
287
     1
 67
     0
278
    -2
288
     1
 68
     0
279
    -2
289
     1
 69
     0
  0
VISUALSTYLE
  5
6A9
102
{ACAD_REACTORS
330
6A3
102
}
330
6A3
100
AcDbVisualStyle
  2
2dWireframe
 70
     4
 71
     0
 72
     2
 73
     0
 90
        0
 40
-0.6
 41
-30.0
 62
     5
 63
     7
421
 16777215
 74
     1
 91
        4
 64
     7
 65
   257
 75
     1
175
     1
 42
1.0
 92
        0
 66
   257
 43
1.0
 76
     1
 77
     6
 78
     2
 67
     7
 79
     5
170
     0
171
     0
290
     0
174
     0
 93
        1
 44
0.0
173
     0
291
     0
 45
0.0
1001
ACAD
1000
AcDbSavedByObjectVersion
1070
     0
1000
AcDbSavedByObjectVersion
1070
     0
  0
VISUALSTYLE
  5
6AB
102
{ACAD_REACTORS
330
6A3
102
}
330
6A3
100
AcDbVisualStyle
  2
3D Hidden
 70
     6
 71
     1
 72
     2
 73
     2
 90
        0
 40
-0.6
 41
-30.0
 62
     5
 63
     7
421
 16777215
 74
     2
 91
        2
 64
     7
 65
   257
 75
     2
175
     1
 42
40.0
 92
        0
 66
   257
 43
1.0
 76
     1
 77
     6
 78
     2
 67
     7
 79
     3
170
     0
171
     0
290
     0
174
     0
 93
        1
 44
0.0
173
     0
291
     0
 45
0.0
1001
ACAD
1000
AcDbSavedByObjectVersion
1070
     0
1000
AcDbSavedByObjectVersion
1070
     0
  0
VISUALSTYLE
  5
6AA
102
{ACAD_REACTORS
330
6A3
102
}
330
6A3
100
AcDbVisualStyle
  2
3dWireframe
 70
     5
 71
     0
 72
     2
 73
     0
 90
        0
 40
-0.6
 41
-30.0
 62
     5
 63
     7
421
 16777215
 74
     1
 91
        4
 64
     7
 65
   257
 75
     1
175
     1
 42
1.0
 92
        0
 66
   257
 43
1.0
 76
     1
 77
     6
 78
     2
 67
     7
 79
     5
170
     0
171
     0
290
     0
174
     0
 93
        1
 44
0.0
173
     0
291
     0
 45
0.0
1001
ACAD
1000
AcDbSavedByObjectVersion
1070
     0
1000
AcDbSavedByObjectVersion
1070
     0
  0
VISUALSTYLE
  5
6A8
102
{ACAD_REACTORS
330
6A3
102
}
330
6A3
100
AcDbVisualStyle
  2
Basic
 70
     7
 71
     1
 72
     0
 73
     1
 90
        0
 40
-0.6
 41
-30.0
 62
     5
 63
     7
421
 16777215
 74
     0
 91
        4
 64
     7
 65
   257
 75
     1
175
     1
 42
1.0
 92
        8
 66
     7
 43
1.0
 76
     1
 77
     6
 78
     2
 67
     7
 79
     5
170
     0
171
     0
290
     0
174
     0
 93
        1
 44
0.0
173
     0
291
     1
 45
0.0
1001
ACAD
1000
AcDbSavedByObjectVersion
1070
     0
1000
AcDbSavedByObjectVersion
1070
     0
  0
VISUALSTYLE
  5
6AF
102
{ACAD_REACTORS
330
6A3
102
}
330
6A3
100
AcDbVisualStyle
  2
Brighten
 70
    12
 71
     2
 72
     2
 73
     0
 90
        0
 40
-0.6
 41
-30.0
 62
     5
 63
     7
421
 16777215
 74
     1
 91
        4
 64
     7
 65
   257
 75
     1
175
     1
 42
1.0
 92
        8
 66
     7
 43
1.0
 76
     1
 77
     6
 78
     2
 67
     7
 79
     5
170
     0
171
     0
290
     0
174
     0
 93
        1
 44
50.0
173
     0
291
     1
 45
0.0
1001
ACAD
1000
AcDbSavedByObjectVersion
1070
     0
1000
AcDbSavedByObjectVersion
1070
     0
  0
VISUALSTYLE
  5
6B3
102
{ACAD_REACTORS
330
6A3
102
}
330
6A3
100
AcDbVisualStyle
  2
ColorChange
 70
    16
 71
     2
 72
     2
 73
     3
 90
        0
 40
-0.6
 41
-30.0
 62
     5
 63
     8
421
  8421504
 74
     1
 91
        4
 64
     7
 65
   257
 75
     1
175
     1
 42
1.0
 92
        8
 66
     8
424
  8421504
 43
1.0
 76
     1
 77
     6
 78
     2
 67
     7
 79
     5
170
     0
171
     0
290
     0
174
     0
 93
        1
 44
0.0
173
     0
291
     1
 45
0.0
1001
ACAD
1000
AcDbSavedByObjectVersion
1070
     0
1000
AcDbSavedByObjectVersion
1070
     0
  0
VISUALSTYLE
  5
6AC
102
{ACAD_REACTORS
330
6A3
102
}
330
6A3
100
AcDbVisualStyle
  2
Conceptual
 70
     9
 71
     3
 72
     2
 73
     0
 90
        0
 40
-0.6
 41
-30.0
 62
     5
 63
     7
421
 16777215
 74
     2
 91
        2
 64
     7
 65
   257
 75
     1
175
     1
 42
40.0
 92
        8
 66
     7
 43
1.0
 76
     1
 77
     6
 78
     2
 67
     7
 79
     3
170
     0
171
     0
290
     0
174
     0
 93
        1
 44
0.0
173
     0
291
     0
 45
0.0
1001
ACAD
1000
AcDbSavedByObjectVersion
1070
     0
1000
AcDbSavedByObjectVersion
1070
     0
  0
VISUALSTYLE
  5
6AE
102
{ACAD_REACTORS
330
6A3
102
}
330
6A3
100
AcDbVisualStyle
  2
Dim
 70
    11
 71
     2
 72
     2
 73
     0
 90
        0
 40
-0.6
 41
-30.0
 62
     5
 63
     7
421
 16777215
 74
     1
 91
        4
 64
     7
 65
   257
 75
     1
175
     1
 42
1.0
 92
        8
 66
     7
 43
1.0
 76
     1
 77
     6
 78
     2
 67
     7
 79
     5
170
     0
171
     0
290
     0
174
     0
 93
        1
 44
-50.0
173
     0
291
     1
 45
0.0
1001
ACAD
1000
AcDbSavedByObjectVersion
1070
     0
1000
AcDbSavedByObjectVersion
1070
     0
  0
VISUALSTYLE
  5
6B2
102
{ACAD_REACTORS
330
6A3
102
}
330
6A3
100
AcDbVisualStyle
  2
Facepattern
 70
    15
 71
     2
 72
     2
 73
     0
 90
        0
 40
-0.6
 41
-30.0
 62
     5
 63
     7
421
 16777215
 74
     1
 91
        4
 64
     7
 65
   257
 75
     1
175
     1
 42
1.0
 92
        8
 66
     7
 43
1.0
 76
     1
 77
     6
 78
     2
 67
     7
 79
     5
170
     0
171
     0
290
     0
174
     0
 93
        1
 44
0.0
173
     0
291
     1
 45
0.0
1001
ACAD
1000
AcDbSavedByObjectVersion
1070
     0
1000
AcDbSavedByObjectVersion
1070
     0
  0
VISUALSTYLE
  5
6A4
102
{ACAD_REACTORS
330
6A3
102
}
330
6A3
100
AcDbVisualStyle
  2
Flat
 70
     0
 71
     2
 72
     1
 73
     1
 90
        2
 40
-0.6
 41
30.0
 62
     5
 63
     7
421
 16777215
 74
     0
 91
        4
 64
     7
 65
   257
 75
     1
175
     1
 42
1.0
 92
        8
 66
     7
 43
1.0
 76
     1
 77
     6
 78
     2
 67
     7
 79
     5
170
     0
171
     0
290
     0
174
     0
 93
       13
 44
0.0
173
     0
291
     1
 45
0.0
1001
ACAD
1000
AcDbSavedByObjectVersion
1070
     0
1000
AcDbSavedByObjectVersion
1070
     0
  0
VISUALSTYLE
  5
6A5
102
{ACAD_REACTORS
330
6A3
102
}
330
6A3
100
AcDbVisualStyle
  2
FlatWithEdges
 70
     1
 71
     2
 72
     1
 73
     1
 90
        2
 40
-0.6
 41
30.0
 62
     5
 63
     7
421
 16777215
 74
     1
 91
        4
 64
     7
 65
   257
 75
     1
175
     1
 42
1.0
 92
        0
 66
   257
 43
1.0
 76
     1
 77
     6
 78
     2
 67
     7
 79
     5
170
     0
171
     0
290
     0
174
     0
 93
       13
 44
0.0
173
     0
291
     1
 45
0.0
1001
ACAD
1000
AcDbSavedByObjectVersion
1070
     0
1000
AcDbSavedByObjectVersion
1070
     0
  0
VISUALSTYLE
  5
6A6
102
{ACAD_REACTORS
330
6A3
102
}
330
6A3
100
AcDbVisualStyle
  2
Gouraud
 70
     2
 71
     2
 72
     2
 73
     1
 90
        2
 40
-0.6
 41
30.0
 62
     5
 63
     7
421
 16777215
 74
     0
 91
        4
 64
     7
 65
   257
 75
     1
175
     1
 42
1.0
 92
        0
 66
     7
 43
1.0
 76
     1
 77
     6
 78
     2
 67
     7
 79
     5
170
     0
171
     0
290
     0
174
     0
 93
       13
 44
0.0
173
     0
291
     1
 45
0.0
1001
ACAD
1000
AcDbSavedByObjectVersion
1070
     0
1000
AcDbSavedByObjectVersion
1070
     0
  0
VISUALSTYLE
  5
6A7
102
{ACAD_REACTORS
330
6A3
102
}
330
6A3
100
AcDbVisualStyle
  2
GouraudWithEdges
 70
     3
 71
     2
 72
     2
 73
     1
 90
        2
 40
-0.6
 41
30.0
 62
     5
 63
     7
421
 16777215
 74
     1
 91
        4
 64
     7
 65
   257
 75
     1
175
     1
 42
1.0
 92
        0
 66
   257
 43
1.0
 76
     1
 77
     6
 78
     2
 67
     7
 79
     5
170
     0
171
     0
290
     0
174
     0
 93
       13
 44
0.0
173
     0
291
     1
 45
0.0
1001
ACAD
1000
AcDbSavedByObjectVersion
1070
     0
1000
AcDbSavedByObjectVersion
1070
     0
  0
VISUALSTYLE
  5
6B1
102
{ACAD_REACTORS
330
6A3
102
}
330
6A3
100
AcDbVisualStyle
  2
Linepattern
 70
    14
 71
     2
 72
     2
 73
     0
 90
        0
 40
-0.6
 41
-30.0
 62
     5
 63
     7
421
 16777215
 74
     1
 91
        4
 64
     7
 65
   257
 75
     7
175
     7
 42
1.0
 92
        8
 66
     7
 43
1.0
 76
     1
 77
     6
 78
     2
 67
     7
 79
     5
170
     0
171
     0
290
     0
174
     0
 93
        1
 44
0.0
173
     0
291
     1
 45
0.0
1001
ACAD
1000
AcDbSavedByObjectVersion
1070
     0
1000
AcDbSavedByObjectVersion
1070
     0
  0
VISUALSTYLE
  5
6AD
102
{ACAD_REACTORS
330
6A3
102
}
330
6A3
100
AcDbVisualStyle
  2
Realistic
 70
     8
 71
     2
 72
     2
 73
     0
 90
        0
 40
-0.6
 41
-30.0
 62
     5
 63
     7
421
 16777215
 74
     1
 91
        0
 64
     7
 65
   257
 75
     1
175
     1
 42
1.0
 92
        8
 66
     8
424
  7895160
 43
1.0
 76
     1
 77
     6
 78
     2
 67
     7
 79
     5
170
     0
171
     0
290
     0
174
     0
 93
       13
 44
0.0
173
     0
291
     0
 45
0.0
1001
ACAD
1000
AcDbSavedByObjectVersion
1070
     0
1000
AcDbSavedByObjectVersion
1070
     0
  0
VISUALSTYLE
  5
6B0
102
{ACAD_REACTORS
330
6A3
102
}
330
6A3
100
AcDbVisualStyle
  2
Thicken
 70
    13
 71
     2
 72
     2
 73
     0
 90
        0
 40
-0.6
 41
-30.0
 62
     5
 63
     7
421
 16777215
 74
     1
 91
        4
 64
     7
 65
   257
 75
     1
175
     1
 42
1.0
 92
       12
 66
     7
 43
1.0
 76
     1
 77
     6
 78
     2
 67
     7
 79
     5
170
     0
171
     0
290
     0
174
     0
 93
        1
 44
0.0
173
     0
291
     1
 45
0.0
1001
ACAD
1000
AcDbSavedByObjectVersion
1070
     0
1000
AcDbSavedByObjectVersion
1070
     0
  0
DICTIONARYVAR
  5
6E5
102
{ACAD_REACTORS
330
303
102
}
330
303
100
DictionaryVariables
280
     0
  1
STANDARD
  0
DICTIONARYVAR
  5
304
102
{ACAD_REACTORS
330
303
102
}
330
303
100
DictionaryVariables
280
     0
  1
1
  0
DICTIONARY
  5
2E2
102
{ACAD_REACTORS
330
2E1
102
}
330
2E1
100
AcDbDictionary
281
     1
  0
XRECORD
  5
6D4
102
{ACAD_REACTORS
330
2E1
102
}
330
2E1
100
AcDbXrecord
280
     1
 90
-1023410169
  0
XRECORD
  5
69D
102
{ACAD_REACTORS
330
69B
102
}
330
69B
100
AcDbXrecord
280
     1
  0
DICTIONARY
  5
B88
330
6A1
100
AcDbDictionary
280
     1
281
     1
  3
ACAD_XREC_ROUNDTRIP
360
B89
  0
DICTIONARY
  5
B86
330
6A0
100
AcDbDictionary
280
     1
281
     1
  3
ACAD_XREC_ROUNDTRIP
360
B87
  0
DICTIONARY
  5
B8A
330
6A2
100
AcDbDictionary
280
     1
281
     1
  3
ACAD_XREC_ROUNDTRIP
360
B8B
  0
DICTIONARY
  5
C13
330
6B5
100
AcDbDictionary
280
     1
281
     1
  3
ACAD_XREC_ROUNDTRIP
360
C14
  0
XRECORD
  5
B89
102
{ACAD_REACTORS
330
B88
102
}
330
B88
100
AcDbXrecord
280
     1
102
MATERIAL
148
0.0
149
0.0
149
0.0
 93
        0
 94
       63
282
     0
 72
     1
 77
     1
171
     1
175
     1
179
     1
273
     0
  0
XRECORD
  5
B87
102
{ACAD_REACTORS
330
B86
102
}
330
B86
100
AcDbXrecord
280
     1
102
MATERIAL
148
0.0
149
0.0
149
0.0
 93
        0
 94
       63
282
     0
 72
     1
 77
     1
171
     1
175
     1
179
     1
273
     0
  0
XRECORD
  5
B8B
102
{ACAD_REACTORS
330
B8A
102
}
330
B8A
100
AcDbXrecord
280
     1
102
MATERIAL
148
0.0
149
0.0
149
0.0
 93
        0
 94
       63
282
     0
 72
     1
 77
     1
171
     1
175
     1
179
     1
273
     0
  0
XRECORD
  5
C14
102
{ACAD_REACTORS
330
C13
102
}
330
C13
100
AcDbXrecord
280
     1
102
ACAD_ROUNDTRIP_PRE2007_TABLESTYLE
 90
      512
 91
        0
  1

 92
      512
 93
        0
  2

 94
      512
 95
        0
  3

  0
ENDSEC
  0
EOF
