  0
SECTION
  2
HEADER
  9
$ACADVER
  1
AC1018
  9
$ACADMAINTVER
 70
   104
  9
$DWGCODEPAGE
  3
ANSI_1252
  9
$LASTSAVEDBY
  1
basyouni
  9
$CUSTOMPROPERTYTAG
  1
AmdtFileType
  9
$CUSTOMPROPERTY
  1
84
  9
$INSBASE
 10
0.0
 20
0.0
 30
0.0
  9
$EXTMIN
 10
78.54483156988049
 20
79.00103888282501
 30
0.0
  9
$EXTMAX
 10
1077.365241259348
 20
414.4207159432424
 30
0.0
  9
$LIMMIN
 10
0.0
 20
0.0
  9
$LIMMAX
 10
1100.0
 20
500.0
  9
$ORTHOMODE
 70
     1
  9
$REGENMODE
 70
     1
  9
$FILLMODE
 70
     1
  9
$QTEXTMODE
 70
     0
  9
$MIRRTEXT
 70
     1
  9
$LTSCALE
 40
1.0
  9
$ATTMODE
 70
     1
  9
$TEXTSIZE
 40
3.5
  9
$TRACEWID
 40
1.0
  9
$TEXTSTYLE
  7
Stil1
  9
$CLAYER
  8
0
  9
$CELTYPE
  6
BYLAYER
  9
$CECOLOR
 62
   256
  9
$CELTSCALE
 40
10.0
  9
$DISPSILH
 70
     0
  9
$DIMSCALE
 40
1.0
  9
$DIMASZ
 40
7.0
  9
$DIMEXO
 40
0.0
  9
$DIMDLI
 40
7.0
  9
$DIMRND
 40
0.0
  9
$DIMDLE
 40
0.0
  9
$DIMEXE
 40
1.25
  9
$DIMTP
 40
0.0
  9
$DIMTM
 40
0.0
  9
$DIMTXT
 40
10.0
  9
$DIMCEN
 40
0.0
  9
$DIMTSZ
 40
0.0
  9
$DIMTOL
 70
     0
  9
$DIMLIM
 70
     0
  9
$DIMTIH
 70
     0
  9
$DIMTOH
 70
     0
  9
$DIMSE1
 70
     0
  9
$DIMSE2
 70
     0
  9
$DIMTAD
 70
     1
  9
$DIMZIN
 70
     8
  9
$DIMBLK
  1

  9
$DIMASO
 70
     1
  9
$DIMSHO
 70
     1
  9
$DIMPOST
  1

  9
$DIMAPOST
  1

  9
$DIMALT
 70
     0
  9
$DIMALTD
 70
     2
  9
$DIMALTF
 40
25.4
  9
$DIMLFAC
 40
0.5
  9
$DIMTOFL
 70
     1
  9
$DIMTVP
 40
0.0
  9
$DIMTIX
 70
     0
  9
$DIMSOXD
 70
     0
  9
$DIMSAH
 70
     0
  9
$DIMBLK1
  1

  9
$DIMBLK2
  1

  9
$DIMSTYLE
  2
ISO-25
  9
$DIMCLRD
 70
   256
  9
$DIMCLRE
 70
   256
  9
$DIMCLRT
 70
   256
  9
$DIMTFAC
 40
1.0
  9
$DIMGAP
 40
4.0
  9
$DIMJUST
 70
     0
  9
$DIMSD1
 70
     0
  9
$DIMSD2
 70
     0
  9
$DIMTOLJ
 70
     1
  9
$DIMTZIN
 70
     0
  9
$DIMALTZ
 70
     0
  9
$DIMALTTZ
 70
     0
  9
$DIMUPT
 70
     1
  9
$DIMDEC
 70
     4
  9
$DIMTDEC
 70
     4
  9
$DIMALTU
 70
     2
  9
$DIMALTTD
 70
     2
  9
$DIMTXSTY
  7
STANDARD
  9
$DIMAUNIT
 70
     0
  9
$DIMADEC
 70
     1
  9
$DIMALTRND
 40
0.0
  9
$DIMAZIN
 70
     0
  9
$DIMDSEP
 70
    46
  9
$DIMATFIT
 70
     0
  9
$DIMFRAC
 70
     0
  9
$DIMLDRBLK
  1

  9
$DIMLUNIT
 70
     2
  9
$DIMLWD
 70
    -2
  9
$DIMLWE
 70
    -2
  9
$DIMTMOVE
 70
     0
  9
$LUNITS
 70
     2
  9
$LUPREC
 70
     4
  9
$SKETCHINC
 40
1.0
  9
$FILLETRAD
 40
0.0
  9
$AUNITS
 70
     0
  9
$AUPREC
 70
     0
  9
$MENU
  1
.
  9
$ELEVATION
 40
0.0
  9
$PELEVATION
 40
0.0
  9
$THICKNESS
 40
0.0
  9
$LIMCHECK
 70
     0
  9
$CHAMFERA
 40
2.0
  9
$CHAMFERB
 40
2.0
  9
$CHAMFERC
 40
0.0
  9
$CHAMFERD
 40
0.0
  9
$SKPOLY
 70
     0
  9
$TDCREATE
 40
2450848.795139884
  9
$TDUCREATE
 40
2450848.711806551
  9
$TDUPDATE
 40
2454641.686124503
  9
$TDUUPDATE
 40
2454641.602791169
  9
$TDINDWG
 40
2.4421817130
  9
$TDUSRTIMER
 40
2.4421817130
  9
$USRTIMER
 70
     1
  9
$ANGBASE
 50
0.0
  9
$ANGDIR
 70
     0
  9
$PDMODE
 70
     0
  9
$PDSIZE
 40
0.0
  9
$PLINEWID
 40
0.5
  9
$SPLFRAME
 70
     0
  9
$SPLINETYPE
 70
     6
  9
$SPLINESEGS
 70
     8
  9
$HANDSEED
  5
47BE
  9
$SURFTAB1
 70
     6
  9
$SURFTAB2
 70
     6
  9
$SURFTYPE
 70
     6
  9
$SURFU
 70
     6
  9
$SURFV
 70
     6
  9
$UCSBASE
  2

  9
$UCSNAME
  2

  9
$UCSORG
 10
0.0
 20
0.0
 30
0.0
  9
$UCSXDIR
 10
1.0
 20
0.0
 30
0.0
  9
$UCSYDIR
 10
0.0
 20
1.0
 30
0.0
  9
$UCSORTHOREF
  2

  9
$UCSORTHOVIEW
 70
     0
  9
$UCSORGTOP
 10
0.0
 20
0.0
 30
0.0
  9
$UCSORGBOTTOM
 10
0.0
 20
0.0
 30
0.0
  9
$UCSORGLEFT
 10
0.0
 20
0.0
 30
0.0
  9
$UCSORGRIGHT
 10
0.0
 20
0.0
 30
0.0
  9
$UCSORGFRONT
 10
0.0
 20
0.0
 30
0.0
  9
$UCSORGBACK
 10
0.0
 20
0.0
 30
0.0
  9
$PUCSBASE
  2

  9
$PUCSNAME
  2

  9
$PUCSORG
 10
0.0
 20
0.0
 30
0.0
  9
$PUCSXDIR
 10
1.0
 20
0.0
 30
0.0
  9
$PUCSYDIR
 10
0.0
 20
1.0
 30
0.0
  9
$PUCSORTHOREF
  2

  9
$PUCSORTHOVIEW
 70
     0
  9
$PUCSORGTOP
 10
0.0
 20
0.0
 30
0.0
  9
$PUCSORGBOTTOM
 10
0.0
 20
0.0
 30
0.0
  9
$PUCSORGLEFT
 10
0.0
 20
0.0
 30
0.0
  9
$PUCSORGRIGHT
 10
0.0
 20
0.0
 30
0.0
  9
$PUCSORGFRONT
 10
0.0
 20
0.0
 30
0.0
  9
$PUCSORGBACK
 10
0.0
 20
0.0
 30
0.0
  9
$USERI1
 70
     0
  9
$USERI2
 70
     0
  9
$USERI3
 70
     0
  9
$USERI4
 70
     0
  9
$USERI5
 70
     0
  9
$USERR1
 40
0.0
  9
$USERR2
 40
0.0
  9
$USERR3
 40
0.0
  9
$USERR4
 40
0.0
  9
$USERR5
 40
0.0
  9
$WORLDVIEW
 70
     1
  9
$SHADEDGE
 70
     3
  9
$SHADEDIF
 70
    70
  9
$TILEMODE
 70
     1
  9
$MAXACTVP
 70
    16
  9
$PINSBASE
 10
0.0
 20
0.0
 30
0.0
  9
$PLIMCHECK
 70
     0
  9
$PEXTMIN
 10
1.000000000000000E+20
 20
1.000000000000000E+20
 30
1.000000000000000E+20
  9
$PEXTMAX
 10
-1.000000000000000E+20
 20
-1.000000000000000E+20
 30
-1.000000000000000E+20
  9
$PLIMMIN
 10
0.0
 20
0.0
  9
$PLIMMAX
 10
420.0
 20
297.0
  9
$UNITMODE
 70
     0
  9
$VISRETAIN
 70
     0
  9
$PLINEGEN
 70
     0
  9
$PSLTSCALE
 70
     0
  9
$TREEDEPTH
 70
  3020
  9
$CMLSTYLE
  2
STANDARD
  9
$CMLJUST
 70
     0
  9
$CMLSCALE
 40
1.0
  9
$PROXYGRAPHICS
 70
     1
  9
$MEASUREMENT
 70
     0
  9
$CELWEIGHT
370
    -1
  9
$ENDCAPS
280
     0
  9
$JOINSTYLE
280
     0
  9
$LWDISPLAY
290
     0
  9
$INSUNITS
 70
     0
  9
$HYPERLINKBASE
  1

  9
$STYLESHEET
  1
Zeich.ctb
  9
$XEDIT
290
     1
  9
$CEPSNTYPE
380
     0
  9
$PSTYLEMODE
290
     1
  9
$FINGERPRINTGUID
  2
{785BA218-F8F7-11D4-B795-0010B575C074}
  9
$VERSIONGUID
  2
{AB6B431D-2698-445C-A9ED-1E3E4A1E8FCE}
  9
$EXTNAMES
290
     1
  9
$PSVPSCALE
 40
0.0
  9
$OLESTARTUP
290
     0
  9
$SORTENTS
280
    96
  9
$INDEXCTL
280
     0
  9
$HIDETEXT
280
     0
  9
$XCLIPFRAME
290
     0
  9
$HALOGAP
280
     0
  9
$OBSCOLOR
 70
   257
  9
$OBSLTYPE
280
     0
  9
$INTERSECTIONDISPLAY
280
     0
  9
$INTERSECTIONCOLOR
 70
   257
  9
$DIMASSOC
280
     1
  9
$PROJECTNAME
  1

  0
ENDSEC
  0
SECTION
  2
CLASSES
  0
CLASS
  1
IDBUFFER
  2
AcDbIdBuffer
  3
ObjectDBX Classes
 90
        0
 91
        0
280
     0
281
     0
  0
CLASS
  1
DICTIONARYVAR
  2
AcDbDictionaryVar
  3
ObjectDBX Classes
 90
        0
 91
        4
280
     0
281
     0
  0
CLASS
  1
ACMESTATEMGR
  2
AcMeStateMgr
  3
AcMeServices
 90
        0
 91
        1
280
     0
281
     0
  0
CLASS
  1
ACMESCOPE
  2
AcMeScope
  3
AcMeServices
 90
        0
 91
        1
280
     0
281
     0
  0
CLASS
  1
ACMECOMMANDHISTORY
  2
AcMeCommandHistory
  3
AcMeServices
 90
        0
 91
        1
280
     0
281
     0
  0
CLASS
  1
ACRFINSADJUSTERMGR
  2
AcRfInsAdjusterMgr
  3
AcMeServices
 90
        0
 91
        1
280
     0
281
     0
  0
CLASS
  1
ACMEDRAWINGMAN
  2
AcMeDrawingMan
  3
AcMeServices
 90
        0
 91
        1
280
     0
281
     0
  0
CLASS
  1
AMATTR
  2
AcMeAttribute
  3
AcMeServices
 90
        0
 91
        0
280
     0
281
     0
  0
CLASS
  1
ACMEBOMCOLUMN
  2
AcMeBOMColumn
  3
AcMeServices
 90
        0
 91
        0
280
     0
281
     0
  0
CLASS
  1
ACMEBOMCONF
  2
AcMeBOMConf
  3
AcMeServices
 90
        0
 91
        0
280
     0
281
     0
  0
CLASS
  1
ACMEBOMTABLE
  2
AcMeBOMTable
  3
AcMeServices
 90
        0
 91
        0
280
     0
281
     0
  0
CLASS
  1
ACMEBOMENTRY
  2
AcMeBOMEntry
  3
AcMeServices
 90
        0
 91
        0
280
     0
281
     0
  0
CLASS
  1
ACMEVIEW
  2
AcMeView
  3
AcMeServices
 90
        0
 91
        0
280
     0
281
     0
  0
CLASS
  1
ACIMSYSVARMAN
  2
AcImSysVarManager
  3
AcMeServices
 90
        0
 91
        5
280
     0
281
     0
  0
CLASS
  1
ACIMINTSYSVAR
  2
AcImIntSysVar
  3
AcMeServices
 90
        0
 91
       28
280
     0
281
     0
  0
CLASS
  1
ACIMSTRSYSVAR
  2
AcImStrSysVar
  3
AcMeServices
 90
        0
 91
        5
280
     0
281
     0
  0
CLASS
  1
ACMSTANDARDJIS
  2
AcmStandardJIS
  3
"Amdt_StdImp|Product Description: AutoCAD Mechanical|Company: Autodesk"
 90
        0
 91
        1
280
     0
281
     0
  0
CLASS
  1
ACMSTANDARDANSI
  2
AcmStandardANSI
  3
"Amdt_StdImp|Product Description: AutoCAD Mechanical|Company: Autodesk"
 90
        0
 91
        1
280
     0
281
     0
  0
CLASS
  1
ACMSTANDARDBSI
  2
AcmStandardBSI
  3
"Amdt_StdImp|Product Description: AutoCAD Mechanical|Company: Autodesk"
 90
        0
 91
        1
280
     0
281
     0
  0
CLASS
  1
ACMSTANDARDDIN
  2
AcmStandardDIN
  3
"Amdt_StdImp|Product Description: AutoCAD Mechanical|Company: Autodesk"
 90
        0
 91
        1
280
     0
281
     0
  0
CLASS
  1
ACMSTANDARDISO
  2
AcmStandardISO
  3
"Amdt_StdImp|Product Description: AutoCAD Mechanical|Company: Autodesk"
 90
        0
 91
        1
280
     0
281
     0
  0
CLASS
  1
LAYER_INDEX
  2
AcDbLayerIndex
  3
ObjectDBX Classes
 90
        0
 91
        0
280
     0
281
     0
  0
CLASS
  1
ACDBDICTIONARYWDFLT
  2
AcDbDictionaryWithDefault
  3
ObjectDBX Classes
 90
        0
 91
        1
280
     0
281
     0
  0
CLASS
  1
ACME_DOCUMENT
  2
AcMeDbDoc
  3
AcMeServices
 90
        0
 91
        2
280
     0
281
     0
  0
CLASS
  1
AMGSETTINGSOBJ
  2
AmgSettingsObj
  3
"AcadM|Product Description: AutoCAD Mechanical|Company: Autodesk"
 90
        0
 91
        2
280
     0
281
     0
  0
CLASS
  1
ACIMREALSYSVAR
  2
AcImRealSysVar
  3
AcMeServices
 90
        0
 91
        3
280
     0
281
     0
  0
CLASS
  1
ACDBENTITYCACHE
  2
AcMeEntityCache
  3
AcMeServices
 90
        0
 91
        1
280
     0
281
     0
  0
CLASS
  1
GSMANAGER
  2
AcMeGSManager
  3
AcMeServices
 90
        0
 91
        1
280
     0
281
     0
  0
CLASS
  1
AMDTINTERNALREACTOR
  2
AmdtInternalReactor
  3
AcMeServices
 90
        0
 91
        2
280
     0
281
     0
  0
CLASS
  1
ACME_DATABASE
  2
AcMeDbDatabase
  3
AcMeServices
 90
        0
 91
        1
280
     0
281
     0
  0
CLASS
  1
ACMDATADICTIONARY
  2
AcmDataDictionary
  3
"AcmSymBB|Product Description: AutoCAD Mechanical|Company: Autodesk"
 90
        0
 91
        1
280
     0
281
     0
  0
CLASS
  1
ACMDATAENTRYBLOCK
  2
AcmDataEntryBlock
  3
"AcmSymBB|Product Description: AutoCAD Mechanical|Company: Autodesk"
 90
        0
 91
        1
280
     0
281
     0
  0
CLASS
  1
ACMSURFSTANDARDJIS
  2
AcmSurfTextStdJIS
  3
"Amdt_StdImp|Product Description: AutoCAD Mechanical|Company: Autodesk"
 90
        0
 91
        2
280
     0
281
     0
  0
CLASS
  1
ACMFCFSTANDARDJIS
  2
AcmFCFStdJIS
  3
"Amdt_StdImp|Product Description: AutoCAD Mechanical|Company: Autodesk"
 90
        0
 91
        2
280
     0
281
     0
  0
CLASS
  1
ACMWELDSTANDARDJIS
  2
AcmWeldingStdJIS
  3
"Amdt_StdImp|Product Description: AutoCAD Mechanical|Company: Autodesk"
 90
        0
 91
        2
280
     0
281
     0
  0
CLASS
  1
ACMIDSTANDARDJIS
  2
AcmIdStdJIS
  3
"Amdt_StdImp|Product Description: AutoCAD Mechanical|Company: Autodesk"
 90
        0
 91
        2
280
     0
281
     0
  0
CLASS
  1
ACMDATUMSTANDARDJIS
  2
AcmDatumStdJIS
  3
"Amdt_StdImp|Product Description: AutoCAD Mechanical|Company: Autodesk"
 90
        0
 91
        2
280
     0
281
     0
  0
CLASS
  1
ACMBOMSTANDARDJIS
  2
AcmBOMStdJIS
  3
"Amdt_StdImp|Product Description: AutoCAD Mechanical|Company: Autodesk"
 90
        0
 91
        2
280
     0
281
     0
  0
CLASS
  1
AMGOBJPROPCFG
  2
AmgObjPropCfg
  3
"AmgLay|Product Description: AutoCAD Mechanical|Company: Autodesk"
 90
        1
 91
        1
280
     0
281
     0
  0
CLASS
  1
ACMSURFSTANDARDANSI
  2
AcmSurfTextStdANSI
  3
"Amdt_StdImp|Product Description: AutoCAD Mechanical|Company: Autodesk"
 90
        0
 91
        2
280
     0
281
     0
  0
CLASS
  1
ACMFCFSTANDARDANSI
  2
AcmFCFStdANSI
  3
"Amdt_StdImp|Product Description: AutoCAD Mechanical|Company: Autodesk"
 90
        0
 91
        2
280
     0
281
     0
  0
CLASS
  1
ACMWELDSTANDARDANSI
  2
AcmWeldingStdANSI
  3
"Amdt_StdImp|Product Description: AutoCAD Mechanical|Company: Autodesk"
 90
        0
 91
        2
280
     0
281
     0
  0
CLASS
  1
ACMIDSTANDARDANSI
  2
AcmIdStdANSI
  3
"Amdt_StdImp|Product Description: AutoCAD Mechanical|Company: Autodesk"
 90
        0
 91
        2
280
     0
281
     0
  0
CLASS
  1
ACMDATUMSTANDARDANSI
  2
AcmDatumStdANSI
  3
"Amdt_StdImp|Product Description: AutoCAD Mechanical|Company: Autodesk"
 90
        0
 91
        2
280
     0
281
     0
  0
CLASS
  1
ACMBOMSTANDARDANSI
  2
AcmBOMStdANSI
  3
"Amdt_StdImp|Product Description: AutoCAD Mechanical|Company: Autodesk"
 90
        0
 91
        2
280
     0
281
     0
  0
CLASS
  1
ACMSURFSTANDARDBSI
  2
AcmSurfTextStdBSI
  3
"Amdt_StdImp|Product Description: AutoCAD Mechanical|Company: Autodesk"
 90
        0
 91
        2
280
     0
281
     0
  0
CLASS
  1
ACMFCFSTANDARDBSI
  2
AcmFCFStdBSI
  3
"Amdt_StdImp|Product Description: AutoCAD Mechanical|Company: Autodesk"
 90
        0
 91
        2
280
     0
281
     0
  0
CLASS
  1
ACMWELDSTANDARDBSI
  2
AcmWeldingStdBSI
  3
"Amdt_StdImp|Product Description: AutoCAD Mechanical|Company: Autodesk"
 90
        0
 91
        2
280
     0
281
     0
  0
CLASS
  1
ACMIDSTANDARDBSI
  2
AcmIdStdBSI
  3
"Amdt_StdImp|Product Description: AutoCAD Mechanical|Company: Autodesk"
 90
        0
 91
        2
280
     0
281
     0
  0
CLASS
  1
ACMDATUMSTANDARDBSI
  2
AcmDatumStdBSI
  3
"Amdt_StdImp|Product Description: AutoCAD Mechanical|Company: Autodesk"
 90
        0
 91
        2
280
     0
281
     0
  0
CLASS
  1
ACMBOMSTANDARDBSI
  2
AcmBOMStdBSI
  3
"Amdt_StdImp|Product Description: AutoCAD Mechanical|Company: Autodesk"
 90
        0
 91
        2
280
     0
281
     0
  0
CLASS
  1
AMDTEDGESTANDARDDIN
  2
AmdtEdgeStdDIN
  3
"Amdt_StdImp|Product Description: AutoCAD Mechanical|Company: Autodesk"
 90
        0
 91
        2
280
     0
281
     0
  0
CLASS
  1
ACMSURFSTANDARDDIN
  2
AcmSurfTextStdDIN
  3
"Amdt_StdImp|Product Description: AutoCAD Mechanical|Company: Autodesk"
 90
        0
 91
        2
280
     0
281
     0
  0
CLASS
  1
ACMFCFSTANDARDDIN
  2
AcmFCFStdDIN
  3
"Amdt_StdImp|Product Description: AutoCAD Mechanical|Company: Autodesk"
 90
        0
 91
        2
280
     0
281
     0
  0
CLASS
  1
ACMWELDSTANDARDDIN
  2
AcmWeldingStdDIN
  3
"Amdt_StdImp|Product Description: AutoCAD Mechanical|Company: Autodesk"
 90
        0
 91
        2
280
     0
281
     0
  0
CLASS
  1
ACMIDSTANDARDDIN
  2
AcmIdStdDIN
  3
"Amdt_StdImp|Product Description: AutoCAD Mechanical|Company: Autodesk"
 90
        0
 91
        2
280
     0
281
     0
  0
CLASS
  1
ACMDATUMSTANDARDDIN
  2
AcmDatumStdDIN
  3
"Amdt_StdImp|Product Description: AutoCAD Mechanical|Company: Autodesk"
 90
        0
 91
        2
280
     0
281
     0
  0
CLASS
  1
ACMBOMSTANDARDDIN
  2
AcmBOMStdDIN
  3
"Amdt_StdImp|Product Description: AutoCAD Mechanical|Company: Autodesk"
 90
        0
 91
        2
280
     0
281
     0
  0
CLASS
  1
AMDTEDGESTANDARDISO
  2
AmdtEdgeStdISO
  3
"Amdt_StdImp|Product Description: AutoCAD Mechanical|Company: Autodesk"
 90
        0
 91
        2
280
     0
281
     0
  0
CLASS
  1
ACMSURFSTANDARDISO
  2
AcmSurfTextStdISO
  3
"Amdt_StdImp|Product Description: AutoCAD Mechanical|Company: Autodesk"
 90
        0
 91
        2
280
     0
281
     0
  0
CLASS
  1
ACMFCFSTANDARDISO
  2
AcmFCFStdISO
  3
"Amdt_StdImp|Product Description: AutoCAD Mechanical|Company: Autodesk"
 90
        0
 91
        2
280
     0
281
     0
  0
CLASS
  1
ACMWELDSTANDARDISO
  2
AcmWeldingStdISO
  3
"Amdt_StdImp|Product Description: AutoCAD Mechanical|Company: Autodesk"
 90
        0
 91
        2
280
     0
281
     0
  0
CLASS
  1
ACMIDSTANDARDISO
  2
AcmIdStdISO
  3
"Amdt_StdImp|Product Description: AutoCAD Mechanical|Company: Autodesk"
 90
        0
 91
        2
280
     0
281
     0
  0
CLASS
  1
ACMDATUMSTANDARDISO
  2
AcmDatumStdISO
  3
"Amdt_StdImp|Product Description: AutoCAD Mechanical|Company: Autodesk"
 90
        0
 91
        2
280
     0
281
     0
  0
CLASS
  1
ACMBOMSTANDARDISO
  2
AcmBOMStdISO
  3
"Amdt_StdImp|Product Description: AutoCAD Mechanical|Company: Autodesk"
 90
        0
 91
        2
280
     0
281
     0
  0
CLASS
  1
ACAMGFILTERDAT
  2
AcAmgFilterDat
  3
"AcadM|Product Description: AutoCAD Mechanical|Company: Autodesk"
 90
        0
 91
        5
280
     0
281
     0
  0
CLASS
  1
ACMDIMBREAKPERSREACTOR
  2
AcmDimBreakPersReactor
  3
amgDimApp().moduleName()
 90
     3071
 91
        0
280
     0
281
     0
  0
CLASS
  1
AMDTNOTE
  2
AmdtNote
  3
"AcmSymBB|Product Description: AutoCAD Mechanical|Company: Autodesk"
 90
     3071
 91
        0
280
     0
281
     1
  0
CLASS
  1
TABLESTYLE
  2
AcDbTableStyle
  3
ObjectDBX Classes
 90
     4095
 91
        1
280
     0
281
     0
  0
CLASS
  1
ACGREFMASTER
  2
AcGrefMaster
  3
AcAttribServices
 90
        0
 91
        1
280
     0
281
     0
  0
CLASS
  1
AM_DRAWING_MGR
  2
AcDmDwgMgr
  3
AcMechDwgViewMgmt
 90
        0
 91
        1
280
     0
281
     0
  0
CLASS
  1
AM_DWG_DOCUMENT
  2
AcDmDwgDocument
  3
AcMechDwgViewMgmt
 90
        0
 91
        1
280
     0
281
     0
  0
CLASS
  1
AM_DWG_SHEET
  2
AcDmSheet
  3
AcMechDwgViewMgmt
 90
        0
 91
        1
280
     0
281
     0
  0
CLASS
  1
AM_VIEWDIMPARMAP
  2
AcDmViewDimParMap
  3
AcMechDwgViewMgmt
 90
        0
 91
        1
280
     0
281
     0
  0
CLASS
  1
AM_DWGMGR_NAME
  2
AcDmDwgMgrName
  3
AcMechDwgViewMgmt
 90
        0
 91
        1
280
     0
281
     0
  0
CLASS
  1
ACGREFACADMASTER
  2
AcGrefacadMaster
  3
AcGrefServices
 90
        0
 91
        1
280
     0
281
     0
  0
CLASS
  1
AMDTMENUSTATEMGR
  2
AmdtMenuStateMgr
  3
McadcomServices
 90
        0
 91
        1
280
     0
281
     0
  0
CLASS
  1
AMDTMCOMMENUSTATE
  2
AmdtMcomMenuState
  3
McadcomServices
 90
        0
 91
        1
280
     0
281
     0
  0
CLASS
  1
AMIMASTER
  2
AmiMaster
  3
AmiServices
 90
        0
 91
        1
280
     0
281
     0
  0
CLASS
  1
MAPIAMMOUDLE
  2
MApiAmModule
  3
MApiAmServices
 90
        0
 91
        1
280
     0
281
     0
  0
CLASS
  1
AMDTADMENUSTATE
  2
AmdtAdMenuState
  3
DesignerServices
 90
        0
 91
        1
280
     0
281
     0
  0
CLASS
  1
ADAPPL
  2
AcAdAppl
  3
DesignerServices
 90
        0
 91
        1
280
     0
281
     0
  0
CLASS
  1
DEPMGR
  2
AcAdDepMgr
  3
DesignerServices
 90
        0
 91
        1
280
     0
281
     0
  0
CLASS
  1
PARAMMGR
  2
AcAdParamMgr
  3
DesignerServices
 90
        0
 91
        1
280
     0
281
     0
  0
CLASS
  1
PARAMSCOPE
  2
AcAdParamScope
  3
DesignerServices
 90
        0
 91
        1
280
     0
281
     0
  0
CLASS
  1
NAMEDAPPL
  2
AcAdNamedAppl
  3
DesignerServices
 90
        0
 91
        1
280
     0
281
     0
  0
CLASS
  1
AMDTDMMENUSTATE
  2
AmdtDmMenuState
  3
AcMechDwgViewMgmt
 90
        0
 91
        1
280
     0
281
     0
  0
CLASS
  1
AMDTAMMENUSTATE
  2
AmdtAmMenuState
  3
DesignerAssemblies
 90
        0
 91
        1
280
     0
281
     0
  0
CLASS
  1
ACAMPROJECT
  2
AcAmProject
  3
DesignerAssemblies
 90
        0
 91
        1
280
     0
281
     0
  0
CLASS
  1
ACAMGRCOMPDEF
  2
AcAmGrCompDef
  3
DesignerAssemblies
 90
        0
 91
        1
280
     0
281
     0
  0
CLASS
  1
ACCMCONTEXT
  2
AcCmContext
  3
DesignerAssemblies
 90
        0
 91
        1
280
     0
281
     0
  0
CLASS
  1
ACAMCOMPDEF
  2
AcAmCompDef
  3
DesignerAssemblies
 90
        0
 91
        1
280
     0
281
     0
  0
CLASS
  1
ACAMCOMPDEFMGR
  2
AcAmCompDefMgr
  3
DesignerAssemblies
 90
        0
 91
        1
280
     0
281
     0
  0
CLASS
  1
AMCONTEXTMGR
  2
AcAmContextMgr
  3
DesignerAssemblies
 90
        0
 91
        1
280
     0
281
     0
  0
CLASS
  1
ACAMCONTEXTMODELER
  2
AcAmContextModeler
  3
DesignerAssemblies
 90
        0
 91
        1
280
     0
281
     0
  0
CLASS
  1
ACAMGTITLESTD
  2
AcAmgTitleStd
  3
"AmgTitle|Product Description: AutoCAD Mechanical|Company: Autodesk"
 90
        0
 91
        5
280
     0
281
     0
  0
CLASS
  1
ACMDETAILSTANDARDJIS
  2
AmdtDetailSymStdJIS
  3
"Amdt_StdImp|Product Description: AutoCAD Mechanical|Company: Autodesk"
 90
        0
 91
        1
280
     0
281
     0
  0
CLASS
  1
ACMSECTIONSTANDARDJIS
  2
AmdtSectionSymStdJIS
  3
"Amdt_StdImp|Product Description: AutoCAD Mechanical|Company: Autodesk"
 90
        0
 91
        1
280
     0
281
     0
  0
CLASS
  1
ACMCENTERLINESTANDARDJIS
  2
AmdtCenterLineStdJIS
  3
"Amdt_StdImp|Product Description: AutoCAD Mechanical|Company: Autodesk"
 90
        0
 91
        1
280
     0
281
     0
  0
CLASS
  1
ACMTHREADLINESTANDARDJIS
  2
AmdtThreadLineStdJIS
  3
"Amdt_StdImp|Product Description: AutoCAD Mechanical|Company: Autodesk"
 90
        0
 91
        1
280
     0
281
     0
  0
CLASS
  1
ACMNOTESTANDARDJIS
  2
AmdtNoteStdJIS
  3
"Amdt_StdImp|Product Description: AutoCAD Mechanical|Company: Autodesk"
 90
        0
 91
        1
280
     0
281
     0
  0
CLASS
  1
AMDTNOTETEMPLATEDB
  2
AmdtNoteTemplateDB
  3
AMDT_STDIMP_MODULE_NAME
 90
        0
 91
       25
280
     0
281
     0
  0
CLASS
  1
ACMDETAILSTANDARDANSI
  2
AmdtDetailSymStdANSI
  3
"Amdt_StdImp|Product Description: AutoCAD Mechanical|Company: Autodesk"
 90
        0
 91
        1
280
     0
281
     0
  0
CLASS
  1
ACMSECTIONSTANDARDANSI
  2
AmdtSectionSymStdANSI
  3
"Amdt_StdImp|Product Description: AutoCAD Mechanical|Company: Autodesk"
 90
        0
 91
        1
280
     0
281
     0
  0
CLASS
  1
ACMCENTERLINESTANDARDANSI
  2
AmdtCenterLineStdANSI
  3
"Amdt_StdImp|Product Description: AutoCAD Mechanical|Company: Autodesk"
 90
        0
 91
        1
280
     0
281
     0
  0
CLASS
  1
ACMTHREADLINESTANDARDANSI
  2
AmdtThreadLineStdANSI
  3
"Amdt_StdImp|Product Description: AutoCAD Mechanical|Company: Autodesk"
 90
        0
 91
        1
280
     0
281
     0
  0
CLASS
  1
ACMNOTESTANDARDANSI
  2
AmdtNoteStdANSI
  3
"Amdt_StdImp|Product Description: AutoCAD Mechanical|Company: Autodesk"
 90
        0
 91
        1
280
     0
281
     0
  0
CLASS
  1
ACMDETAILSTANDARDBSI
  2
AmdtDetailSymStdBSI
  3
"Amdt_StdImp|Product Description: AutoCAD Mechanical|Company: Autodesk"
 90
        0
 91
        1
280
     0
281
     0
  0
CLASS
  1
ACMSECTIONSTANDARDBSI
  2
AmdtSectionSymStdBSI
  3
"Amdt_StdImp|Product Description: AutoCAD Mechanical|Company: Autodesk"
 90
        0
 91
        1
280
     0
281
     0
  0
CLASS
  1
ACMCENTERLINESTANDARDBSI
  2
AmdtCenterLineStdBSI
  3
"Amdt_StdImp|Product Description: AutoCAD Mechanical|Company: Autodesk"
 90
        0
 91
        1
280
     0
281
     0
  0
CLASS
  1
ACMTHREADLINESTANDARDBSI
  2
AmdtThreadLineStdBSI
  3
"Amdt_StdImp|Product Description: AutoCAD Mechanical|Company: Autodesk"
 90
        0
 91
        1
280
     0
281
     0
  0
CLASS
  1
ACMNOTESTANDARDBSI
  2
AmdtNoteStdBSI
  3
"Amdt_StdImp|Product Description: AutoCAD Mechanical|Company: Autodesk"
 90
        0
 91
        1
280
     0
281
     0
  0
CLASS
  1
ACMDETAILSTANDARDDIN
  2
AmdtDetailSymStdDIN
  3
"Amdt_StdImp|Product Description: AutoCAD Mechanical|Company: Autodesk"
 90
        0
 91
        1
280
     0
281
     0
  0
CLASS
  1
ACMSECTIONSTANDARDDIN
  2
AmdtSectionSymStdDIN
  3
"Amdt_StdImp|Product Description: AutoCAD Mechanical|Company: Autodesk"
 90
        0
 91
        1
280
     0
281
     0
  0
CLASS
  1
ACMCENTERLINESTANDARDDIN
  2
AmdtCenterLineStdDIN
  3
"Amdt_StdImp|Product Description: AutoCAD Mechanical|Company: Autodesk"
 90
        0
 91
        1
280
     0
281
     0
  0
CLASS
  1
ACMTHREADLINESTANDARDDIN
  2
AmdtThreadLineStdDIN
  3
"Amdt_StdImp|Product Description: AutoCAD Mechanical|Company: Autodesk"
 90
        0
 91
        1
280
     0
281
     0
  0
CLASS
  1
ACMNOTESTANDARDDIN
  2
AmdtNoteStdDIN
  3
"Amdt_StdImp|Product Description: AutoCAD Mechanical|Company: Autodesk"
 90
        0
 91
        1
280
     0
281
     0
  0
CLASS
  1
ACMDETAILSTANDARDISO
  2
AmdtDetailSymStdISO
  3
"Amdt_StdImp|Product Description: AutoCAD Mechanical|Company: Autodesk"
 90
        0
 91
        1
280
     0
281
     0
  0
CLASS
  1
ACMSECTIONSTANDARDISO
  2
AmdtSectionSymStdISO
  3
"Amdt_StdImp|Product Description: AutoCAD Mechanical|Company: Autodesk"
 90
        0
 91
        1
280
     0
281
     0
  0
CLASS
  1
ACMCENTERLINESTANDARDISO
  2
AmdtCenterLineStdISO
  3
"Amdt_StdImp|Product Description: AutoCAD Mechanical|Company: Autodesk"
 90
        0
 91
        1
280
     0
281
     0
  0
CLASS
  1
ACMTHREADLINESTANDARDISO
  2
AmdtThreadLineStdISO
  3
"Amdt_StdImp|Product Description: AutoCAD Mechanical|Company: Autodesk"
 90
        0
 91
        1
280
     0
281
     0
  0
CLASS
  1
ACMNOTESTANDARDISO
  2
AmdtNoteStdISO
  3
"Amdt_StdImp|Product Description: AutoCAD Mechanical|Company: Autodesk"
 90
        0
 91
        1
280
     0
281
     0
  0
CLASS
  1
ACAMGLAYSTD
  2
AcAmgLayStd
  3
"AmgLay|Product Description: AutoCAD Mechanical|Company: Autodesk"
 90
        0
 91
        5
280
     0
281
     0
  0
CLASS
  1
ACAMGDIMSTD
  2
AcAmgDimStd
  3
"AmgDim|Product Description: AutoCAD Mechanical|Company: Autodesk"
 90
        0
 91
        5
280
     0
281
     0
  0
CLASS
  1
ACAMGHOLECHARTSTDANSI
  2
AcAmgHoleChartStdANSI
  3
ACMSYMBB_MODULE_NAME
 90
        0
 91
        1
280
     0
281
     0
  0
CLASS
  1
ACAMGHOLECHARTSTDBSI
  2
AcAmgHoleChartStdBSI
  3
ACMSYMBB_MODULE_NAME
 90
        0
 91
        1
280
     0
281
     0
  0
CLASS
  1
ACAMGHOLECHARTSTDDIN
  2
AcAmgHoleChartStdDIN
  3
ACMSYMBB_MODULE_NAME
 90
        0
 91
        1
280
     0
281
     0
  0
CLASS
  1
ACAMGHOLECHARTSTDISO
  2
AcAmgHoleChartStdISO
  3
ACMSYMBB_MODULE_NAME
 90
        0
 91
        1
280
     0
281
     0
  0
CLASS
  1
ACAMGHOLECHARTSTDJIS
  2
AcAmgHoleChartStdJIS
  3
ACMSYMBB_MODULE_NAME
 90
        0
 91
        1
280
     0
281
     0
  0
CLASS
  1
CATALOGSTATE
  2
AcAmCatalogState
  3
DesignerAssemblies
 90
        0
 91
        1
280
     0
281
     0
  0
CLASS
  1
ACAMGRCOMPDEFSET
  2
AcAmGrCompDefSet
  3
DesignerAssemblies
 90
        0
 91
        1
280
     0
281
     0
  0
CLASS
  1
AMDTBROWSERDBTAB
  2
AmdtBrowserDbTab
  3
McadcomServices
 90
        0
 91
        1
280
     0
281
     0
  0
CLASS
  1
CBROWSERAPPOBJECT
  2
CBrowserAppObject
  3
McadcomServices
 90
        0
 91
        3
280
     0
281
     0
  0
CLASS
  1
DM_PLACEHOLDER
  2
AcDmSelsetPlaceholder
  3
AcMechDwgViewMgmt
 90
        0
 91
        1
280
     0
281
     0
  0
CLASS
  1
VAACXREFPANELOBJECT
  2
VaAcXREFPanelObject
  3
VAAC_ADDIN
 90
        0
 91
        0
280
     0
281
     0
  0
CLASS
  1
VAACIMAGEINVENTORY
  2
VaAcImageInventory
  3
VAAC_ADDIN
 90
        0
 91
        0
280
     0
281
     0
  0
CLASS
  1
MATERIAL
  2
AcDbMaterial
  3
ObjectDBX Classes
 90
     1153
 91
        3
280
     0
281
     0
  0
CLASS
  1
VISUALSTYLE
  2
AcDbVisualStyle
  3
ObjectDBX Classes
 90
     4095
 91
       16
280
     0
281
     0
  0
CLASS
  1
ACRFATTGENMGR
  2
AcRfAttGeneralMgr
  3
AcAttribServices
 90
        0
 91
        1
280
     0
281
     0
  0
CLASS
  1
ACRFOBJATTMGR
  2
AcRfObjAttGroupMgr
  3
AcAttribServices
 90
        0
 91
        1
280
     0
281
     0
  0
CLASS
  1
ACRFMCADAPIATTHOLDER
  2
AcRfMCADAPIAttHolder
  3
AcAttribServices
 90
        0
 91
        1
280
     0
281
     0
  0
CLASS
  1
AMDTSYSATTR
  2
AmdtSystemAttribute
  3
AcAttribServices
 90
        0
 91
        1
280
     0
281
     0
  0
CLASS
  1
ACMTAPERSTANDARDJIS
  2
AcmTaperStdJIS
  3
"Amdt_StdImp|Product Description: AutoCAD Mechanical|Company: Autodesk"
 90
        0
 91
        1
280
     0
281
     0
  0
CLASS
  1
ACMTAPERSTANDARDANSI
  2
AcmTaperStdANSI
  3
"Amdt_StdImp|Product Description: AutoCAD Mechanical|Company: Autodesk"
 90
        0
 91
        1
280
     0
281
     0
  0
CLASS
  1
ACMTAPERSTANDARDBSI
  2
AcmTaperStdBSI
  3
"Amdt_StdImp|Product Description: AutoCAD Mechanical|Company: Autodesk"
 90
        0
 91
        1
280
     0
281
     0
  0
CLASS
  1
ACMTAPERSTANDARDDIN
  2
AcmTaperStdDIN
  3
"Amdt_StdImp|Product Description: AutoCAD Mechanical|Company: Autodesk"
 90
        0
 91
        1
280
     0
281
     0
  0
CLASS
  1
ACMTAPERSTANDARDISO
  2
AcmTaperStdISO
  3
"Amdt_StdImp|Product Description: AutoCAD Mechanical|Company: Autodesk"
 90
        0
 91
        1
280
     0
281
     0
  0
CLASS
  1
CAMSSTRUCTBTNSTATE
  2
StructBtnState
  3
L"DesignerAssemblies"
 90
        0
 91
        1
280
     0
281
     0
  0
ENDSEC
  0
SECTION
  2
TABLES
  0
TABLE
  2
VPORT
  5
12
330
0
100
AcDbSymbolTable
 70
     1
  0
VPORT
  5
4755
330
12
100
AcDbSymbolTableRecord
100
AcDbViewportTableRecord
  2
*Active
 70
     0
 10
0.0
 20
0.0
 11
1.0
 21
1.0
 12
550.0
 22
250.0
 13
0.0
 23
0.0
 14
10.0
 24
10.0
 15
40.0
 25
40.0
 16
0.0
 26
0.0
 36
1.0
 17
0.0
 27
0.0
 37
0.0
 40
690.8918406072106
 41
1.59214501510574
 42
50.0
 43
0.0
 44
0.0
 50
0.0
 51
0.0
 71
     0
 72
   100
 73
     1
 74
     0
 75
     0
 76
     0
 77
     0
 78
     0
281
     0
 65
     1
110
0.0
120
0.0
130
0.0
111
1.0
121
0.0
131
0.0
112
0.0
122
1.0
132
0.0
 79
     0
146
0.0
  0
ENDTAB
  0
TABLE
  2
LTYPE
  5
D
330
0
100
AcDbSymbolTable
 70
    21
  0
LTYPE
  5
E
330
D
100
AcDbSymbolTableRecord
100
AcDbLinetypeTableRecord
  2
BYBLOCK
 70
     0
  3

 72
    65
 73
     0
 40
0.0
  0
LTYPE
  5
F
330
D
100
AcDbSymbolTableRecord
100
AcDbLinetypeTableRecord
  2
BYLAYER
 70
     0
  3

 72
    65
 73
     0
 40
0.0
  0
LTYPE
  5
5
330
D
100
AcDbSymbolTableRecord
100
AcDbLinetypeTableRecord
  2
CONTINUOUS
 70
     0
  3
Solid line
 72
    65
 73
     0
 40
0.0
  0
LTYPE
  5
20
330
D
100
AcDbSymbolTableRecord
100
AcDbLinetypeTableRecord
  2
MITTE
 70
     0
  3
____ _ ____ _ ____ _ ____ _ ____ _ ____ _ ____ 
 72
    65
 73
     4
 40
2.0
 49
1.25
 74
     0
 49
-0.25
 74
     0
 49
0.25
 74
     0
 49
-0.25
 74
     0
  0
LTYPE
  5
129
330
D
100
AcDbSymbolTableRecord
100
AcDbLinetypeTableRecord
  2
STRICHLINIE
 70
     0
  3
Strichlinie __ __ __ __ __ __ __ __ __ __ __ __
 72
    65
 73
     2
 40
0.75
 49
0.5
 74
     0
 49
-0.25
 74
     0
  0
LTYPE
  5
26C
330
D
100
AcDbSymbolTableRecord
100
AcDbLinetypeTableRecord
  2
ACJISTGB
 70
     0
  3
__ . . __ . .
 72
    65
 73
     6
 40
9.0
 49
4.0
 74
     0
 49
-1.0
 74
     0
 49
1.0
 74
     0
 49
-1.0
 74
     0
 49
1.0
 74
     0
 49
-1.0
 74
     0
  0
LTYPE
  5
26D
330
D
100
AcDbSymbolTableRecord
100
AcDbLinetypeTableRecord
  2
ACJISTGL
 70
     0
  3
_ _ _ _ _
 72
    65
 73
     2
 40
3.0
 49
2.0
 74
     0
 49
-1.0
 74
     0
  0
LTYPE
  5
270
330
D
100
AcDbSymbolTableRecord
100
AcDbLinetypeTableRecord
  2
ACANSTGB
 70
     0
  3
__ . . __ . .
 72
    65
 73
     6
 40
0.35433070866
 49
0.15748031496
 74
     0
 49
-0.03937007874
 74
     0
 49
0.03937007874
 74
     0
 49
-0.03937007874
 74
     0
 49
0.03937007874
 74
     0
 49
-0.03937007874
 74
     0
  0
LTYPE
  5
271
330
D
100
AcDbSymbolTableRecord
100
AcDbLinetypeTableRecord
  2
ACANSTGL
 70
     0
  3
_ _ _ _ _
 72
    65
 73
     2
 40
0.11811023622
 49
0.07874015748
 74
     0
 49
-0.03937007874
 74
     0
  0
LTYPE
  5
274
330
D
100
AcDbSymbolTableRecord
100
AcDbLinetypeTableRecord
  2
ACBSIWELD
 70
     0
  3
_ _ _ _ _
 72
    65
 73
     2
 40
2.0
 49
2.0
 74
     0
 49
-1.0
 74
     0
  0
LTYPE
  5
275
330
D
100
AcDbSymbolTableRecord
100
AcDbLinetypeTableRecord
  2
ACBSITGB
 70
     0
  3
__ . . __ . .
 72
    65
 73
     6
 40
9.0
 49
4.0
 74
     0
 49
-1.0
 74
     0
 49
1.0
 74
     0
 49
-1.0
 74
     0
 49
1.0
 74
     0
 49
-1.0
 74
     0
  0
LTYPE
  5
276
330
D
100
AcDbSymbolTableRecord
100
AcDbLinetypeTableRecord
  2
ACBSITGL
 70
     0
  3
_ _ _ _ _
 72
    65
 73
     2
 40
3.0
 49
2.0
 74
     0
 49
-1.0
 74
     0
  0
LTYPE
  5
279
330
D
100
AcDbSymbolTableRecord
100
AcDbLinetypeTableRecord
  2
ACDINWELD
 70
     0
  3
_ _ _ _ _
 72
    65
 73
     2
 40
2.0
 49
2.0
 74
     0
 49
-1.0
 74
     0
  0
LTYPE
  5
27A
330
D
100
AcDbSymbolTableRecord
100
AcDbLinetypeTableRecord
  2
ACDINTGB
 70
     0
  3
__ . . __ . .
 72
    65
 73
     6
 40
9.0
 49
4.0
 74
     0
 49
-1.0
 74
     0
 49
1.0
 74
     0
 49
-1.0
 74
     0
 49
1.0
 74
     0
 49
-1.0
 74
     0
  0
LTYPE
  5
27B
330
D
100
AcDbSymbolTableRecord
100
AcDbLinetypeTableRecord
  2
ACDINTGL
 70
     0
  3
_ _ _ _ _
 72
    65
 73
     2
 40
3.0
 49
2.0
 74
     0
 49
-1.0
 74
     0
  0
LTYPE
  5
27E
330
D
100
AcDbSymbolTableRecord
100
AcDbLinetypeTableRecord
  2
ACISOWELD
 70
     0
  3
_ _ _ _ _
 72
    65
 73
     2
 40
2.0
 49
2.0
 74
     0
 49
-1.0
 74
     0
  0
LTYPE
  5
27F
330
D
100
AcDbSymbolTableRecord
100
AcDbLinetypeTableRecord
  2
ACISOTGB
 70
     0
  3
__ . . __ . .
 72
    65
 73
     6
 40
9.0
 49
4.0
 74
     0
 49
-1.0
 74
     0
 49
1.0
 74
     0
 49
-1.0
 74
     0
 49
1.0
 74
     0
 49
-1.0
 74
     0
  0
LTYPE
  5
280
330
D
100
AcDbSymbolTableRecord
100
AcDbLinetypeTableRecord
  2
ACISOTGL
 70
     0
  3
_ _ _ _ _
 72
    65
 73
     2
 40
3.0
 49
2.0
 74
     0
 49
-1.0
 74
     0
  0
LTYPE
  5
6ED
330
D
100
AcDbSymbolTableRecord
100
AcDbLinetypeTableRecord
  2
Amconstr
 70
     0
  3
_______________________
 72
    65
 73
     2
 40
9999.0
 49
9999.0
 74
     0
 49
0.0
 74
     0
  0
LTYPE
  5
6F3
330
D
100
AcDbSymbolTableRecord
100
AcDbLinetypeTableRecord
  2
PHANTOM2
 70
     0
  3
Phantom (.5x) ___ _ _ ___ _ _ ___ _ _ ___ _ _
 72
    65
 73
     6
 40
1.25
 49
0.625
 74
     0
 49
-0.125
 74
     0
 49
0.125
 74
     0
 49
-0.125
 74
     0
 49
0.125
 74
     0
 49
-0.125
 74
     0
  0
LTYPE
  5
6F4
330
D
100
AcDbSymbolTableRecord
100
AcDbLinetypeTableRecord
  2
Amzigzag2
 70
     0
  3
/\/-/\/-/\/-/\/-/\/-/\/
 72
    65
 73
     2
 40
0.4401
 49
0.0001
 74
     4
 75
   135
340
6F1
 46
0.0016
 50
0.0
 44
0.0
 45
0.0
 49
-0.4400000000000001
 74
     0
  0
LTYPE
  5
4670
330
D
100
AcDbSymbolTableRecord
100
AcDbLinetypeTableRecord
  2
HIDDEN
 70
     0
  3
Verdeckt
 72
    65
 73
     2
 40
0.375
 49
0.25
 74
     0
 49
-0.125
 74
     0
  0
LTYPE
  5
4671
330
D
100
AcDbSymbolTableRecord
100
AcDbLinetypeTableRecord
  2
CENTER
 70
     0
  3
Mitte ____ _ ____ _ ____ _ ____ _ ____ _ ____
 72
    65
 73
     4
 40
2.0
 49
1.25
 74
     0
 49
-0.25
 74
     0
 49
0.25
 74
     0
 49
-0.25
 74
     0
  0
ENDTAB
  0
TABLE
  2
LAYER
  5
A
330
0
100
AcDbSymbolTable
 70
     5
  0
LAYER
  5
4
330
A
100
AcDbSymbolTableRecord
100
AcDbLayerTableRecord
  2
0
 70
     0
 62
     7
  6
CONTINUOUS
370
    -3
390
6C1
  0
LAYER
  5
27
330
A
100
AcDbSymbolTableRecord
100
AcDbLayerTableRecord
  2
BEM
 70
     0
 62
     1
  6
CONTINUOUS
370
    -3
390
6C1
  0
LAYER
  5
1F
330
A
100
AcDbSymbolTableRecord
100
AcDbLayerTableRecord
  2
MITTE
 70
     0
 62
     6
  6
MITTE
370
    -3
390
6C1
  0
LAYER
  5
79
330
A
100
AcDbSymbolTableRecord
100
AcDbLayerTableRecord
  2
LINIE
 70
     0
 62
     6
  6
CONTINUOUS
370
    -3
390
6C1
  0
LAYER
  5
30
330
A
100
AcDbSymbolTableRecord
100
AcDbLayerTableRecord
  2
Defpoints
 70
     0
 62
     7
  6
CONTINUOUS
290
     0
370
    -3
390
6C1
  0
ENDTAB
  0
TABLE
  2
STYLE
  5
B
330
0
100
AcDbSymbolTable
 70
    13
  0
STYLE
  5
C
330
B
100
AcDbSymbolTableRecord
100
AcDbTextStyleTableRecord
  2
STANDARD
 70
     0
 40
0.0
 41
1.0
 50
0.0
 71
     0
 42
3.5
  3
romans.shx
  4

  0
STYLE
  5
26A
330
B
100
AcDbSymbolTableRecord
100
AcDbTextStyleTableRecord
  2
ACJISTS
 70
     0
 40
1.0
 41
1.0
 50
0.0
 71
     0
 42
3.5
  3
isocp.shx
  4
bigfont.shx
  0
STYLE
  5
26B
330
B
100
AcDbSymbolTableRecord
100
AcDbTextStyleTableRecord
  2
ACJISGDT
 70
     0
 40
0.0
 41
1.0
 50
0.0
 71
     0
 42
3.5
  3
amgdt.shx
  4

  0
STYLE
  5
26E
330
B
100
AcDbSymbolTableRecord
100
AcDbTextStyleTableRecord
  2
ACANSTSB
 70
     0
 40
1.0
 41
1.0
 50
0.0
 71
     0
 42
3.5
  3
romans.shx
  4

  0
STYLE
  5
26F
330
B
100
AcDbSymbolTableRecord
100
AcDbTextStyleTableRecord
  2
ACANSGDT
 70
     0
 40
0.0
 41
1.0
 50
0.0
 71
     0
 42
3.5
  3
amgdt.shx
  4

  0
STYLE
  5
272
330
B
100
AcDbSymbolTableRecord
100
AcDbTextStyleTableRecord
  2
ACBSITS
 70
     0
 40
1.0
 41
1.0
 50
0.0
 71
     0
 42
3.5
  3
isocp.shx
  4

  0
STYLE
  5
273
330
B
100
AcDbSymbolTableRecord
100
AcDbTextStyleTableRecord
  2
ACBSIGDT
 70
     0
 40
0.0
 41
1.0
 50
0.0
 71
     0
 42
3.5
  3
amgdt.shx
  4

  0
STYLE
  5
277
330
B
100
AcDbSymbolTableRecord
100
AcDbTextStyleTableRecord
  2
ACDINTS
 70
     0
 40
1.0
 41
1.0
 50
0.0
 71
     0
 42
3.5
  3
isocp.shx
  4

  0
STYLE
  5
278
330
B
100
AcDbSymbolTableRecord
100
AcDbTextStyleTableRecord
  2
ACDINGDT
 70
     0
 40
0.0
 41
1.0
 50
0.0
 71
     0
 42
3.5
  3
amgdt.shx
  4

  0
STYLE
  5
27C
330
B
100
AcDbSymbolTableRecord
100
AcDbTextStyleTableRecord
  2
ACISOTS
 70
     0
 40
1.0
 41
1.0
 50
0.0
 71
     0
 42
3.5
  3
isocp.shx
  4

  0
STYLE
  5
27D
330
B
100
AcDbSymbolTableRecord
100
AcDbTextStyleTableRecord
  2
ACISOGDT
 70
     0
 40
0.0
 41
1.0
 50
0.0
 71
     0
 42
3.5
  3
amgdt.shx
  4

  0
STYLE
  5
6F1
330
B
100
AcDbSymbolTableRecord
100
AcDbTextStyleTableRecord
  2

 70
     1
 40
0.0
 41
1.0
 50
0.0
 71
     0
 42
3.5
  3
ltypeshp.shx
  4

  0
STYLE
  5
752
330
B
100
AcDbSymbolTableRecord
100
AcDbTextStyleTableRecord
  2
Stil1
 70
     0
 40
0.0
 41
1.0
 50
0.0
 71
     0
 42
3.5
  3
ARIAL.TTF
  4

1001
ACAD
1000
Arial
1071
       34
  0
ENDTAB
  0
TABLE
  2
VIEW
  5
10
330
0
100
AcDbSymbolTable
 70
     0
  0
ENDTAB
  0
TABLE
  2
UCS
  5
11
330
0
100
AcDbSymbolTable
 70
     0
  0
ENDTAB
  0
TABLE
  2
APPID
  5
14
330
0
100
AcDbSymbolTable
 70
    10
  0
APPID
  5
15
330
14
100
AcDbSymbolTableRecord
100
AcDbRegAppTableRecord
  2
ACAD
 70
     0
  0
APPID
  5
242
330
14
100
AcDbSymbolTableRecord
100
AcDbRegAppTableRecord
  2
MCAD_NO_VIS
 70
     0
  0
APPID
  5
6D1
330
14
100
AcDbSymbolTableRecord
100
AcDbRegAppTableRecord
  2
ACAD_TEMP_GRAPHIC
 70
     0
  0
APPID
  5
770
330
14
100
AcDbSymbolTableRecord
100
AcDbRegAppTableRecord
  2
GENIUS_GENDTOL_13
 70
     0
  0
APPID
  5
4673
330
14
100
AcDbSymbolTableRecord
100
AcDbRegAppTableRecord
  2
AD_DRAW
 70
     0
  0
APPID
  5
4676
330
14
100
AcDbSymbolTableRecord
100
AcDbRegAppTableRecord
  2
ACATTRIBSERVICES
 70
     0
  0
APPID
  5
4694
330
14
100
AcDbSymbolTableRecord
100
AcDbRegAppTableRecord
  2
DESIGNERASSEMBLIES
 70
     0
  0
APPID
  5
4705
330
14
100
AcDbSymbolTableRecord
100
AcDbRegAppTableRecord
  2
ACADM_DIM_EDIT
 70
     0
  0
APPID
  5
4706
330
14
100
AcDbSymbolTableRecord
100
AcDbRegAppTableRecord
  2
AMDT_DM_ADJ
 70
     0
  0
APPID
  5
472B
330
14
100
AcDbSymbolTableRecord
100
AcDbRegAppTableRecord
  2
ACAD_PSEXT
 70
     0
  0
ENDTAB
  0
TABLE
  2
DIMSTYLE
  5
16
330
0
100
AcDbSymbolTable
 70
    29
100
AcDbDimStyleTable
 71
     1
340
1C
  0
DIMSTYLE
105
1C
102
{ACAD_REACTORS
330
2BAF
102
}
330
16
100
AcDbSymbolTableRecord
100
AcDbDimStyleTableRecord
  2
ISO-25
 70
     0
 41
7.0
 42
0.0
 43
7.0
 44
1.25
 73
     0
 74
     0
 77
     1
 78
     8
140
10.0
141
0.0
144
0.5
147
4.0
172
     1
176
   256
177
   256
178
   256
179
     1
288
     1
289
     0
340
C
  0
DIMSTYLE
105
46D5
330
16
100
AcDbSymbolTableRecord
100
AcDbDimStyleTableRecord
  2
AM_BSI
 70
     0
  4
mm
 41
0.1574803149606299
 42
0.05
 43
0.5
 44
0.1
 47
0.1
 48
0.1
 73
     0
 74
     0
 77
     1
 78
     7
 79
     2
140
0.12
141
0.0
146
0.71
147
0.06
172
     1
176
   256
177
   256
178
     2
274
     4
283
     0
284
     7
340
C
371
    -1
372
    -1
  0
DIMSTYLE
105
46D6
330
16
100
AcDbSymbolTableRecord
100
AcDbDimStyleTableRecord
  2
AM_BSI$3
 70
     0
  4
mm
 41
0.1574803149606299
 42
0.05
 43
0.5
 44
0.1
 47
0.1
 48
0.1
 73
     0
 77
     1
 78
     7
 79
     2
140
0.12
141
0.0
146
0.71
147
0.06
176
   256
177
   256
178
     2
274
     4
283
     0
284
     7
288
     1
289
     0
340
C
371
    -1
372
    -1
  0
DIMSTYLE
105
46D7
330
16
100
AcDbSymbolTableRecord
100
AcDbDimStyleTableRecord
  2
AM_BSI$4
 70
     0
  4
mm
 41
0.1574803149606299
 42
0.05
 43
0.5
 44
0.1
 47
0.1
 48
0.1
 73
     0
 77
     1
 78
     7
 79
     2
140
0.12
141
0.0
146
0.71
147
0.06
176
   256
177
   256
178
     2
274
     4
283
     0
284
     7
288
     1
289
     0
340
C
371
    -1
372
    -1
  0
DIMSTYLE
105
46D8
330
16
100
AcDbSymbolTableRecord
100
AcDbDimStyleTableRecord
  2
AM_BSI$6
 70
     0
  4
mm
 41
0.1574803149606299
 42
0.05
 43
0.5
 44
0.1
 47
0.1
 48
0.1
 73
     0
 74
     0
 78
     7
 79
     2
140
0.12
141
0.0
146
0.71
147
0.06
172
     1
176
   256
177
   256
178
     2
274
     4
283
     0
284
     7
340
C
371
    -1
372
    -1
  0
DIMSTYLE
105
46D9
330
16
100
AcDbSymbolTableRecord
100
AcDbDimStyleTableRecord
  2
AM_BSI$7
 70
     0
  4
mm
 41
0.1
 42
0.05
 43
0.5
 44
0.1
 47
0.1
 48
0.1
 73
     0
 74
     0
 77
     1
 78
     7
 79
     2
140
0.24
141
0.0
146
0.71
147
0.06
172
     1
176
   256
177
   256
178
     2
274
     4
283
     0
284
     7
340
C
371
    -1
372
    -1
  0
DIMSTYLE
105
46DA
330
16
100
AcDbSymbolTableRecord
100
AcDbDimStyleTableRecord
  2
AM_BSI$SF
 70
     0
  4
mm
 41
0.1574803149606299
 42
0.05
 43
0.5
 44
0.1
 47
0.1
 48
0.1
 73
     0
 74
     0
 75
     1
 76
     1
 77
     1
 78
     7
 79
     2
140
0.12
141
0.0
146
0.71
147
0.06
172
     1
176
   256
177
   256
178
     2
274
     4
283
     0
284
     7
340
C
371
    -1
372
    -1
  0
DIMSTYLE
105
46DF
330
16
100
AcDbSymbolTableRecord
100
AcDbDimStyleTableRecord
  2
AM_BSI$SH
 70
     0
  4
mm
 41
0.1574803149606299
 42
0.05
 43
0.5
 44
0.1
 47
0.1
 48
0.1
 73
     0
 74
     0
 75
     1
 76
     1
 77
     1
 78
     7
 79
     2
140
0.12
141
0.0
144
2.0
146
0.71
147
0.06
172
     1
173
     1
176
   256
177
   256
178
     2
274
     4
283
     0
284
     7
340
C
343
46DB
371
    -1
372
    -1
  0
DIMSTYLE
105
46E2
330
16
100
AcDbSymbolTableRecord
100
AcDbDimStyleTableRecord
  2
AM_DIN
 70
     0
  4
mm
 41
0.1
 42
0.05
 43
0.5
 44
0.1
 47
0.1
 48
0.1
 73
     0
 74
     0
 77
     1
 78
     7
 79
     2
140
0.12
141
0.0
146
0.71
147
0.06
172
     1
176
   256
177
   256
178
     2
274
     4
283
     0
284
     7
340
C
371
    -1
372
    -1
  0
DIMSTYLE
105
46E3
330
16
100
AcDbSymbolTableRecord
100
AcDbDimStyleTableRecord
  2
AM_DIN$3
 70
     0
  4
mm
 41
0.1
 42
0.05
 43
0.5
 44
0.1
 47
0.1
 48
0.1
 73
     0
 77
     1
 78
     7
 79
     2
140
0.12
141
0.0
146
0.71
147
0.06
176
   256
177
   256
178
     2
274
     4
283
     0
284
     7
288
     1
289
     0
340
C
371
    -1
372
    -1
  0
DIMSTYLE
105
46E4
330
16
100
AcDbSymbolTableRecord
100
AcDbDimStyleTableRecord
  2
AM_DIN$4
 70
     0
  4
mm
 41
0.1
 42
0.05
 43
0.5
 44
0.1
 47
0.1
 48
0.1
 73
     0
 77
     1
 78
     7
 79
     2
140
0.12
141
0.0
146
0.71
147
0.06
176
   256
177
   256
178
     2
274
     4
283
     0
284
     7
288
     1
289
     0
340
C
371
    -1
372
    -1
  0
DIMSTYLE
105
46E5
330
16
100
AcDbSymbolTableRecord
100
AcDbDimStyleTableRecord
  2
AM_DIN$6
 70
     0
  4
mm
 41
0.1
 42
0.05
 43
0.5
 44
0.1
 47
0.1
 48
0.1
 73
     0
 74
     0
 78
     7
 79
     2
140
0.12
141
0.0
146
0.71
147
0.06
172
     1
176
   256
177
   256
178
     2
274
     4
283
     0
284
     7
340
C
371
    -1
372
    -1
  0
DIMSTYLE
105
46E6
330
16
100
AcDbSymbolTableRecord
100
AcDbDimStyleTableRecord
  2
AM_DIN$7
 70
     0
  4
mm
 41
0.1
 42
0.05
 43
0.5
 44
0.1
 47
0.1
 48
0.1
 73
     0
 74
     0
 77
     1
 78
     7
 79
     2
140
0.24
141
0.0
146
0.71
147
0.06
172
     1
176
   256
177
   256
178
     2
274
     4
283
     0
284
     7
340
C
371
    -1
372
    -1
  0
DIMSTYLE
105
46E7
330
16
100
AcDbSymbolTableRecord
100
AcDbDimStyleTableRecord
  2
AM_DIN$SF
 70
     0
  4
mm
 41
0.1
 42
0.05
 43
0.5
 44
0.1
 47
0.1
 48
0.1
 73
     0
 74
     0
 75
     1
 76
     1
 77
     1
 78
     7
 79
     2
140
0.12
141
0.0
146
0.71
147
0.06
172
     1
176
   256
177
   256
178
     2
274
     4
283
     0
284
     7
340
C
371
    -1
372
    -1
  0
DIMSTYLE
105
46E8
330
16
100
AcDbSymbolTableRecord
100
AcDbDimStyleTableRecord
  2
AM_DIN$SH
 70
     0
  4
mm
 41
0.1
 42
0.05
 43
0.5
 44
0.1
 47
0.1
 48
0.1
 73
     0
 74
     0
 75
     1
 76
     1
 77
     1
 78
     7
 79
     2
140
0.12
141
0.0
144
2.0
146
0.71
147
0.06
172
     1
173
     1
176
   256
177
   256
178
     2
274
     4
283
     0
284
     7
340
C
343
46DB
371
    -1
372
    -1
  0
DIMSTYLE
105
46EB
330
16
100
AcDbSymbolTableRecord
100
AcDbDimStyleTableRecord
  2
AM_ISO
 70
     0
  4
mm
 41
0.1
 42
0.05
 43
0.5
 44
0.1
 47
0.1
 48
0.1
 73
     0
 74
     0
 77
     1
 78
     7
 79
     2
140
0.12
141
0.0
146
0.71
147
0.06
172
     1
176
   256
177
   256
178
     2
274
     4
283
     0
284
     7
340
C
371
    -1
372
    -1
  0
DIMSTYLE
105
46EC
330
16
100
AcDbSymbolTableRecord
100
AcDbDimStyleTableRecord
  2
AM_ISO$3
 70
     0
  4
mm
 41
0.1
 42
0.05
 43
0.5
 44
0.1
 47
0.1
 48
0.1
 73
     0
 77
     1
 78
     7
 79
     2
140
0.12
141
0.0
146
0.71
147
0.06
176
   256
177
   256
178
     2
274
     4
283
     0
284
     7
288
     1
289
     0
340
C
371
    -1
372
    -1
  0
DIMSTYLE
105
46ED
330
16
100
AcDbSymbolTableRecord
100
AcDbDimStyleTableRecord
  2
AM_ISO$4
 70
     0
  4
mm
 41
0.1
 42
0.05
 43
0.5
 44
0.1
 47
0.1
 48
0.1
 73
     0
 77
     1
 78
     7
 79
     2
140
0.12
141
0.0
146
0.71
147
0.06
176
   256
177
   256
178
     2
274
     4
283
     0
284
     7
288
     1
289
     0
340
C
371
    -1
372
    -1
  0
DIMSTYLE
105
46EE
330
16
100
AcDbSymbolTableRecord
100
AcDbDimStyleTableRecord
  2
AM_ISO$6
 70
     0
  4
mm
 41
0.1
 42
0.05
 43
0.5
 44
0.1
 47
0.1
 48
0.1
 73
     0
 74
     0
 78
     7
 79
     2
140
0.12
141
0.0
146
0.71
147
0.06
172
     1
176
   256
177
   256
178
     2
274
     4
283
     0
284
     7
340
C
371
    -1
372
    -1
  0
DIMSTYLE
105
46EF
330
16
100
AcDbSymbolTableRecord
100
AcDbDimStyleTableRecord
  2
AM_ISO$7
 70
     0
  4
mm
 41
0.1
 42
0.05
 43
0.5
 44
0.1
 47
0.1
 48
0.1
 73
     0
 74
     0
 77
     1
 78
     7
 79
     2
140
0.24
141
0.0
146
0.71
147
0.06
172
     1
176
   256
177
   256
178
     2
274
     4
283
     0
284
     7
340
C
371
    -1
372
    -1
  0
DIMSTYLE
105
46F0
330
16
100
AcDbSymbolTableRecord
100
AcDbDimStyleTableRecord
  2
AM_ISO$SF
 70
     0
  4
mm
 41
0.1
 42
0.05
 43
0.5
 44
0.1
 47
0.1
 48
0.1
 73
     0
 74
     0
 75
     1
 76
     1
 77
     1
 78
     7
 79
     2
140
0.12
141
0.0
146
0.71
147
0.06
172
     1
176
   256
177
   256
178
     2
274
     4
283
     0
284
     7
340
C
371
    -1
372
    -1
  0
DIMSTYLE
105
46F1
330
16
100
AcDbSymbolTableRecord
100
AcDbDimStyleTableRecord
  2
AM_ISO$SH
 70
     0
  4
mm
 41
0.1
 42
0.05
 43
0.5
 44
0.1
 47
0.1
 48
0.1
 73
     0
 74
     0
 75
     1
 76
     1
 77
     1
 78
     7
 79
     2
140
0.12
141
0.0
144
2.0
146
0.71
147
0.06
172
     1
173
     1
176
   256
177
   256
178
     2
274
     4
283
     0
284
     7
340
C
343
46DB
371
    -1
372
    -1
  0
DIMSTYLE
105
46F4
330
16
100
AcDbSymbolTableRecord
100
AcDbDimStyleTableRecord
  2
AM_JIS
 70
     0
  4
mm
 41
0.1
 42
0.05
 43
0.5
 44
0.1
 47
0.1
 48
0.1
 73
     0
 74
     0
 77
     3
 78
     7
 79
     2
140
0.12
141
0.0
146
0.71
147
0.06
172
     1
176
   256
177
   256
178
     2
274
     4
283
     0
284
     7
340
C
341
46F5
342
46F5
343
46F5
344
46F5
371
    -1
372
    -1
  0
DIMSTYLE
105
46FB
330
16
100
AcDbSymbolTableRecord
100
AcDbDimStyleTableRecord
  2
AM_JIS$3
 70
     0
  4
mm
 41
0.1
 42
0.05
 43
0.5
 44
0.1
 47
0.1
 48
0.1
 73
     0
 77
     3
 78
     7
 79
     2
140
0.12
141
0.0
146
0.71
147
0.06
176
   256
177
   256
178
     2
274
     4
283
     0
284
     7
288
     1
289
     0
340
C
341
46F5
342
46F5
343
46F5
344
46F5
371
    -1
372
    -1
  0
DIMSTYLE
105
46FC
330
16
100
AcDbSymbolTableRecord
100
AcDbDimStyleTableRecord
  2
AM_JIS$4
 70
     0
  4
mm
 41
0.1
 42
0.05
 43
0.5
 44
0.1
 47
0.1
 48
0.1
 73
     0
 77
     3
 78
     7
 79
     2
140
0.12
141
0.0
146
0.71
147
0.06
176
   256
177
   256
178
     2
274
     4
283
     0
284
     7
288
     1
289
     0
340
C
341
46F5
342
46F5
343
46F5
344
46F5
371
    -1
372
    -1
  0
DIMSTYLE
105
46FD
330
16
100
AcDbSymbolTableRecord
100
AcDbDimStyleTableRecord
  2
AM_JIS$6
 70
     0
  4
mm
 41
0.1
 42
0.05
 43
0.5
 44
0.1
 47
0.1
 48
0.1
 73
     0
 74
     0
 78
     7
 79
     2
140
0.12
141
0.0
146
0.71
147
0.06
172
     1
176
   256
177
   256
178
     2
274
     4
283
     0
284
     7
340
C
341
46F5
342
46F5
343
46F5
344
46F5
371
    -1
372
    -1
  0
DIMSTYLE
105
46FE
330
16
100
AcDbSymbolTableRecord
100
AcDbDimStyleTableRecord
  2
AM_JIS$7
 70
     0
  4
mm
 41
0.1
 42
0.05
 43
0.5
 44
0.1
 47
0.1
 48
0.1
 73
     0
 74
     0
 77
     3
 78
     7
 79
     2
140
0.24
141
0.0
146
0.71
147
0.06
172
     1
176
   256
177
   256
178
     2
274
     4
283
     0
284
     7
340
C
341
46F5
342
46F5
343
46F5
344
46F5
371
    -1
372
    -1
  0
DIMSTYLE
105
46FF
330
16
100
AcDbSymbolTableRecord
100
AcDbDimStyleTableRecord
  2
AM_JIS$SF
 70
     0
  4
mm
 41
0.1
 42
0.05
 43
0.5
 44
0.1
 47
0.1
 48
0.1
 73
     0
 74
     0
 75
     1
 76
     1
 77
     3
 78
     7
 79
     2
140
0.12
141
0.0
146
0.71
147
0.06
172
     1
176
   256
177
   256
178
     2
274
     4
283
     0
284
     7
340
C
341
46F5
342
46F5
343
46F5
344
46F5
371
    -1
372
    -1
  0
DIMSTYLE
105
4700
330
16
100
AcDbSymbolTableRecord
100
AcDbDimStyleTableRecord
  2
AM_JIS$SH
 70
     0
  4
mm
 41
0.1
 42
0.05
 43
0.5
 44
0.1
 47
0.1
 48
0.1
 73
     0
 74
     0
 75
     1
 76
     1
 77
     3
 78
     7
 79
     2
140
0.12
141
0.0
144
2.0
146
0.71
147
0.06
172
     1
173
     1
176
   256
177
   256
178
     2
274
     4
283
     0
284
     7
340
C
341
46F5
342
46F5
343
46DB
344
46F5
371
    -1
372
    -1
  0
ENDTAB
  0
TABLE
  2
BLOCK_RECORD
  5
1
330
0
100
AcDbSymbolTable
 70
    20
  0
BLOCK_RECORD
  5
2
102
{ACAD_XDICTIONARY
360
28B
102
}
330
1
100
AcDbSymbolTableRecord
100
AcDbBlockTableRecord
  2
*MODEL_SPACE
340
6C4
  0
BLOCK_RECORD
  5
7
330
1
100
AcDbSymbolTableRecord
100
AcDbBlockTableRecord
  2
*PAPER_SPACE
340
6C5
  0
BLOCK_RECORD
  5
2C96
330
1
100
AcDbSymbolTableRecord
100
AcDbBlockTableRecord
  2
*D0
340
0
  0
BLOCK_RECORD
  5
2CA4
330
1
100
AcDbSymbolTableRecord
100
AcDbBlockTableRecord
  2
*D1
340
0
  0
BLOCK_RECORD
  5
2D0C
330
1
100
AcDbSymbolTableRecord
100
AcDbBlockTableRecord
  2
*D2
340
0
  0
BLOCK_RECORD
  5
2D1A
330
1
100
AcDbSymbolTableRecord
100
AcDbBlockTableRecord
  2
*D3
340
0
  0
BLOCK_RECORD
  5
2D26
330
1
100
AcDbSymbolTableRecord
100
AcDbBlockTableRecord
  2
*D4
340
0
  0
BLOCK_RECORD
  5
2D34
330
1
100
AcDbSymbolTableRecord
100
AcDbBlockTableRecord
  2
*D5
340
0
  0
BLOCK_RECORD
  5
2D42
330
1
100
AcDbSymbolTableRecord
100
AcDbBlockTableRecord
  2
*D6
340
0
  0
BLOCK_RECORD
  5
2D50
330
1
100
AcDbSymbolTableRecord
100
AcDbBlockTableRecord
  2
*D7
340
0
  0
BLOCK_RECORD
  5
2D5E
330
1
100
AcDbSymbolTableRecord
100
AcDbBlockTableRecord
  2
*D8
340
0
  0
BLOCK_RECORD
  5
2D69
330
1
100
AcDbSymbolTableRecord
100
AcDbBlockTableRecord
  2
*D9
340
0
  0
BLOCK_RECORD
  5
2D77
330
1
100
AcDbSymbolTableRecord
100
AcDbBlockTableRecord
  2
*D10
340
0
  0
BLOCK_RECORD
  5
2DA1
330
1
100
AcDbSymbolTableRecord
100
AcDbBlockTableRecord
  2
*D11
340
0
  0
BLOCK_RECORD
  5
2DAA
330
1
100
AcDbSymbolTableRecord
100
AcDbBlockTableRecord
  2
*D12
340
0
  0
BLOCK_RECORD
  5
2DB6
330
1
100
AcDbSymbolTableRecord
100
AcDbBlockTableRecord
  2
*D13
340
0
  0
BLOCK_RECORD
  5
2DC2
330
1
100
AcDbSymbolTableRecord
100
AcDbBlockTableRecord
  2
*D14
340
0
  0
BLOCK_RECORD
  5
31AA
330
1
100
AcDbSymbolTableRecord
100
AcDbBlockTableRecord
  2
*D15
340
0
  0
BLOCK_RECORD
  5
31B8
330
1
100
AcDbSymbolTableRecord
100
AcDbBlockTableRecord
  2
*D16
340
0
  0
BLOCK_RECORD
  5
46DB
330
1
100
AcDbSymbolTableRecord
100
AcDbBlockTableRecord
  2
GENAXEH
340
0
  0
BLOCK_RECORD
  5
46F5
330
1
100
AcDbSymbolTableRecord
100
AcDbBlockTableRecord
  2
_Open30
340
0
  0
ENDTAB
  0
ENDSEC
  0
SECTION
  2
BLOCKS
  0
BLOCK
  5
3
330
2
100
AcDbEntity
  8
0
100
AcDbBlockBegin
  2
*MODEL_SPACE
 70
     0
 10
0.0
 20
0.0
 30
0.0
  3
*MODEL_SPACE
  1

  0
ENDBLK
  5
6
330
2
100
AcDbEntity
  8
0
100
AcDbBlockEnd
  0
BLOCK
  5
8
330
7
100
AcDbEntity
 67
     1
  8
0
100
AcDbBlockBegin
  2
*PAPER_SPACE
 70
     0
 10
0.0
 20
0.0
 30
0.0
  3
*PAPER_SPACE
  1

  0
ENDBLK
  5
9
330
7
100
AcDbEntity
 67
     1
  8
0
100
AcDbBlockEnd
  0
BLOCK
  5
2CA2
330
2C96
100
AcDbEntity
  8
0
 48
10.0
100
AcDbBlockBegin
  2
*D0
 70
     1
 10
0.0
 20
0.0
 30
0.0
  3
*D0
  1

  0
LINE
  5
45B5
330
2C96
100
AcDbEntity
  8
BEM
 48
10.0
370
    -2
100
AcDbLine
 10
767.7029971286138
 20
224.001922311967
 30
0.0
 11
767.7029971286138
 21
138.4306845984134
 31
0.0
  0
LINE
  5
45B6
330
2C96
100
AcDbEntity
  8
BEM
 48
10.0
370
    -2
100
AcDbLine
 10
722.1029971286139
 20
181.883724284444
 30
0.0
 11
722.1029971286139
 21
138.4306845984134
 31
0.0
  0
LINE
  5
45B7
330
2C96
100
AcDbEntity
  8
BEM
 48
10.0
370
    -2
100
AcDbLine
 10
774.7029971286139
 20
139.6806845984134
 30
0.0
 11
781.7029971286139
 21
139.6806845984134
 31
0.0
  0
LINE
  5
45B8
330
2C96
100
AcDbEntity
  8
BEM
 48
10.0
370
    -2
100
AcDbLine
 10
715.1029971286138
 20
139.6806845984134
 30
0.0
 11
708.1029971286138
 21
139.6806845984134
 31
0.0
  0
LINE
  5
45B9
330
2C96
100
AcDbEntity
  8
BEM
 48
10.0
370
    -2
100
AcDbLine
 10
767.7029971286138
 20
139.6806845984134
 30
0.0
 11
722.1029971286139
 21
139.6806845984134
 31
0.0
  0
SOLID
  5
45BA
330
2C96
100
AcDbEntity
  8
BEM
 48
10.0
100
AcDbTrace
 10
774.7029971286139
 20
140.8473512650801
 30
0.0
 11
774.7029971286139
 21
138.5140179317468
 31
0.0
 12
767.7029971286138
 22
139.6806845984134
 32
0.0
 13
767.7029971286138
 23
139.6806845984134
 33
0.0
  0
SOLID
  5
45BB
330
2C96
100
AcDbEntity
  8
BEM
 48
10.0
100
AcDbTrace
 10
715.1029971286138
 20
140.8473512650801
 30
0.0
 11
715.1029971286138
 21
138.5140179317468
 31
0.0
 12
722.1029971286139
 22
139.6806845984134
 32
0.0
 13
722.1029971286139
 23
139.6806845984134
 33
0.0
  0
MTEXT
  5
45BC
330
2C96
100
AcDbEntity
  8
BEM
 48
10.0
100
AcDbMText
 10
746.1883224465682
 20
148.6806845984134
 30
0.0
 40
10.0
 41
0.0
 71
     5
 72
     1
  1
\A1;22.8
 73
     1
 44
1.0
  0
POINT
  5
45BD
330
2C96
100
AcDbEntity
  8
Defpoints
 62
     0
 48
10.0
100
AcDbPoint
 10
767.7029971286138
 20
224.001922311967
 30
0.0
  0
POINT
  5
45BE
330
2C96
100
AcDbEntity
  8
Defpoints
 62
     0
 48
10.0
100
AcDbPoint
 10
722.1029971286139
 20
181.883724284444
 30
0.0
  0
POINT
  5
45BF
330
2C96
100
AcDbEntity
  8
Defpoints
 62
     0
 48
10.0
100
AcDbPoint
 10
722.1029971286139
 20
139.6806845984134
 30
0.0
  0
ENDBLK
  5
2CA3
330
2C96
100
AcDbEntity
  8
0
 48
10.0
100
AcDbBlockEnd
  0
BLOCK
  5
2CAE
330
2CA4
100
AcDbEntity
  8
0
 48
10.0
100
AcDbBlockBegin
  2
*D1
 70
     1
 10
0.0
 20
0.0
 30
0.0
  3
*D1
  1

  0
LINE
  5
45F4
330
2CA4
100
AcDbEntity
  8
BEM
 48
10.0
370
    -2
100
AcDbLine
 10
767.7029971286138
 20
351.0450068264968
 30
0.0
 11
767.7029971286138
 21
401.6707159432423
 31
0.0
  0
LINE
  5
45F5
330
2CA4
100
AcDbEntity
  8
BEM
 48
10.0
370
    -2
100
AcDbLine
 10
401.5029971286139
 20
354.5425081374828
 30
0.0
 11
401.5029971286139
 21
401.6707159432423
 31
0.0
  0
LINE
  5
45F6
330
2CA4
100
AcDbEntity
  8
BEM
 48
10.0
370
    -2
100
AcDbLine
 10
760.7029971286139
 20
400.4207159432423
 30
0.0
 11
408.5029971286139
 21
400.4207159432423
 31
0.0
  0
SOLID
  5
45F7
330
2CA4
100
AcDbEntity
  8
BEM
 48
10.0
100
AcDbTrace
 10
760.7029971286139
 20
401.587382609909
 30
0.0
 11
760.7029971286139
 21
399.2540492765757
 31
0.0
 12
767.7029971286138
 22
400.4207159432423
 32
0.0
 13
767.7029971286138
 23
400.4207159432423
 33
0.0
  0
SOLID
  5
45F8
330
2CA4
100
AcDbEntity
  8
BEM
 48
10.0
100
AcDbTrace
 10
408.5029971286139
 20
401.587382609909
 30
0.0
 11
408.5029971286139
 21
399.2540492765757
 31
0.0
 12
401.5029971286139
 22
400.4207159432423
 32
0.0
 13
401.5029971286139
 23
400.4207159432423
 33
0.0
  0
MTEXT
  5
45F9
330
2CA4
100
AcDbEntity
  8
BEM
 48
10.0
100
AcDbMText
 10
584.6029971286139
 20
409.4207159432423
 30
0.0
 40
10.0
 41
0.0
 71
     5
 72
     1
  1
\A1;183.1
 73
     1
 44
1.0
  0
POINT
  5
45FA
330
2CA4
100
AcDbEntity
  8
Defpoints
 62
     0
 48
10.0
100
AcDbPoint
 10
767.7029971286138
 20
351.0450068264968
 30
0.0
  0
POINT
  5
45FB
330
2CA4
100
AcDbEntity
  8
Defpoints
 62
     0
 48
10.0
100
AcDbPoint
 10
401.5029971286139
 20
354.5425081374828
 30
0.0
  0
POINT
  5
45FC
330
2CA4
100
AcDbEntity
  8
Defpoints
 62
     0
 48
10.0
100
AcDbPoint
 10
401.5029971286139
 20
400.4207159432423
 30
0.0
  0
ENDBLK
  5
2CAF
330
2CA4
100
AcDbEntity
  8
0
 48
10.0
100
AcDbBlockEnd
  0
BLOCK
  5
2D18
330
2D0C
100
AcDbEntity
  8
0
 48
10.0
100
AcDbBlockBegin
  2
*D2
 70
     1
 10
0.0
 20
0.0
 30
0.0
  3
*D2
  1

  0
LINE
  5
458C
330
2D0C
100
AcDbEntity
  8
BEM
 48
10.0
370
    -2
100
AcDbLine
 10
401.5029971286139
 20
400.4207159432423
 30
0.0
 11
401.5029971286139
 21
401.6707159432423
 31
0.0
  0
LINE
  5
458D
330
2D0C
100
AcDbEntity
  8
BEM
 48
10.0
370
    -2
100
AcDbLine
 10
361.502997128614
 20
340.309281261043
 30
0.0
 11
361.502997128614
 21
401.6707159432423
 31
0.0
  0
LINE
  5
458E
330
2D0C
100
AcDbEntity
  8
BEM
 48
10.0
370
    -2
100
AcDbLine
 10
408.5029971286139
 20
400.4207159432423
 30
0.0
 11
415.5029971286139
 21
400.4207159432423
 31
0.0
  0
LINE
  5
458F
330
2D0C
100
AcDbEntity
  8
BEM
 48
10.0
370
    -2
100
AcDbLine
 10
354.502997128614
 20
400.4207159432423
 30
0.0
 11
347.502997128614
 21
400.4207159432423
 31
0.0
  0
LINE
  5
4590
330
2D0C
100
AcDbEntity
  8
BEM
 48
10.0
370
    -2
100
AcDbLine
 10
401.5029971286139
 20
400.4207159432423
 30
0.0
 11
361.502997128614
 21
400.4207159432423
 31
0.0
  0
SOLID
  5
4591
330
2D0C
100
AcDbEntity
  8
BEM
 48
10.0
100
AcDbTrace
 10
408.5029971286139
 20
401.587382609909
 30
0.0
 11
408.5029971286139
 21
399.2540492765757
 31
0.0
 12
401.5029971286139
 22
400.4207159432423
 32
0.0
 13
401.5029971286139
 23
400.4207159432423
 33
0.0
  0
SOLID
  5
4592
330
2D0C
100
AcDbEntity
  8
BEM
 48
10.0
100
AcDbTrace
 10
354.502997128614
 20
401.587382609909
 30
0.0
 11
354.502997128614
 21
399.2540492765757
 31
0.0
 12
361.502997128614
 22
400.4207159432423
 32
0.0
 13
361.502997128614
 23
400.4207159432423
 33
0.0
  0
MTEXT
  5
4593
330
2D0C
100
AcDbEntity
  8
BEM
 48
10.0
100
AcDbMText
 10
382.5764789285183
 20
409.4207159432423
 30
0.0
 40
10.0
 41
0.0
 71
     5
 72
     1
  1
\A1;20
 73
     1
 44
1.0
  0
POINT
  5
4594
330
2D0C
100
AcDbEntity
  8
Defpoints
 62
     0
 48
10.0
100
AcDbPoint
 10
401.5029971286139
 20
400.4207159432423
 30
0.0
  0
POINT
  5
4595
330
2D0C
100
AcDbEntity
  8
Defpoints
 62
     0
 48
10.0
100
AcDbPoint
 10
361.502997128614
 20
340.309281261043
 30
0.0
  0
POINT
  5
4596
330
2D0C
100
AcDbEntity
  8
Defpoints
 62
     0
 48
10.0
100
AcDbPoint
 10
361.502997128614
 20
400.4207159432423
 30
0.0
  0
ENDBLK
  5
2D19
330
2D0C
100
AcDbEntity
  8
0
 48
10.0
100
AcDbBlockEnd
  0
BLOCK
  5
2D24
330
2D1A
100
AcDbEntity
  8
0
 48
10.0
100
AcDbBlockBegin
  2
*D3
 70
     1
 10
0.0
 20
0.0
 30
0.0
  3
*D3
  1

  0
LINE
  5
4583
330
2D1A
100
AcDbEntity
  8
BEM
 48
10.0
370
    -2
100
AcDbLine
 10
402.5029971286139
 20
283.0019223119671
 30
0.0
 11
291.9559784464468
 21
283.0019223119671
 31
0.0
  0
LINE
  5
4584
330
2D1A
100
AcDbEntity
  8
BEM
 48
10.0
370
    -2
100
AcDbLine
 10
402.5029971286139
 20
223.0019223119671
 30
0.0
 11
291.9559784464468
 21
223.0019223119671
 31
0.0
  0
LINE
  5
4585
330
2D1A
100
AcDbEntity
  8
BEM
 48
10.0
370
    -2
100
AcDbLine
 10
293.2059784464468
 20
276.0019223119671
 30
0.0
 11
293.2059784464468
 21
230.0019223119671
 31
0.0
  0
SOLID
  5
4586
330
2D1A
100
AcDbEntity
  8
BEM
 48
10.0
100
AcDbTrace
 10
292.0393117797801
 20
276.0019223119671
 30
0.0
 11
294.3726451131135
 21
276.0019223119671
 31
0.0
 12
293.2059784464468
 22
283.0019223119671
 32
0.0
 13
293.2059784464468
 23
283.0019223119671
 33
0.0
  0
SOLID
  5
4587
330
2D1A
100
AcDbEntity
  8
BEM
 48
10.0
100
AcDbTrace
 10
292.0393117797801
 20
230.0019223119671
 30
0.0
 11
294.3726451131135
 21
230.0019223119671
 31
0.0
 12
293.2059784464468
 22
223.0019223119671
 32
0.0
 13
293.2059784464468
 23
223.0019223119671
 33
0.0
  0
MTEXT
  5
4588
330
2D1A
100
AcDbEntity
  8
BEM
 48
10.0
100
AcDbMText
 10
284.2059784464467
 20
253.0019223119671
 30
0.0
 40
10.0
 41
0.0
 71
     5
 72
     1
  1
\A1;%%c30
 11
0.0000000000000001
 21
1.0
 31
0.0
 73
     1
 44
1.0
  0
POINT
  5
4589
330
2D1A
100
AcDbEntity
  8
Defpoints
 62
     0
 48
10.0
100
AcDbPoint
 10
402.5029971286139
 20
283.0019223119671
 30
0.0
  0
POINT
  5
458A
330
2D1A
100
AcDbEntity
  8
Defpoints
 62
     0
 48
10.0
100
AcDbPoint
 10
402.5029971286139
 20
223.0019223119671
 30
0.0
  0
POINT
  5
458B
330
2D1A
100
AcDbEntity
  8
Defpoints
 62
     0
 48
10.0
100
AcDbPoint
 10
293.2059784464468
 20
223.0019223119671
 30
0.0
  0
ENDBLK
  5
2D25
330
2D1A
100
AcDbEntity
  8
0
 48
10.0
100
AcDbBlockEnd
  0
BLOCK
  5
2D32
330
2D26
100
AcDbEntity
  8
0
 48
10.0
100
AcDbBlockBegin
  2
*D4
 70
     1
 10
0.0
 20
0.0
 30
0.0
  3
*D4
  1

  0
LINE
  5
456D
330
2D26
100
AcDbEntity
  8
BEM
 48
10.0
370
    -2
100
AcDbLine
 10
401.5029971286139
 20
282.7339731195359
 30
0.0
 11
401.5029971286139
 21
346.6237921894976
 31
0.0
  0
LINE
  5
456E
330
2D26
100
AcDbEntity
  8
BEM
 48
10.0
370
    -2
100
AcDbLine
 10
407.502997128614
 20
323.0019223119671
 30
0.0
 11
407.502997128614
 21
346.6237921894976
 31
0.0
  0
LINE
  5
456F
330
2D26
100
AcDbEntity
  8
BEM
 48
10.0
370
    -2
100
AcDbLine
 10
414.5029971286139
 20
345.3737921894977
 30
0.0
 11
421.5029971286139
 21
345.3737921894977
 31
0.0
  0
LINE
  5
4570
330
2D26
100
AcDbEntity
  8
BEM
 48
10.0
370
    -2
100
AcDbLine
 10
394.502997128614
 20
345.3737921894977
 30
0.0
 11
367.8363304619474
 21
345.3737921894977
 31
0.0
  0
LINE
  5
4571
330
2D26
100
AcDbEntity
  8
BEM
 48
10.0
370
    -2
100
AcDbLine
 10
407.502997128614
 20
345.3737921894977
 30
0.0
 11
401.5029971286139
 21
345.3737921894977
 31
0.0
  0
SOLID
  5
4572
330
2D26
100
AcDbEntity
  8
BEM
 48
10.0
100
AcDbTrace
 10
414.5029971286139
 20
346.5404588561643
 30
0.0
 11
414.5029971286139
 21
344.2071255228309
 31
0.0
 12
407.502997128614
 22
345.3737921894977
 32
0.0
 13
407.502997128614
 23
345.3737921894977
 33
0.0
  0
SOLID
  5
4573
330
2D26
100
AcDbEntity
  8
BEM
 48
10.0
100
AcDbTrace
 10
394.502997128614
 20
346.5404588561643
 30
0.0
 11
394.502997128614
 21
344.2071255228309
 31
0.0
 12
401.5029971286139
 22
345.3737921894977
 32
0.0
 13
401.5029971286139
 23
345.3737921894977
 33
0.0
  0
MTEXT
  5
4574
330
2D26
100
AcDbEntity
  8
BEM
 48
10.0
100
AcDbMText
 10
375.1696637952807
 20
354.3737921894976
 30
0.0
 40
10.0
 41
0.0
 71
     5
 72
     1
  1
\A1;3
 73
     1
 44
1.0
  0
POINT
  5
4575
330
2D26
100
AcDbEntity
  8
Defpoints
 62
     0
 48
10.0
100
AcDbPoint
 10
401.5029971286139
 20
282.7339731195359
 30
0.0
  0
POINT
  5
4576
330
2D26
100
AcDbEntity
  8
Defpoints
 62
     0
 48
10.0
100
AcDbPoint
 10
407.502997128614
 20
323.0019223119671
 30
0.0
  0
POINT
  5
4577
330
2D26
100
AcDbEntity
  8
Defpoints
 62
     0
 48
10.0
100
AcDbPoint
 10
407.502997128614
 20
345.3737921894977
 30
0.0
  0
ENDBLK
  5
2D33
330
2D26
100
AcDbEntity
  8
0
 48
10.0
100
AcDbBlockEnd
  0
BLOCK
  5
2D40
330
2D34
100
AcDbEntity
  8
0
 48
10.0
100
AcDbBlockBegin
  2
*D5
 70
     1
 10
0.0
 20
0.0
 30
0.0
  3
*D5
  1

  0
LINE
  5
4578
330
2D34
100
AcDbEntity
  8
BEM
 48
10.0
370
    -2
100
AcDbLine
 10
363.502997128614
 20
262.0019223119671
 30
0.0
 11
335.6961089558584
 21
262.0019223119671
 31
0.0
  0
LINE
  5
4579
330
2D34
100
AcDbEntity
  8
BEM
 48
10.0
370
    -2
100
AcDbLine
 10
363.502997128614
 20
244.0019223119671
 30
0.0
 11
335.6961089558584
 21
244.0019223119671
 31
0.0
  0
LINE
  5
457A
330
2D34
100
AcDbEntity
  8
BEM
 48
10.0
370
    -2
100
AcDbLine
 10
336.9461089558584
 20
269.0019223119671
 30
0.0
 11
336.9461089558584
 21
276.001922311967
 31
0.0
  0
LINE
  5
457B
330
2D34
100
AcDbEntity
  8
BEM
 48
10.0
370
    -2
100
AcDbLine
 10
336.9461089558584
 20
237.0019223119671
 30
0.0
 11
336.9461089558584
 21
230.001922311967
 31
0.0
  0
LINE
  5
457C
330
2D34
100
AcDbEntity
  8
BEM
 48
10.0
370
    -2
100
AcDbLine
 10
336.9461089558584
 20
262.0019223119671
 30
0.0
 11
336.9461089558584
 21
244.0019223119671
 31
0.0
  0
SOLID
  5
457D
330
2D34
100
AcDbEntity
  8
BEM
 48
10.0
100
AcDbTrace
 10
335.7794422891917
 20
269.0019223119671
 30
0.0
 11
338.1127756225251
 21
269.0019223119671
 31
0.0
 12
336.9461089558584
 22
262.0019223119671
 32
0.0
 13
336.9461089558584
 23
262.0019223119671
 33
0.0
  0
SOLID
  5
457E
330
2D34
100
AcDbEntity
  8
BEM
 48
10.0
100
AcDbTrace
 10
335.7794422891917
 20
237.0019223119671
 30
0.0
 11
338.1127756225251
 21
237.0019223119671
 31
0.0
 12
336.9461089558584
 22
244.0019223119671
 32
0.0
 13
336.9461089558584
 23
244.0019223119671
 33
0.0
  0
MTEXT
  5
457F
330
2D34
100
AcDbEntity
  8
BEM
 48
10.0
100
AcDbMText
 10
327.9461089558584
 20
253.0019223119671
 30
0.0
 40
10.0
 41
0.0
 71
     5
 72
     1
  1
\A1;%%c9
 11
0.0000000000000001
 21
1.0
 31
0.0
 73
     1
 44
1.0
  0
POINT
  5
4580
330
2D34
100
AcDbEntity
  8
Defpoints
 62
     0
 48
10.0
100
AcDbPoint
 10
363.502997128614
 20
262.0019223119671
 30
0.0
  0
POINT
  5
4581
330
2D34
100
AcDbEntity
  8
Defpoints
 62
     0
 48
10.0
100
AcDbPoint
 10
363.502997128614
 20
244.0019223119671
 30
0.0
  0
POINT
  5
4582
330
2D34
100
AcDbEntity
  8
Defpoints
 62
     0
 48
10.0
100
AcDbPoint
 10
336.9461089558584
 20
244.0019223119671
 30
0.0
  0
ENDBLK
  5
2D41
330
2D34
100
AcDbEntity
  8
0
 48
10.0
100
AcDbBlockEnd
  0
BLOCK
  5
2D4E
330
2D42
100
AcDbEntity
  8
0
 48
10.0
100
AcDbBlockBegin
  2
*D6
 70
     1
 10
0.0
 20
0.0
 30
0.0
  3
*D6
  1

  0
LINE
  5
4562
330
2D42
100
AcDbEntity
  8
BEM
 48
10.0
370
    -2
100
AcDbLine
 10
401.5029971286139
 20
283.0019223119671
 30
0.0
 11
401.5029971286139
 21
369.4798778087415
 31
0.0
  0
LINE
  5
4563
330
2D42
100
AcDbEntity
  8
BEM
 48
10.0
370
    -2
100
AcDbLine
 10
427.5029971286139
 20
323.0019223119671
 30
0.0
 11
427.5029971286139
 21
369.4798778087415
 31
0.0
  0
LINE
  5
4564
330
2D42
100
AcDbEntity
  8
BEM
 48
10.0
370
    -2
100
AcDbLine
 10
394.502997128614
 20
368.2298778087416
 30
0.0
 11
387.502997128614
 21
368.2298778087416
 31
0.0
  0
LINE
  5
4565
330
2D42
100
AcDbEntity
  8
BEM
 48
10.0
370
    -2
100
AcDbLine
 10
434.5029971286139
 20
368.2298778087416
 30
0.0
 11
441.502997128614
 21
368.2298778087416
 31
0.0
  0
LINE
  5
4566
330
2D42
100
AcDbEntity
  8
BEM
 48
10.0
370
    -2
100
AcDbLine
 10
401.5029971286139
 20
368.2298778087416
 30
0.0
 11
427.5029971286139
 21
368.2298778087416
 31
0.0
  0
SOLID
  5
4567
330
2D42
100
AcDbEntity
  8
BEM
 48
10.0
100
AcDbTrace
 10
394.502997128614
 20
369.3965444754082
 30
0.0
 11
394.502997128614
 21
367.0632111420748
 31
0.0
 12
401.5029971286139
 22
368.2298778087416
 32
0.0
 13
401.5029971286139
 23
368.2298778087416
 33
0.0
  0
SOLID
  5
4568
330
2D42
100
AcDbEntity
  8
BEM
 48
10.0
100
AcDbTrace
 10
434.5029971286139
 20
369.3965444754082
 30
0.0
 11
434.5029971286139
 21
367.0632111420748
 31
0.0
 12
427.5029971286139
 22
368.2298778087416
 32
0.0
 13
427.5029971286139
 23
368.2298778087416
 33
0.0
  0
MTEXT
  5
4569
330
2D42
100
AcDbEntity
  8
BEM
 48
10.0
100
AcDbMText
 10
414.5029971286139
 20
377.2298778087415
 30
0.0
 40
10.0
 41
0.0
 71
     5
 72
     1
  1
\A1;13
 73
     1
 44
1.0
  0
POINT
  5
456A
330
2D42
100
AcDbEntity
  8
Defpoints
 62
     0
 48
10.0
100
AcDbPoint
 10
401.5029971286139
 20
283.0019223119671
 30
0.0
  0
POINT
  5
456B
330
2D42
100
AcDbEntity
  8
Defpoints
 62
     0
 48
10.0
100
AcDbPoint
 10
427.5029971286139
 20
323.0019223119671
 30
0.0
  0
POINT
  5
456C
330
2D42
100
AcDbEntity
  8
Defpoints
 62
     0
 48
10.0
100
AcDbPoint
 10
427.5029971286139
 20
368.2298778087416
 30
0.0
  0
ENDBLK
  5
2D4F
330
2D42
100
AcDbEntity
  8
0
 48
10.0
100
AcDbBlockEnd
  0
BLOCK
  5
2D5C
330
2D50
100
AcDbEntity
  8
0
 48
10.0
100
AcDbBlockBegin
  2
*D7
 70
     1
 10
0.0
 20
0.0
 30
0.0
  3
*D7
  1

  0
LINE
  5
45AA
330
2D50
100
AcDbEntity
  8
BEM
 48
10.0
370
    -2
100
AcDbLine
 10
722.1029971286139
 20
181.883724284444
 30
0.0
 11
722.1029971286139
 21
138.4306845984134
 31
0.0
  0
LINE
  5
45AB
330
2D50
100
AcDbEntity
  8
BEM
 48
10.0
370
    -2
100
AcDbLine
 10
686.1029971286138
 20
180.7100455995298
 30
0.0
 11
686.1029971286138
 21
138.4306845984134
 31
0.0
  0
LINE
  5
45AC
330
2D50
100
AcDbEntity
  8
BEM
 48
10.0
370
    -2
100
AcDbLine
 10
729.1029971286138
 20
139.6806845984134
 30
0.0
 11
736.1029971286138
 21
139.6806845984134
 31
0.0
  0
LINE
  5
45AD
330
2D50
100
AcDbEntity
  8
BEM
 48
10.0
370
    -2
100
AcDbLine
 10
679.1029971286138
 20
139.6806845984134
 30
0.0
 11
672.1029971286139
 21
139.6806845984134
 31
0.0
  0
LINE
  5
45AE
330
2D50
100
AcDbEntity
  8
BEM
 48
10.0
370
    -2
100
AcDbLine
 10
722.1029971286139
 20
139.6806845984134
 30
0.0
 11
686.1029971286138
 21
139.6806845984134
 31
0.0
  0
SOLID
  5
45AF
330
2D50
100
AcDbEntity
  8
BEM
 48
10.0
100
AcDbTrace
 10
729.1029971286138
 20
140.8473512650801
 30
0.0
 11
729.1029971286138
 21
138.5140179317468
 31
0.0
 12
722.1029971286139
 22
139.6806845984134
 32
0.0
 13
722.1029971286139
 23
139.6806845984134
 33
0.0
  0
SOLID
  5
45B0
330
2D50
100
AcDbEntity
  8
BEM
 48
10.0
100
AcDbTrace
 10
679.1029971286138
 20
140.8473512650801
 30
0.0
 11
679.1029971286138
 21
138.5140179317468
 31
0.0
 12
686.1029971286138
 22
139.6806845984134
 32
0.0
 13
686.1029971286138
 23
139.6806845984134
 33
0.0
  0
MTEXT
  5
45B1
330
2D50
100
AcDbEntity
  8
BEM
 48
10.0
100
AcDbMText
 10
699.8777337299661
 20
148.6806845984134
 30
0.0
 40
10.0
 41
0.0
 71
     5
 72
     1
  1
\A1;18
 73
     1
 44
1.0
  0
POINT
  5
45B2
330
2D50
100
AcDbEntity
  8
Defpoints
 62
     0
 48
10.0
100
AcDbPoint
 10
722.1029971286139
 20
181.883724284444
 30
0.0
  0
POINT
  5
45B3
330
2D50
100
AcDbEntity
  8
Defpoints
 62
     0
 48
10.0
100
AcDbPoint
 10
686.1029971286138
 20
180.7100455995298
 30
0.0
  0
POINT
  5
45B4
330
2D50
100
AcDbEntity
  8
Defpoints
 62
     0
 48
10.0
100
AcDbPoint
 10
686.1029971286138
 20
139.6806845984134
 30
0.0
  0
ENDBLK
  5
2D5D
330
2D50
100
AcDbEntity
  8
0
 48
10.0
100
AcDbBlockEnd
  0
BLOCK
  5
2D67
330
2D5E
100
AcDbEntity
  8
0
 48
10.0
100
AcDbBlockBegin
  2
*D8
 70
     1
 10
0.0
 20
0.0
 30
0.0
  3
*D8
  1

  0
LINE
  5
4597
330
2D5E
100
AcDbEntity
  8
BEM
 48
10.0
370
    -2
100
AcDbLine
 10
895.9400044813301
 20
215.2659915760399
 30
0.0
 11
937.0326320032596
 21
234.1837404937869
 31
0.0
  0
LINE
  5
4598
330
2D5E
100
AcDbEntity
  8
BEM
 48
10.0
370
    -2
100
AcDbLine
 10
1018.785333073204
 20
271.8201041301473
 30
0.0
 11
1025.143876489755
 21
274.7473768574197
 31
0.0
  0
MTEXT
  5
4599
330
2D5E
100
AcDbEntity
  8
BEM
 48
10.0
100
AcDbMText
 10
907.2725018073292
 20
230.3910452328172
 30
0.0
 40
10.0
 41
0.0
 71
     5
 72
     1
  1
\A1;\U+220538
 11
0.9083633452216023
 21
0.4181818181817809
 31
0.0
 73
     1
 44
1.0
  0
LINE
  5
459A
330
2D5E
100
AcDbEntity
  8
BEM
 48
10.0
370
    -2
100
AcDbLine
 10
1012.426789656653
 20
268.8928314028748
 30
0.0
 11
943.3911754198106
 21
237.1110132210594
 31
0.0
  0
SOLID
  5
459B
330
2D5E
100
AcDbEntity
  8
BEM
 48
10.0
100
AcDbTrace
 10
1018.297454285325
 20
272.8798613662391
 30
0.0
 11
1019.273211861082
 21
270.7603468940554
 31
0.0
 12
1012.426789656653
 22
268.8928314028748
 32
0.0
 13
1012.426789656653
 23
268.8928314028748
 33
0.0
  0
SOLID
  5
459C
330
2D5E
100
AcDbEntity
  8
BEM
 48
10.0
100
AcDbTrace
 10
936.5447532153806
 20
235.2434977298788
 30
0.0
 11
937.5205107911382
 21
233.1239832576951
 31
0.0
 12
943.3911754198106
 22
237.1110132210594
 32
0.0
 13
943.3911754198106
 23
237.1110132210594
 33
0.0
  0
POINT
  5
459D
330
2D5E
100
AcDbEntity
  8
Defpoints
 62
     0
 48
10.0
100
AcDbPoint
 10
943.3911754198106
 20
237.1110132210594
 30
0.0
  0
POINT
  5
459E
330
2D5E
100
AcDbEntity
  8
Defpoints
 62
     0
 48
10.0
100
AcDbPoint
 10
1012.426789656653
 20
268.8928314028748
 30
0.0
  0
ENDBLK
  5
2D68
330
2D5E
100
AcDbEntity
  8
0
 48
10.0
100
AcDbBlockEnd
  0
BLOCK
  5
2D75
330
2D69
100
AcDbEntity
  8
0
 48
10.0
100
AcDbBlockBegin
  2
*D9
 70
     1
 10
0.0
 20
0.0
 30
0.0
  3
*D9
  1

  0
LINE
  5
459F
330
2D69
100
AcDbEntity
  8
BEM
 48
10.0
370
    -2
100
AcDbLine
 10
783.7029971286138
 20
264.4019223119672
 30
0.0
 11
783.7029971286138
 21
401.6707159432423
 31
0.0
  0
LINE
  5
45A0
330
2D69
100
AcDbEntity
  8
BEM
 48
10.0
370
    -2
100
AcDbLine
 10
767.7029971286138
 20
282.001922311967
 30
0.0
 11
767.7029971286138
 21
401.6707159432423
 31
0.0
  0
LINE
  5
45A1
330
2D69
100
AcDbEntity
  8
BEM
 48
10.0
370
    -2
100
AcDbLine
 10
790.7029971286139
 20
400.4207159432423
 30
0.0
 11
797.7029971286139
 21
400.4207159432423
 31
0.0
  0
LINE
  5
45A2
330
2D69
100
AcDbEntity
  8
BEM
 48
10.0
370
    -2
100
AcDbLine
 10
760.7029971286139
 20
400.4207159432423
 30
0.0
 11
753.7029971286139
 21
400.4207159432423
 31
0.0
  0
LINE
  5
45A3
330
2D69
100
AcDbEntity
  8
BEM
 48
10.0
370
    -2
100
AcDbLine
 10
783.7029971286138
 20
400.4207159432423
 30
0.0
 11
767.7029971286138
 21
400.4207159432423
 31
0.0
  0
SOLID
  5
45A4
330
2D69
100
AcDbEntity
  8
BEM
 48
10.0
100
AcDbTrace
 10
790.7029971286139
 20
401.587382609909
 30
0.0
 11
790.7029971286139
 21
399.2540492765757
 31
0.0
 12
783.7029971286138
 22
400.4207159432423
 32
0.0
 13
783.7029971286138
 23
400.4207159432423
 33
0.0
  0
SOLID
  5
45A5
330
2D69
100
AcDbEntity
  8
BEM
 48
10.0
100
AcDbTrace
 10
760.7029971286139
 20
401.587382609909
 30
0.0
 11
760.7029971286139
 21
399.2540492765757
 31
0.0
 12
767.7029971286138
 22
400.4207159432423
 32
0.0
 13
767.7029971286138
 23
400.4207159432423
 33
0.0
  0
MTEXT
  5
45A6
330
2D69
100
AcDbEntity
  8
BEM
 48
10.0
100
AcDbMText
 10
775.7029971286138
 20
409.4207159432423
 30
0.0
 40
10.0
 41
0.0
 71
     5
 72
     1
  1
\A1;8
 73
     1
 44
1.0
  0
POINT
  5
45A7
330
2D69
100
AcDbEntity
  8
Defpoints
 62
     0
 48
10.0
100
AcDbPoint
 10
783.7029971286138
 20
264.4019223119672
 30
0.0
  0
POINT
  5
45A8
330
2D69
100
AcDbEntity
  8
Defpoints
 62
     0
 48
10.0
100
AcDbPoint
 10
767.7029971286138
 20
282.001922311967
 30
0.0
  0
POINT
  5
45A9
330
2D69
100
AcDbEntity
  8
Defpoints
 62
     0
 48
10.0
100
AcDbPoint
 10
767.7029971286138
 20
400.4207159432423
 30
0.0
  0
ENDBLK
  5
2D76
330
2D69
100
AcDbEntity
  8
0
 48
10.0
100
AcDbBlockEnd
  0
BLOCK
  5
2D83
330
2D77
100
AcDbEntity
  8
0
 48
10.0
100
AcDbBlockBegin
  2
*D10
 70
     1
 10
0.0
 20
0.0
 30
0.0
  3
*D10
  1

  0
LINE
  5
45C0
330
2D77
100
AcDbEntity
  8
BEM
 48
10.0
370
    -2
100
AcDbLine
 10
765.7029971286139
 20
284.0019223119671
 30
0.0
 11
827.3747921740302
 21
284.0019223119671
 31
0.0
  0
LINE
  5
45C1
330
2D77
100
AcDbEntity
  8
BEM
 48
10.0
370
    -2
100
AcDbLine
 10
765.7029971286139
 20
222.001922311967
 30
0.0
 11
827.37479217403
 21
222.001922311967
 31
0.0
  0
LINE
  5
45C2
330
2D77
100
AcDbEntity
  8
BEM
 48
10.0
370
    -2
100
AcDbLine
 10
826.1247921740302
 20
291.0019223119671
 30
0.0
 11
826.1247921740302
 21
298.0019223119671
 31
0.0
  0
LINE
  5
45C3
330
2D77
100
AcDbEntity
  8
BEM
 48
10.0
370
    -2
100
AcDbLine
 10
826.12479217403
 20
215.0019223119671
 30
0.0
 11
826.12479217403
 21
208.0019223119671
 31
0.0
  0
LINE
  5
45C4
330
2D77
100
AcDbEntity
  8
BEM
 48
10.0
370
    -2
100
AcDbLine
 10
826.1247921740302
 20
284.0019223119671
 30
0.0
 11
826.12479217403
 21
222.001922311967
 31
0.0
  0
SOLID
  5
45C5
330
2D77
100
AcDbEntity
  8
BEM
 48
10.0
100
AcDbTrace
 10
824.9581255073636
 20
291.0019223119671
 30
0.0
 11
827.2914588406967
 21
291.0019223119671
 31
0.0
 12
826.1247921740302
 22
284.0019223119671
 32
0.0
 13
826.1247921740302
 23
284.0019223119671
 33
0.0
  0
SOLID
  5
45C6
330
2D77
100
AcDbEntity
  8
BEM
 48
10.0
100
AcDbTrace
 10
824.9581255073634
 20
215.0019223119671
 30
0.0
 11
827.2914588406967
 21
215.0019223119671
 31
0.0
 12
826.12479217403
 22
222.001922311967
 32
0.0
 13
826.12479217403
 23
222.001922311967
 33
0.0
  0
MTEXT
  5
45C7
330
2D77
100
AcDbEntity
  8
BEM
 48
10.0
100
AcDbMText
 10
817.1247921740301
 20
242.7752526652882
 30
0.0
 40
10.0
 41
0.0
 71
     5
 72
     1
  1
\A1;%%c31
 11
0.0000000000000001
 21
1.0
 31
0.0
 73
     1
 44
1.0
  0
POINT
  5
45C8
330
2D77
100
AcDbEntity
  8
Defpoints
 62
     0
 48
10.0
100
AcDbPoint
 10
765.7029971286139
 20
284.0019223119671
 30
0.0
  0
POINT
  5
45C9
330
2D77
100
AcDbEntity
  8
Defpoints
 62
     0
 48
10.0
100
AcDbPoint
 10
765.7029971286139
 20
222.001922311967
 30
0.0
  0
POINT
  5
45CA
330
2D77
100
AcDbEntity
  8
Defpoints
 62
     0
 48
10.0
100
AcDbPoint
 10
826.12479217403
 20
222.001922311967
 30
0.0
  0
ENDBLK
  5
2D84
330
2D77
100
AcDbEntity
  8
0
 48
10.0
100
AcDbBlockEnd
  0
BLOCK
  5
2DA8
330
2DA1
100
AcDbEntity
  8
0
 48
10.0
100
AcDbBlockBegin
  2
*D11
 70
     1
 10
0.0
 20
0.0
 30
0.0
  3
*D11
  1

  0
LINE
  5
45D4
330
2DA1
100
AcDbEntity
  8
BEM
 48
10.0
370
    -2
100
AcDbLine
 10
962.9384839843259
 20
324.1228457671388
 30
0.0
 11
928.5905868693046
 21
361.1102459023816
 31
0.0
  0
LINE
  5
45D5
330
2DA1
100
AcDbEntity
  8
BEM
 48
10.0
370
    -2
100
AcDbLine
 10
977.9089825382314
 20
308.0019223119671
 30
0.0
 11
967.7018244332959
 21
318.9934610314023
 31
0.0
  0
SOLID
  5
45D6
330
2DA1
100
AcDbEntity
  8
BEM
 48
10.0
100
AcDbTrace
 10
963.7933814402821
 20
324.9167358419671
 30
0.0
 11
962.0835865283698
 21
323.3289556923105
 31
0.0
 12
967.7018244332959
 22
318.9934610314023
 32
0.0
 13
967.7018244332959
 23
318.9934610314023
 33
0.0
  0
MTEXT
  5
45D7
330
2DA1
100
AcDbEntity
  8
BEM
 48
10.0
100
AcDbMText
 10
948.2765954165024
 20
353.1374561854958
 30
0.0
 40
10.0
 41
0.0
 71
     5
 72
     1
  1
\A1;R7.5
 11
0.6804772069957079
 21
-0.7327692479623586
 31
0.0
 73
     1
 44
1.0
  0
POINT
  5
45D8
330
2DA1
100
AcDbEntity
  8
Defpoints
 62
     0
 48
10.0
100
AcDbPoint
 10
967.7018244332959
 20
318.9934610314023
 30
0.0
  0
POINT
  5
45D9
330
2DA1
100
AcDbEntity
  8
Defpoints
 62
     0
 48
10.0
100
AcDbPoint
 10
977.9089825382314
 20
308.0019223119671
 30
0.0
  0
ENDBLK
  5
2DA9
330
2DA1
100
AcDbEntity
  8
0
 48
10.0
100
AcDbBlockEnd
  0
BLOCK
  5
2DB4
330
2DAA
100
AcDbEntity
  8
0
 48
10.0
100
AcDbBlockBegin
  2
*D12
 70
     1
 10
0.0
 20
0.0
 30
0.0
  3
*D12
  1

  0
LINE
  5
45CB
330
2DAA
100
AcDbEntity
  8
BEM
 48
10.0
370
    -2
100
AcDbLine
 10
977.9089825382316
 20
323.0019223119671
 30
0.0
 11
1077.365241259348
 21
323.0019223119671
 31
0.0
  0
LINE
  5
45CC
330
2DAA
100
AcDbEntity
  8
BEM
 48
10.0
370
    -2
100
AcDbLine
 10
977.9089825382316
 20
183.001922311967
 30
0.0
 11
1077.365241259348
 21
183.001922311967
 31
0.0
  0
LINE
  5
45CD
330
2DAA
100
AcDbEntity
  8
BEM
 48
10.0
370
    -2
100
AcDbLine
 10
1076.115241259348
 20
316.0019223119671
 30
0.0
 11
1076.115241259348
 21
190.001922311967
 31
0.0
  0
SOLID
  5
45CE
330
2DAA
100
AcDbEntity
  8
BEM
 48
10.0
100
AcDbTrace
 10
1074.948574592681
 20
316.0019223119671
 30
0.0
 11
1077.281907926015
 21
316.0019223119671
 31
0.0
 12
1076.115241259348
 22
323.0019223119671
 32
0.0
 13
1076.115241259348
 23
323.0019223119671
 33
0.0
  0
SOLID
  5
45CF
330
2DAA
100
AcDbEntity
  8
BEM
 48
10.0
100
AcDbTrace
 10
1074.948574592681
 20
190.001922311967
 30
0.0
 11
1077.281907926015
 21
190.001922311967
 31
0.0
 12
1076.115241259348
 22
183.001922311967
 32
0.0
 13
1076.115241259348
 23
183.001922311967
 33
0.0
  0
MTEXT
  5
45D0
330
2DAA
100
AcDbEntity
  8
BEM
 48
10.0
100
AcDbMText
 10
1067.115241259348
 20
253.001922311967
 30
0.0
 40
10.0
 41
0.0
 71
     5
 72
     1
  1
\A1;70
 11
0.0000000000000001
 21
1.0
 31
0.0
 73
     1
 44
1.0
  0
POINT
  5
45D1
330
2DAA
100
AcDbEntity
  8
Defpoints
 62
     0
 48
10.0
100
AcDbPoint
 10
977.9089825382316
 20
323.0019223119671
 30
0.0
  0
POINT
  5
45D2
330
2DAA
100
AcDbEntity
  8
Defpoints
 62
     0
 48
10.0
100
AcDbPoint
 10
977.9089825382316
 20
183.001922311967
 30
0.0
  0
POINT
  5
45D3
330
2DAA
100
AcDbEntity
  8
Defpoints
 62
     0
 48
10.0
100
AcDbPoint
 10
1076.115241259348
 20
183.001922311967
 30
0.0
  0
ENDBLK
  5
2DB5
330
2DAA
100
AcDbEntity
  8
0
 48
10.0
100
AcDbBlockEnd
  0
BLOCK
  5
2DC0
330
2DB6
100
AcDbEntity
  8
0
 48
10.0
100
AcDbBlockBegin
  2
*D13
 70
     1
 10
0.0
 20
0.0
 30
0.0
  3
*D13
  1

  0
LINE
  5
45E2
330
2DB6
100
AcDbEntity
  8
BEM
 48
10.0
370
    -2
100
AcDbLine
 10
987.1856844738099
 20
308.0019223119671
 30
0.0
 11
1054.095939635311
 21
308.0019223119671
 31
0.0
  0
LINE
  5
45E3
330
2DB6
100
AcDbEntity
  8
BEM
 48
10.0
370
    -2
100
AcDbLine
 10
986.9039383386969
 20
198.001922311967
 30
0.0
 11
1054.095939635311
 21
198.001922311967
 31
0.0
  0
LINE
  5
45E4
330
2DB6
100
AcDbEntity
  8
BEM
 48
10.0
370
    -2
100
AcDbLine
 10
1052.845939635311
 20
301.001922311967
 30
0.0
 11
1052.845939635311
 21
205.001922311967
 31
0.0
  0
SOLID
  5
45E5
330
2DB6
100
AcDbEntity
  8
BEM
 48
10.0
100
AcDbTrace
 10
1051.679272968644
 20
301.001922311967
 30
0.0
 11
1054.012606301977
 21
301.001922311967
 31
0.0
 12
1052.845939635311
 22
308.0019223119671
 32
0.0
 13
1052.845939635311
 23
308.0019223119671
 33
0.0
  0
SOLID
  5
45E6
330
2DB6
100
AcDbEntity
  8
BEM
 48
10.0
100
AcDbTrace
 10
1051.679272968644
 20
205.001922311967
 30
0.0
 11
1054.012606301977
 21
205.001922311967
 31
0.0
 12
1052.845939635311
 22
198.001922311967
 32
0.0
 13
1052.845939635311
 23
198.001922311967
 33
0.0
  0
MTEXT
  5
45E7
330
2DB6
100
AcDbEntity
  8
BEM
 48
10.0
100
AcDbMText
 10
1041.226892016263
 20
253.001922311967
 30
0.0
 40
10.0
 41
0.0
 71
     5
 72
     1
  1
\A1;(55)
 11
0.0000000000000001
 21
1.0
 31
0.0
 73
     1
 44
1.0
  0
POINT
  5
45E8
330
2DB6
100
AcDbEntity
  8
Defpoints
 62
     0
 48
10.0
100
AcDbPoint
 10
987.1856844738099
 20
308.0019223119671
 30
0.0
  0
POINT
  5
45E9
330
2DB6
100
AcDbEntity
  8
Defpoints
 62
     0
 48
10.0
100
AcDbPoint
 10
986.9039383386969
 20
198.001922311967
 30
0.0
  0
POINT
  5
45EA
330
2DB6
100
AcDbEntity
  8
Defpoints
 62
     0
 48
10.0
100
AcDbPoint
 10
1052.845939635311
 20
198.001922311967
 30
0.0
  0
ENDBLK
  5
2DC1
330
2DB6
100
AcDbEntity
  8
0
 48
10.0
100
AcDbBlockEnd
  0
BLOCK
  5
2DCB
330
2DC2
100
AcDbEntity
  8
0
 48
10.0
100
AcDbBlockBegin
  2
*D14
 70
     1
 10
0.0
 20
0.0
 30
0.0
  3
*D14
  1

  0
LINE
  5
45DA
330
2DC2
100
AcDbEntity
  8
BEM
 48
10.0
370
    -2
100
AcDbLine
 10
989.688832269609
 20
205.5673132672424
 30
0.0
 11
995.5787571352978
 21
209.3500087448802
 31
0.0
  0
LINE
  5
45DB
330
2DC2
100
AcDbEntity
  8
BEM
 48
10.0
370
    -2
100
AcDbLine
 10
966.1291328068541
 20
190.4365313566911
 30
0.0
 11
936.0784957370137
 21
171.1370646340495
 31
0.0
  0
LINE
  5
45DC
330
2DC2
100
AcDbEntity
  8
BEM
 48
10.0
370
    -2
100
AcDbLine
 10
983.7989074039203
 20
201.7846177896046
 30
0.0
 11
972.0190576725427
 21
194.2192268343289
 31
0.0
  0
SOLID
  5
45DD
330
2DC2
100
AcDbEntity
  8
BEM
 48
10.0
100
AcDbTrace
 10
989.058383023336
 20
206.5489674115238
 30
0.0
 11
990.3192815158821
 21
204.5856591229608
 31
0.0
 12
983.7989074039203
 22
201.7846177896046
 32
0.0
 13
983.7989074039203
 23
201.7846177896046
 33
0.0
  0
SOLID
  5
45DE
330
2DC2
100
AcDbEntity
  8
BEM
 48
10.0
100
AcDbTrace
 10
965.4986835605811
 20
191.4181855009725
 30
0.0
 11
966.7595820531269
 21
189.4548772124096
 31
0.0
 12
972.0190576725427
 22
194.2192268343289
 32
0.0
 13
972.0190576725427
 23
194.2192268343289
 33
0.0
  0
MTEXT
  5
45DF
330
2DC2
100
AcDbEntity
  8
BEM
 48
10.0
100
AcDbMText
 10
941.1918416300951
 20
185.1172481275663
 30
0.0
 40
10.0
 41
0.0
 71
     5
 72
     1
  1
\A1;\U+22057
 11
0.8414178379555346
 21
0.5403850682339711
 31
0.0
 73
     1
 44
1.0
  0
POINT
  5
45E0
330
2DC2
100
AcDbEntity
  8
Defpoints
 62
     0
 48
10.0
100
AcDbPoint
 10
972.0190576725427
 20
194.2192268343289
 30
0.0
  0
POINT
  5
45E1
330
2DC2
100
AcDbEntity
  8
Defpoints
 62
     0
 48
10.0
100
AcDbPoint
 10
983.7989074039203
 20
201.7846177896046
 30
0.0
  0
ENDBLK
  5
2DCC
330
2DC2
100
AcDbEntity
  8
0
 48
10.0
100
AcDbBlockEnd
  0
BLOCK
  5
31B6
330
31AA
100
AcDbEntity
  8
0
 48
10.0
100
AcDbBlockBegin
  2
*D15
 70
     1
 10
0.0
 20
0.0
 30
0.0
  3
*D15
  1

  0
LINE
  5
4548
330
31AA
100
AcDbEntity
  8
BEM
 48
10.0
370
    -2
100
AcDbLine
 10
126.5944770374875
 20
178.4900400371882
 30
0.0
 11
126.5944770374876
 21
116.5323400625268
 31
0.0
  0
LINE
  5
4549
330
31AA
100
AcDbEntity
  8
BEM
 48
10.0
370
    -2
100
AcDbLine
 10
137.5511614610713
 20
187.5273579811758
 30
0.0
 11
149.1184548605642
 21
118.4039382915432
 31
0.0
  0
ARC
  5
454A
330
31AA
100
AcDbEntity
  8
BEM
 48
10.0
370
    -2
100
AcDbCircle
 10
126.5944770374874
 20
253.0019223119679
 30
0.0
 40
135.219582249441
100
AcDbArc
 50
264.0672016910289
 51
267.0336008455145
  0
ARC
  5
454B
330
31AA
100
AcDbEntity
  8
BEM
 48
10.0
370
    -2
100
AcDbCircle
 10
126.5944770374874
 20
253.0019223119679
 30
0.0
 40
135.219582249441
100
AcDbArc
 50
282.4663991544856
 51
285.4327983089712
  0
ARC
  5
454C
330
31AA
100
AcDbEntity
  8
BEM
 48
10.0
370
    -2
100
AcDbCircle
 10
126.5944770374874
 20
253.0019223119679
 30
0.0
 40
135.219582249441
100
AcDbArc
 50
270.0000000000001
 51
279.4999999999999
  0
SOLID
  5
454D
330
31AA
100
AcDbEntity
  8
BEM
 48
10.0
100
AcDbTrace
 10
119.6270201295608
 20
119.1298026212997
 30
0.0
 11
119.5666245379548
 21
116.7972510533898
 31
0.0
 12
126.5944770374876
 22
117.7823400625268
 32
0.0
 13
126.5944770374876
 23
117.7823400625268
 33
0.0
  0
SOLID
  5
454E
330
31AA
100
AcDbEntity
  8
BEM
 48
10.0
100
AcDbTrace
 10
156.0062016657727
 20
119.8251464169101
 30
0.0
 11
155.5616523115453
 21
122.1157402953837
 31
0.0
 12
148.9121453532384
 22
119.6367952934647
 32
0.0
 13
148.9121453532384
 23
119.6367952934647
 33
0.0
  0
MTEXT
  5
454F
330
31AA
100
AcDbEntity
  8
BEM
 48
10.0
100
AcDbMText
 10
165.0602693008926
 20
132.7864251047776
 30
0.0
 40
10.0
 41
0.0
 71
     5
 72
     1
  1
\A1;9.5°
 11
0.9524314299314882
 21
0.3047529676289645
 31
0.0
 73
     1
 44
1.0
  0
POINT
  5
4550
330
31AA
100
AcDbEntity
  8
Defpoints
 62
     0
 48
10.0
100
AcDbPoint
 10
134.0640914474089
 20
117.9888107846779
 30
0.0
  0
POINT
  5
4551
330
31AA
100
AcDbEntity
  8
Defpoints
 62
     0
 48
10.0
100
AcDbPoint
 10
126.5944770374873
 20
289.3408276173959
 30
0.0
  0
POINT
  5
4552
330
31AA
100
AcDbEntity
  8
Defpoints
 62
     0
 48
10.0
100
AcDbPoint
 10
126.5944770374876
 20
253.0019223119668
 30
0.0
  0
POINT
  5
4553
330
31AA
100
AcDbEntity
  8
Defpoints
 62
     0
 48
10.0
100
AcDbPoint
 10
137.5511614610713
 20
187.5273579811758
 30
0.0
  0
POINT
  5
4554
330
31AA
100
AcDbEntity
  8
Defpoints
 62
     0
 48
10.0
100
AcDbPoint
 10
126.5944770374875
 20
178.4900400371882
 30
0.0
  0
ENDBLK
  5
31B7
330
31AA
100
AcDbEntity
  8
0
 48
10.0
100
AcDbBlockEnd
  0
BLOCK
  5
31C4
330
31B8
100
AcDbEntity
  8
0
 48
10.0
100
AcDbBlockBegin
  2
*D16
 70
     1
 10
0.0
 20
0.0
 30
0.0
  3
*D16
  1

  0
LINE
  5
4555
330
31B8
100
AcDbEntity
  8
BEM
 48
10.0
370
    -2
100
AcDbLine
 10
115.6377926139036
 20
187.5273579811758
 30
0.0
 11
106.7066955487582
 21
134.157226403988
 31
0.0
  0
LINE
  5
4556
330
31B8
100
AcDbEntity
  8
BEM
 48
10.0
370
    -2
100
AcDbLine
 10
126.5944770374875
 20
178.4900400371882
 30
0.0
 11
126.5944770374875
 21
132.5046791982615
 31
0.0
  0
ARC
  5
4557
330
31B8
100
AcDbEntity
  8
BEM
 48
10.0
370
    -2
100
AcDbCircle
 10
126.5944770374875
 20
253.0019223119668
 30
0.0
 40
119.2472431137053
100
AcDbArc
 50
253.7723297683223
 51
257.1361648841612
  0
ARC
  5
4558
330
31B8
100
AcDbEntity
  8
BEM
 48
10.0
370
    -2
100
AcDbCircle
 10
126.5944770374875
 20
253.0019223119668
 30
0.0
 40
119.2472431137053
100
AcDbArc
 50
273.3638351158388
 51
276.7276702316776
  0
ARC
  5
4559
330
31B8
100
AcDbEntity
  8
BEM
 48
10.0
370
    -2
100
AcDbCircle
 10
126.5944770374875
 20
253.0019223119668
 30
0.0
 40
119.2472431137053
100
AcDbArc
 50
260.4999999999999
 51
270.0
  0
SOLID
  5
455A
330
31B8
100
AcDbEntity
  8
BEM
 48
10.0
100
AcDbTrace
 10
100.2721357568389
 20
137.8920758242542
 30
0.0
 11
99.81964466436199
 21
135.6030375424264
 31
0.0
 12
106.913005056084
 22
135.3900834059095
 32
0.0
 13
106.913005056084
 23
135.3900834059095
 33
0.0
  0
SOLID
  5
455B
330
31B8
100
AcDbEntity
  8
BEM
 48
10.0
100
AcDbTrace
 10
133.6257038287477
 20
132.7939706467351
 30
0.0
 11
133.557218667553
 21
135.1262987169561
 31
0.0
 12
126.5944770374875
 22
133.7546791982615
 32
0.0
 13
126.5944770374875
 23
133.7546791982615
 33
0.0
  0
MTEXT
  5
455C
330
31B8
100
AcDbEntity
  8
BEM
 48
10.0
100
AcDbMText
 10
90.96496950433346
 20
148.6707533972203
 30
0.0
 40
10.0
 41
0.0
 71
     5
 72
     1
  1
\A1;9.5°
 11
0.9463381211913191
 21
-0.3231782176757657
 31
0.0
 73
     1
 44
1.0
  0
POINT
  5
455D
330
31B8
100
AcDbEntity
  8
Defpoints
 62
     0
 48
10.0
100
AcDbPoint
 10
120.0071846447155
 20
133.9367612901496
 30
0.0
  0
POINT
  5
455E
330
31B8
100
AcDbEntity
  8
Defpoints
 62
     0
 48
10.0
100
AcDbPoint
 10
126.5944770374875
 20
253.0019223119668
 30
0.0
  0
POINT
  5
455F
330
31B8
100
AcDbEntity
  8
Defpoints
 62
     0
 48
10.0
100
AcDbPoint
 10
126.5944770374876
 20
289.3408276173959
 30
0.0
  0
POINT
  5
4560
330
31B8
100
AcDbEntity
  8
Defpoints
 62
     0
 48
10.0
100
AcDbPoint
 10
126.5944770374875
 20
178.4900400371882
 30
0.0
  0
POINT
  5
4561
330
31B8
100
AcDbEntity
  8
Defpoints
 62
     0
 48
10.0
100
AcDbPoint
 10
115.6377926139036
 20
187.5273579811758
 30
0.0
  0
ENDBLK
  5
31C5
330
31B8
100
AcDbEntity
  8
0
 48
10.0
100
AcDbBlockEnd
  0
BLOCK
  5
46DD
330
46DB
100
AcDbEntity
  8
0
 48
10.0
100
AcDbBlockBegin
  2
GENAXEH
 70
     0
 10
0.0
 20
0.0
 30
0.0
  3
GENAXEH
  1

  0
LINE
  5
46DC
330
46DB
100
AcDbEntity
  8
0
100
AcDbLine
 10
-1.0
 20
0.0
 30
0.0
 11
1.0
 21
0.0
 31
0.0
  0
ENDBLK
  5
46DE
330
46DB
100
AcDbEntity
  8
0
 48
10.0
100
AcDbBlockEnd
  0
BLOCK
  5
46F9
330
46F5
100
AcDbEntity
  8
0
 48
10.0
100
AcDbBlockBegin
  2
_Open30
 70
     0
 10
0.0
 20
0.0
 30
0.0
  3
_Open30
  1

  0
LINE
  5
46F6
330
46F5
100
AcDbEntity
  8
0
  6
ByBlock
 62
     0
370
    -2
100
AcDbLine
 10
-1.0
 20
0.26794919
 30
0.0
 11
0.0
 21
0.0
 31
0.0
  0
LINE
  5
46F7
330
46F5
100
AcDbEntity
  8
0
  6
ByBlock
 62
     0
370
    -2
100
AcDbLine
 10
0.0
 20
0.0
 30
0.0
 11
-1.0
 21
-0.26794919
 31
0.0
  0
LINE
  5
46F8
330
46F5
100
AcDbEntity
  8
0
  6
ByBlock
 62
     0
370
    -2
100
AcDbLine
 10
0.0
 20
0.0
 30
0.0
 11
-1.0
 21
0.0
 31
0.0
  0
ENDBLK
  5
46FA
330
46F5
100
AcDbEntity
  8
0
 48
10.0
100
AcDbBlockEnd
  0
ENDSEC
  0
SECTION
  2
ENTITIES
  0
LINE
  5
1A77
330
2
100
AcDbEntity
  8
MITTE
 48
10.0
100
AcDbLine
 10
243.8104526723523
 20
253.0019223119668
 30
0.0
 11
325.0516583298658
 21
253.0019223119668
 31
0.0
  0
ARC
  5
1AA1
330
2
100
AcDbEntity
  8
0
100
AcDbCircle
 10
284.3837654886552
 20
308.0019223119669
 30
0.0
 40
15.0
100
AcDbArc
 50
24.71985118290023
 51
155.2801488170998
  0
LINE
  5
1AA2
330
2
100
AcDbEntity
  8
0
100
AcDbLine
 10
318.9015726070761
 20
268.8928314028744
 30
0.0
 11
298.0092156669791
 21
314.2746495846934
 31
0.0
  0
CIRCLE
  5
1AA3
330
2
100
AcDbEntity
  8
0
100
AcDbCircle
 10
284.3837654886552
 20
308.0019223119669
 30
0.0
 40
7.0
  0
LINE
  5
1AA4
330
2
100
AcDbEntity
  8
0
100
AcDbLine
 10
249.8659583702342
 20
268.8928314028744
 30
0.0
 11
270.758315310331
 21
314.2746495846934
 31
0.0
  0
ARC
  5
1AA5
330
2
100
AcDbEntity
  8
0
100
AcDbCircle
 10
284.3837654886552
 20
253.0019223119668
 30
0.0
 40
38.0
100
AcDbArc
 50
155.2801488170998
 51
204.7198511829003
  0
ARC
  5
1AA6
330
2
100
AcDbEntity
  8
0
100
AcDbCircle
 10
284.3837654886552
 20
253.0019223119668
 30
0.0
 40
38.0
100
AcDbArc
 50
335.2801488170998
 51
24.71985118290023
  0
LINE
  5
1AA7
330
2
100
AcDbEntity
  8
0
100
AcDbLine
 10
249.8659583702342
 20
237.1110132210592
 30
0.0
 11
259.4745862771461
 21
216.2394090311388
 31
0.0
  0
ARC
  5
1AA8
330
2
100
AcDbEntity
  8
0
100
AcDbCircle
 10
284.3837654886552
 20
198.0019223119668
 30
0.0
 40
15.0
100
AcDbArc
 50
204.7198511829003
 51
335.2801488170998
  0
LINE
  5
1AA9
330
2
100
AcDbEntity
  8
0
100
AcDbLine
 10
318.9015726070761
 20
237.111013221059
 30
0.0
 11
309.2929447001639
 21
216.2394090311391
 31
0.0
  0
LINE
  5
1AAC
330
2
100
AcDbEntity
  8
MITTE
 48
10.0
100
AcDbLine
 10
284.3837654886552
 20
326.7525048737318
 30
0.0
 11
284.3837654886552
 21
178.4900400371882
 31
0.0
  0
LINE
  5
1AAD
330
2
100
AcDbEntity
  8
MITTE
 48
4.0
100
AcDbLine
 10
276.4231264765642
 20
308.5444840703792
 30
0.0
 11
293.6604674242333
 21
308.5444840703792
 31
0.0
  0
LINE
  5
2B2A
330
2
100
AcDbEntity
  8
0
100
AcDbLine
 10
644.7029971286139
 20
222.001922311967
 30
0.0
 11
765.7029971286139
 21
222.001922311967
 31
0.0
  0
LINE
  5
2B2B
330
2
100
AcDbEntity
  8
0
100
AcDbLine
 10
644.7029971286139
 20
284.0019223119671
 30
0.0
 11
765.7029971286139
 21
284.0019223119671
 31
0.0
  0
LINE
  5
2B31
330
2
100
AcDbEntity
  8
MITTE
 48
15.0
100
AcDbLine
 10
358.2050759778831
 20
253.001922311967
 30
0.0
 11
790.4699169702171
 21
253.001922311967
 31
0.0
  0
LINE
  5
2B9D
330
2
100
AcDbEntity
  8
0
100
AcDbLine
 10
401.5029971286139
 20
262.0019223119671
 30
0.0
 11
363.502997128614
 21
262.0019223119671
 31
0.0
1001
ACAD
1000
ASC_BOUNDS
1002
{
1070
    19
1002
}
  0
LINE
  5
2B9E
330
2
100
AcDbEntity
  8
0
100
AcDbLine
 10
401.5029971286139
 20
244.0019223119671
 30
0.0
 11
363.502997128614
 21
244.0019223119671
 31
0.0
1001
ACAD
1000
ASC_BOUNDS
1002
{
1070
    19
1002
}
  0
LINE
  5
2BA8
330
2
100
AcDbEntity
  8
0
100
AcDbLine
 10
361.502997128614
 20
260.0019223119671
 30
0.0
 11
361.502997128614
 21
246.0019223119671
 31
0.0
1001
ACAD
1000
ASC_BOUNDS
1002
{
1070
    19
1005
0
1005
0
1002
}
  0
LINE
  5
2BA9
330
2
100
AcDbEntity
  8
0
100
AcDbLine
 10
363.502997128614
 20
262.0019223119671
 30
0.0
 11
363.502997128614
 21
244.0019223119671
 31
0.0
  0
LINE
  5
2BAA
330
2
100
AcDbEntity
  8
0
100
AcDbLine
 10
361.502997128614
 20
246.0019223119671
 30
0.0
 11
363.502997128614
 21
244.0019223119671
 31
0.0
1001
ACAD
1000
ASC_BOUNDS
1002
{
1070
    19
1002
}
  0
LINE
  5
2BAB
330
2
100
AcDbEntity
  8
0
100
AcDbLine
 10
361.502997128614
 20
260.0019223119671
 30
0.0
 11
363.502997128614
 21
262.0019223119671
 31
0.0
1001
ACAD
1000
ASC_BOUNDS
1002
{
1070
    19
1002
}
  0
LINE
  5
2BAC
330
2
100
AcDbEntity
  8
0
100
AcDbLine
 10
427.5029971286139
 20
323.0019223119671
 30
0.0
 11
427.5029971286139
 21
183.001922311967
 31
0.0
  0
LINE
  5
2BAD
330
2
100
AcDbEntity
  8
0
100
AcDbLine
 10
407.502997128614
 20
323.0019223119671
 30
0.0
 11
407.502997128614
 21
183.001922311967
 31
0.0
  0
LINE
  5
2BB1
330
2
100
AcDbEntity
  8
0
100
AcDbLine
 10
643.5029971286139
 20
284.0019223119671
 30
0.0
 11
443.702997128614
 21
284.0019223119671
 31
0.0
  0
LINE
  5
2BB2
330
2
100
AcDbEntity
  8
0
100
AcDbLine
 10
643.5029971286139
 20
222.001922311967
 30
0.0
 11
443.702997128614
 21
222.001922311967
 31
0.0
  0
ARC
  5
2BB3
330
2
100
AcDbEntity
  8
0
100
AcDbCircle
 10
432.502997128614
 20
217.0019223119671
 30
0.0
 40
5.0
100
AcDbArc
 50
90.0
 51
180.0
  0
LINE
  5
2BB4
330
2
100
AcDbEntity
  8
0
100
AcDbLine
 10
427.5029971286139
 20
183.001922311967
 30
0.0
 11
407.502997128614
 21
183.001922311967
 31
0.0
  0
LINE
  5
2BB5
330
2
100
AcDbEntity
  8
LINIE
  6
STRICHLINIE
 48
10.0
100
AcDbLine
 10
407.502997128614
 20
192.001922311967
 30
0.0
 11
427.5029971286139
 21
192.001922311967
 31
0.0
  0
LINE
  5
2BB6
330
2
100
AcDbEntity
  8
LINIE
  6
STRICHLINIE
 48
10.0
100
AcDbLine
 10
407.502997128614
 20
206.0019223119671
 30
0.0
 11
427.5029971286139
 21
206.0019223119671
 31
0.0
  0
LINE
  5
2BB7
330
2
100
AcDbEntity
  8
MITTE
 48
5.0
100
AcDbLine
 10
404.2523785061166
 20
199.001922311967
 30
0.0
 11
430.1941275326266
 21
199.001922311967
 31
0.0
  0
LINE
  5
2BBC
330
2
100
AcDbEntity
  8
0
100
AcDbLine
 10
432.502997128614
 20
222.001922311967
 30
0.0
 11
443.5029971286139
 21
222.001922311967
 31
0.0
  0
LINE
  5
2BBD
330
2
100
AcDbEntity
  8
0
100
AcDbLine
 10
432.502997128614
 20
284.0019223119671
 30
0.0
 11
443.5029971286139
 21
284.0019223119671
 31
0.0
  0
LINE
  5
2BBE
330
2
100
AcDbEntity
  8
LINIE
100
AcDbLine
 10
432.502997128614
 20
280.9238690751649
 30
0.0
 11
432.502997128614
 21
225.1747048868451
 31
0.0
  0
LINE
  5
2BBF
330
2
100
AcDbEntity
  8
0
100
AcDbLine
 10
402.5029971286139
 20
283.0019223119671
 30
0.0
 11
402.5029971286139
 21
223.0019223119671
 31
0.0
  0
LINE
  5
2BC0
330
2
100
AcDbEntity
  8
0
100
AcDbLine
 10
401.5029971286139
 20
282.7339731195359
 30
0.0
 11
401.5029971286139
 21
223.2698715043982
 31
0.0
  0
LINE
  5
2BC2
330
2
100
AcDbEntity
  8
0
100
AcDbLine
 10
402.5029971286139
 20
223.0019223119671
 30
0.0
 11
407.1029971286141
 21
223.0019223119671
 31
0.0
  0
LINE
  5
2BC3
330
2
100
AcDbEntity
  8
0
100
AcDbLine
 10
402.5029971286139
 20
223.0019223119671
 30
0.0
 11
401.5029971286139
 21
223.2698715043982
 31
0.0
  0
LINE
  5
2BC4
330
2
100
AcDbEntity
  8
0
100
AcDbLine
 10
369.4710481654263
 20
264.4019223119672
 30
0.0
 11
389.5349460918014
 21
264.4019223119672
 31
0.0
  0
LINE
  5
2BC5
330
2
100
AcDbEntity
  8
MITTE
 48
5.0
100
AcDbLine
 10
379.502997128614
 20
268.888290336105
 30
0.0
 11
379.502997128614
 21
257.5766473800786
 31
0.0
1001
ACAD
1000
ASC_BOUNDS
1002
{
1070
    19
1005
0
1005
0
1002
}
  0
ARC
  5
2BC6
330
2
100
AcDbEntity
  8
0
100
AcDbCircle
 10
379.502997128614
 20
267.501922311967
 30
0.0
 40
10.5
100
AcDbArc
 50
197.1718151492265
 51
211.5881355052006
1001
ACAD
1000
ASC_BOUNDS
1002
{
1070
    19
1002
}
  0
ARC
  5
2BC7
330
2
100
AcDbEntity
  8
0
100
AcDbCircle
 10
379.502997128614
 20
267.501922311967
 30
0.0
 40
10.5
100
AcDbArc
 50
328.4118644947994
 51
342.8281848507735
1001
ACAD
1000
ASC_BOUNDS
1002
{
1070
    19
1002
}
  0
ARC
  5
2BC8
330
2
100
AcDbEntity
  8
0
100
AcDbCircle
 10
407.1029971286141
 20
222.601922311967
 30
0.0
 40
0.4
100
AcDbArc
 50
0.0
 51
90.0
  0
LINE
  5
2BC9
330
2
100
AcDbEntity
  8
0
100
AcDbLine
 10
402.5029971286139
 20
283.0019223119671
 30
0.0
 11
407.1029971286141
 21
283.0019223119671
 31
0.0
  0
LINE
  5
2BCA
330
2
100
AcDbEntity
  8
0
100
AcDbLine
 10
402.5029971286139
 20
283.0019223119671
 30
0.0
 11
401.5029971286139
 21
282.7339731195359
 31
0.0
  0
ARC
  5
2BCB
330
2
100
AcDbEntity
  8
0
100
AcDbCircle
 10
407.1029971286141
 20
283.4019223119672
 30
0.0
 40
0.4
100
AcDbArc
 50
270.0
 51
0.0
  0
ARC
  5
2BCC
330
2
100
AcDbEntity
  8
0
100
AcDbCircle
 10
432.502997128614
 20
289.0019223119671
 30
0.0
 40
5.0
100
AcDbArc
 50
180.0
 51
270.0
  0
LINE
  5
2BCD
330
2
100
AcDbEntity
  8
LINIE
  6
STRICHLINIE
 48
10.0
100
AcDbLine
 10
407.502997128614
 20
300.0019223119671
 30
0.0
 11
427.5029971286139
 21
300.0019223119671
 31
0.0
  0
LINE
  5
2BCE
330
2
100
AcDbEntity
  8
LINIE
  6
STRICHLINIE
 48
10.0
100
AcDbLine
 10
407.502997128614
 20
314.0019223119671
 30
0.0
 11
427.5029971286139
 21
314.0019223119671
 31
0.0
  0
LINE
  5
2BCF
330
2
100
AcDbEntity
  8
MITTE
 48
5.0
100
AcDbLine
 10
404.2523785061164
 20
307.0019223119671
 30
0.0
 11
430.1941275326264
 21
307.0019223119671
 31
0.0
  0
LINE
  5
2BD0
330
2
100
AcDbEntity
  8
0
100
AcDbLine
 10
443.702997128614
 20
222.001922311967
 30
0.0
 11
443.702997128614
 21
284.0019223119671
 31
0.0
  0
LINE
  5
2BD1
330
2
100
AcDbEntity
  8
0
100
AcDbLine
 10
443.5029971286139
 20
284.0019223119671
 30
0.0
 11
443.5029971286139
 21
222.001922311967
 31
0.0
  0
LINE
  5
2BD2
330
2
100
AcDbEntity
  8
0
100
AcDbLine
 10
443.5029971286139
 20
226.2279223119672
 30
0.0
 11
443.702997128614
 21
226.2279223119672
 31
0.0
  0
LINE
  5
2BD3
330
2
100
AcDbEntity
  8
0
100
AcDbLine
 10
443.5029971286139
 20
279.7759223119669
 30
0.0
 11
443.702997128614
 21
279.7759223119669
 31
0.0
  0
LINE
  5
2BD8
330
2
100
AcDbEntity
  8
0
100
AcDbLine
 10
703.6029971286138
 20
211.6096174665536
 30
0.0
 11
709.6029971286139
 21
222.001922311967
 31
0.0
1001
ACAD
1000
ASC_BOUNDS
1002
{
1070
    16
1005
0
1005
0
1002
}
  0
LINE
  5
2BD9
330
2
100
AcDbEntity
  8
0
100
AcDbLine
 10
704.1029971286138
 20
212.4756428703381
 30
0.0
 11
698.6029971286138
 21
222.001922311967
 31
0.0
1001
ACAD
1000
ASC_BOUNDS
1002
{
1070
    16
1005
0
1005
0
1002
}
  0
LINE
  5
2BDA
330
2
100
AcDbEntity
  8
0
100
AcDbLine
 10
740.6029971286138
 20
211.609617466554
 30
0.0
 11
734.6029971286139
 21
222.001922311967
 31
0.0
1001
ACAD
1000
ASC_BOUNDS
1002
{
1070
    16
1005
0
1005
0
1002
}
  0
LINE
  5
2BDB
330
2
100
AcDbEntity
  8
0
100
AcDbLine
 10
667.6029971286139
 20
211.6096174665536
 30
0.0
 11
673.6029971286138
 21
222.001922311967
 31
0.0
1001
ACAD
1000
ASC_BOUNDS
1002
{
1070
    16
1005
0
1005
0
1002
}
  0
LINE
  5
2BDC
330
2
100
AcDbEntity
  8
MITTE
 48
10.0
100
AcDbLine
 10
686.1029971286138
 20
227.0255272665027
 30
0.0
 11
686.1029971286138
 21
180.7100455995298
 31
0.0
  0
LINE
  5
2BDD
330
2
100
AcDbEntity
  8
MITTE
 48
10.0
100
AcDbLine
 10
722.1029971286139
 20
227.0255272665027
 30
0.0
 11
722.1029971286139
 21
181.883724284444
 31
0.0
  0
LINE
  5
2BDE
330
2
100
AcDbEntity
  8
0
100
AcDbLine
 10
704.6029971286138
 20
211.609617466554
 30
0.0
 11
667.6029971286139
 21
211.6096174665536
 31
0.0
  0
LINE
  5
2BDF
330
2
100
AcDbEntity
  8
0
100
AcDbLine
 10
703.1029971286138
 20
190.001922311967
 30
0.0
 11
669.1029971286138
 21
190.001922311967
 31
0.0
  0
ARC
  5
2BE0
330
2
100
AcDbEntity
  8
0
100
AcDbCircle
 10
686.1029971286138
 20
218.351922311967
 30
0.0
 40
28.35000000000002
100
AcDbArc
 50
255.0842201524099
 51
284.91577984759
  0
ARC
  5
2BE1
330
2
100
AcDbEntity
  8
0
100
AcDbCircle
 10
686.1029971286138
 20
183.3320085514665
 30
0.0
 40
28.35000000000002
100
AcDbArc
 50
75.08422015240994
 51
104.91577984759
  0
LINE
  5
2BE2
330
2
100
AcDbEntity
  8
0
100
AcDbLine
 10
667.6029971286139
 20
190.8679477157516
 30
0.0
 11
667.6029971286139
 21
211.6096174665536
 31
0.0
1001
ACAD
1000
ASC_BOUNDS
1002
{
1070
    16
1005
0
1005
0
1002
}
  0
LINE
  5
2BE3
330
2
100
AcDbEntity
  8
0
100
AcDbLine
 10
675.0291951441099
 20
190.9571691646945
 30
0.0
 11
675.0291951441099
 21
210.726761698739
 31
0.0
  0
LINE
  5
2BE4
330
2
100
AcDbEntity
  8
0
100
AcDbLine
 10
675.0291951441099
 20
190.9571691646945
 30
0.0
 11
675.0291951441099
 21
210.7267616987392
 31
0.0
  0
LINE
  5
2BE5
330
2
100
AcDbEntity
  8
0
100
AcDbLine
 10
678.8057373689505
 20
190.9571691646945
 30
0.0
 11
678.8057373689505
 21
210.726761698739
 31
0.0
  0
ARC
  5
2BE6
330
2
100
AcDbEntity
  8
0
100
AcDbCircle
 10
671.3805652642784
 20
197.9212027343881
 30
0.0
 40
7.861950366150809
100
AcDbArc
 50
241.2827599101505
 51
297.6511578198469
  0
LINE
  5
2BE7
330
2
100
AcDbEntity
  8
0
100
AcDbLine
 10
669.1029971286138
 20
190.001922311967
 30
0.0
 11
667.6029971286139
 21
190.8679477157516
 31
0.0
1001
ACAD
1000
ASC_BOUNDS
1002
{
1070
    16
1005
0
1005
0
1002
}
  0
LINE
  5
2BE8
330
2
100
AcDbEntity
  8
0
100
AcDbLine
 10
678.8057373689505
 20
190.9571691646945
 30
0.0
 11
675.0291951441099
 21
190.9571691646945
 31
0.0
  0
ARC
  5
2BE9
330
2
100
AcDbEntity
  8
0
100
AcDbCircle
 10
671.3805652642784
 20
203.7627281290454
 30
0.0
 40
7.861950366150809
100
AcDbArc
 50
62.34884218015303
 51
118.7172400898494
  0
LINE
  5
2BEA
330
2
100
AcDbEntity
  8
0
100
AcDbLine
 10
678.8057373689505
 20
210.726761698739
 30
0.0
 11
675.0291951441099
 21
210.726761698739
 31
0.0
  0
LINE
  5
2BEC
330
2
100
AcDbEntity
  8
0
100
AcDbLine
 10
714.8057373689505
 20
210.726761698739
 30
0.0
 11
711.0291951441099
 21
210.726761698739
 31
0.0
  0
LINE
  5
2BED
330
2
100
AcDbEntity
  8
0
100
AcDbLine
 10
714.8057373689505
 20
190.9571691646945
 30
0.0
 11
711.0291951441099
 21
190.9571691646945
 31
0.0
  0
LINE
  5
2BEE
330
2
100
AcDbEntity
  8
0
100
AcDbLine
 10
739.1029971286139
 20
190.001922311967
 30
0.0
 11
705.1029971286139
 21
190.001922311967
 31
0.0
  0
LINE
  5
2BEF
330
2
100
AcDbEntity
  8
0
100
AcDbLine
 10
740.6029971286138
 20
211.609617466554
 30
0.0
 11
703.6029971286138
 21
211.6096174665536
 31
0.0
  0
LINE
  5
2BF0
330
2
100
AcDbEntity
  8
0
100
AcDbLine
 10
703.6029971286138
 20
190.8679477157516
 30
0.0
 11
703.6029971286138
 21
211.6096174665536
 31
0.0
1001
ACAD
1000
ASC_BOUNDS
1002
{
1070
    16
1005
0
1005
0
1002
}
  0
LINE
  5
2BF1
330
2
100
AcDbEntity
  8
0
100
AcDbLine
 10
693.4002568882772
 20
190.9571691646945
 30
0.0
 11
693.4002568882772
 21
210.726761698739
 31
0.0
  0
LINE
  5
2BF2
330
2
100
AcDbEntity
  8
0
100
AcDbLine
 10
697.1767991131177
 20
190.9571691646945
 30
0.0
 11
697.1767991131177
 21
210.726761698739
 31
0.0
  0
LINE
  5
2BF3
330
2
100
AcDbEntity
  8
0
100
AcDbLine
 10
711.0291951441099
 20
190.9571691646945
 30
0.0
 11
711.0291951441099
 21
210.7267616987392
 31
0.0
  0
LINE
  5
2BF4
330
2
100
AcDbEntity
  8
0
100
AcDbLine
 10
711.0291951441099
 20
190.9571691646945
 30
0.0
 11
711.0291951441099
 21
210.726761698739
 31
0.0
  0
ARC
  5
2BF5
330
2
100
AcDbEntity
  8
0
100
AcDbCircle
 10
700.8254289929493
 20
197.9212027343881
 30
0.0
 40
7.861950366150809
100
AcDbArc
 50
242.348842180153
 51
293.1087487042749
  0
LINE
  5
2BF6
330
2
100
AcDbEntity
  8
0
100
AcDbLine
 10
693.4002568882772
 20
190.9571691646945
 30
0.0
 11
697.1767991131177
 21
190.9571691646945
 31
0.0
  0
ARC
  5
2BF7
330
2
100
AcDbEntity
  8
0
100
AcDbCircle
 10
707.3805652642785
 20
197.9212027343881
 30
0.0
 40
7.861950366150809
100
AcDbArc
 50
241.2827599101505
 51
297.6511578198469
  0
LINE
  5
2BF8
330
2
100
AcDbEntity
  8
0
100
AcDbLine
 10
703.1029971286138
 20
190.001922311967
 30
0.0
 11
704.1029971286138
 21
190.5792725811566
 31
0.0
1001
ACAD
1000
ASC_BOUNDS
1002
{
1070
    16
1005
0
1005
0
1002
}
  0
LINE
  5
2BF9
330
2
100
AcDbEntity
  8
0
100
AcDbLine
 10
705.1029971286139
 20
190.001922311967
 30
0.0
 11
703.6029971286138
 21
190.8679477157516
 31
0.0
1001
ACAD
1000
ASC_BOUNDS
1002
{
1070
    16
1005
0
1005
0
1002
}
  0
ARC
  5
2BFA
330
2
100
AcDbEntity
  8
0
100
AcDbCircle
 10
700.8254289929493
 20
203.7627281290454
 30
0.0
 40
7.861950366150809
100
AcDbArc
 50
69.31116783272692
 51
117.651157819847
  0
LINE
  5
2BFB
330
2
100
AcDbEntity
  8
0
100
AcDbLine
 10
693.4002568882772
 20
210.726761698739
 30
0.0
 11
697.1767991131177
 21
210.726761698739
 31
0.0
  0
ARC
  5
2BFC
330
2
100
AcDbEntity
  8
0
100
AcDbCircle
 10
707.3805652642785
 20
203.7627281290454
 30
0.0
 40
7.861950366150809
100
AcDbArc
 50
62.34884218015303
 51
118.7172400898494
  0
LINE
  5
2BFD
330
2
100
AcDbEntity
  8
0
100
AcDbLine
 10
740.6029971286138
 20
190.8679477157516
 30
0.0
 11
740.6029971286138
 21
211.609617466554
 31
0.0
1001
ACAD
1000
ASC_BOUNDS
1002
{
1070
    16
1005
0
1005
0
1002
}
  0
LINE
  5
2BFE
330
2
100
AcDbEntity
  8
0
100
AcDbLine
 10
733.1767991131178
 20
190.9571691646945
 30
0.0
 11
733.1767991131178
 21
210.726761698739
 31
0.0
  0
LINE
  5
2BFF
330
2
100
AcDbEntity
  8
0
100
AcDbLine
 10
729.4002568882772
 20
190.9571691646945
 30
0.0
 11
729.4002568882772
 21
210.726761698739
 31
0.0
  0
LINE
  5
2C00
330
2
100
AcDbEntity
  8
0
100
AcDbLine
 10
714.8057373689505
 20
190.9571691646945
 30
0.0
 11
714.8057373689505
 21
210.726761698739
 31
0.0
  0
LINE
  5
2C01
330
2
100
AcDbEntity
  8
0
100
AcDbLine
 10
729.4002568882772
 20
190.9571691646945
 30
0.0
 11
733.1767991131178
 21
190.9571691646945
 31
0.0
  0
ARC
  5
2C02
330
2
100
AcDbEntity
  8
0
100
AcDbCircle
 10
722.1029971286139
 20
218.351922311967
 30
0.0
 40
28.35000000000002
100
AcDbArc
 50
255.0842201524099
 51
284.91577984759
  0
LINE
  5
2C03
330
2
100
AcDbEntity
  8
0
100
AcDbLine
 10
739.1029971286139
 20
190.001922311967
 30
0.0
 11
740.6029971286138
 21
190.8679477157516
 31
0.0
1001
ACAD
1000
ASC_BOUNDS
1002
{
1070
    16
1005
0
1005
0
1002
}
  0
ARC
  5
2C04
330
2
100
AcDbEntity
  8
0
100
AcDbCircle
 10
736.8254289929494
 20
197.9212027343881
 30
0.0
 40
7.861950366150809
100
AcDbArc
 50
242.348842180153
 51
298.7172400898495
  0
LINE
  5
2C05
330
2
100
AcDbEntity
  8
0
100
AcDbLine
 10
729.4002568882772
 20
210.726761698739
 30
0.0
 11
733.1767991131178
 21
210.726761698739
 31
0.0
  0
ARC
  5
2C06
330
2
100
AcDbEntity
  8
0
100
AcDbCircle
 10
722.1029971286139
 20
183.3320085514665
 30
0.0
 40
28.35000000000002
100
AcDbArc
 50
75.08422015240994
 51
104.91577984759
  0
ARC
  5
2C07
330
2
100
AcDbEntity
  8
0
100
AcDbCircle
 10
736.8254289929494
 20
203.7627281290454
 30
0.0
 40
7.861950366150809
100
AcDbArc
 50
61.28275991015053
 51
117.651157819847
  0
LINE
  5
2C08
330
2
100
AcDbEntity
  8
0
100
AcDbLine
 10
643.5029971286139
 20
284.0019223119671
 30
0.0
 11
643.5029971286139
 21
222.001922311967
 31
0.0
  0
LINE
  5
2C09
330
2
100
AcDbEntity
  8
0
100
AcDbLine
 10
643.7029971286139
 20
283.7339731195359
 30
0.0
 11
643.7029971286139
 21
222.2698715043982
 31
0.0
  0
LINE
  5
2C0A
330
2
100
AcDbEntity
  8
0
100
AcDbLine
 10
644.7029971286139
 20
284.0019223119671
 30
0.0
 11
644.7029971286139
 21
222.001922311967
 31
0.0
  0
LINE
  5
2C0B
330
2
100
AcDbEntity
  8
0
100
AcDbLine
 10
643.7029971286139
 20
222.2698715043982
 30
0.0
 11
644.7029971286139
 21
222.001922311967
 31
0.0
  0
LINE
  5
2C0C
330
2
100
AcDbEntity
  8
0
100
AcDbLine
 10
643.702997128614
 20
226.2279223119672
 30
0.0
 11
643.5029971286139
 21
226.2279223119669
 31
0.0
  0
LINE
  5
2C0D
330
2
100
AcDbEntity
  8
0
100
AcDbLine
 10
643.7029971286139
 20
279.7759223119669
 30
0.0
 11
643.5029971286139
 21
279.7759223119669
 31
0.0
  0
LINE
  5
2C0E
330
2
100
AcDbEntity
  8
0
100
AcDbLine
 10
643.7029971286139
 20
283.7339731195359
 30
0.0
 11
644.7029971286139
 21
284.0019223119671
 31
0.0
  0
LINE
  5
2C0F
330
2
100
AcDbEntity
  8
0
100
AcDbLine
 10
427.5029971286139
 20
323.0019223119671
 30
0.0
 11
407.502997128614
 21
323.0019223119671
 31
0.0
  0
LINE
  5
2C2A
330
2
100
AcDbEntity
  8
0
100
AcDbLine
 10
767.7029971286138
 20
282.001922311967
 30
0.0
 11
767.7029971286138
 21
224.001922311967
 31
0.0
  0
LINE
  5
2C2B
330
2
100
AcDbEntity
  8
0
100
AcDbLine
 10
765.7029971286139
 20
284.0019223119671
 30
0.0
 11
765.7029971286139
 21
222.001922311967
 31
0.0
  0
ARC
  5
2C2C
330
2
100
AcDbEntity
  8
0
100
AcDbCircle
 10
782.1029971286138
 20
241.601922311967
 30
0.0
 40
1.6
100
AcDbArc
 50
270.0
 51
0.0
  0
ARC
  5
2C2F
330
2
100
AcDbEntity
  8
0
100
AcDbCircle
 10
782.1029971286138
 20
264.4019223119672
 30
0.0
 40
1.6
100
AcDbArc
 50
0.0
 51
90.0
  0
LINE
  5
2C30
330
2
100
AcDbEntity
  8
0
100
AcDbLine
 10
765.7029971286139
 20
222.001922311967
 30
0.0
 11
767.7029971286138
 21
224.001922311967
 31
0.0
  0
LINE
  5
2C31
330
2
100
AcDbEntity
  8
0
100
AcDbLine
 10
767.7029971286137
 20
240.0019223119671
 30
0.0
 11
782.1029971286138
 21
240.0019223119671
 31
0.0
  0
LINE
  5
2C32
330
2
100
AcDbEntity
  8
0
100
AcDbLine
 10
767.7029971286137
 20
266.0019223119671
 30
0.0
 11
782.1029971286138
 21
266.0019223119671
 31
0.0
  0
LINE
  5
2C33
330
2
100
AcDbEntity
  8
0
100
AcDbLine
 10
783.7029971286138
 20
264.4019223119672
 30
0.0
 11
783.7029971286138
 21
241.601922311967
 31
0.0
  0
LINE
  5
2C36
330
2
100
AcDbEntity
  8
0
100
AcDbLine
 10
765.7029971286139
 20
284.0019223119671
 30
0.0
 11
767.7029971286138
 21
282.001922311967
 31
0.0
  0
LINE
  5
2C74
330
2
100
AcDbEntity
  8
MITTE
 48
12.0
100
AcDbLine
 10
860.6971060184482
 20
328.5989281035704
 30
0.0
 11
860.6971060184482
 21
178.4900400371884
 31
0.0
  0
ARC
  5
2C75
330
2
100
AcDbEntity
  8
0
100
AcDbCircle
 10
860.6971060184482
 20
308.0019223119671
 30
0.0
 40
15.0
100
AcDbArc
 50
24.71985118290759
 51
155.2801488170924
  0
LINE
  5
2C77
330
2
100
AcDbEntity
  8
0
100
AcDbLine
 10
895.2149131368692
 20
237.1110132210592
 30
0.0
 11
874.3225561967722
 21
191.7291950392402
 31
0.0
  0
LINE
  5
2C78
330
2
100
AcDbEntity
  8
0
100
AcDbLine
 10
826.1792989000273
 20
237.1110132210595
 30
0.0
 11
847.0716558401241
 21
191.7291950392402
 31
0.0
  0
LINE
  5
2C79
330
2
100
AcDbEntity
  8
MITTE
 48
4.0
100
AcDbLine
 10
852.7364670063574
 20
198.001922311967
 30
0.0
 11
869.6920618189135
 21
198.001922311967
 31
0.0
  0
CIRCLE
  5
2C7A
330
2
100
AcDbEntity
  8
0
100
AcDbCircle
 10
860.6971060184482
 20
198.001922311967
 30
0.0
 40
7.0
  0
ARC
  5
2C7C
330
2
100
AcDbEntity
  8
0
100
AcDbCircle
 10
860.6971060184482
 20
198.001922311967
 30
0.0
 40
15.0
100
AcDbArc
 50
204.7198511829017
 51
335.2801488170984
  0
LINE
  5
2C7D
330
2
100
AcDbEntity
  8
MITTE
 48
4.0
100
AcDbLine
 10
852.7364670063574
 20
308.0019223119671
 30
0.0
 11
869.9738079540265
 21
308.0019223119671
 31
0.0
  0
CIRCLE
  5
2C7E
330
2
100
AcDbEntity
  8
0
100
AcDbCircle
 10
860.6971060184482
 20
253.001922311967
 30
0.0
 40
7.000000000000085
  0
CIRCLE
  5
2C7F
330
2
100
AcDbEntity
  8
0
100
AcDbCircle
 10
860.6971060184482
 20
253.001922311967
 30
0.0
 40
9.0
  0
CIRCLE
  5
2C80
330
2
100
AcDbEntity
  8
0
100
AcDbCircle
 10
860.6971060184482
 20
253.001922311967
 30
0.0
 40
30.0
  0
LINE
  5
2C81
330
2
100
AcDbEntity
  8
MITTE
 48
12.0
100
AcDbLine
 10
820.26430564442
 20
253.001922311967
 30
0.0
 11
901.1005266637905
 21
253.001922311967
 31
0.0
  0
CIRCLE
  5
2C82
330
2
100
AcDbEntity
  8
0
100
AcDbCircle
 10
860.6971060184482
 20
308.0019223119671
 30
0.0
 40
7.0
  0
LINE
  5
2C83
330
2
100
AcDbEntity
  8
0
100
AcDbLine
 10
826.1792989000273
 20
268.8928314028747
 30
0.0
 11
847.0716558401241
 21
314.2746495846936
 31
0.0
  0
ARC
  5
2C84
330
2
100
AcDbEntity
  8
0
100
AcDbCircle
 10
860.6971060184482
 20
253.001922311967
 30
0.0
 40
38.0
100
AcDbArc
 50
155.2801488170924
 51
204.7198511829076
  0
LINE
  5
2C85
330
2
100
AcDbEntity
  8
0
100
AcDbLine
 10
863.6971060184482
 20
264.4019223119672
 30
0.0
 11
863.6971060184482
 21
261.4872036862057
 31
0.0
  0
LINE
  5
2C86
330
2
100
AcDbEntity
  8
0
100
AcDbLine
 10
857.6971060184483
 20
264.4019223119672
 30
0.0
 11
857.6971060184483
 21
261.4872036862057
 31
0.0
  0
LINE
  5
2C87
330
2
100
AcDbEntity
  8
0
100
AcDbLine
 10
863.6971060184482
 20
264.4019223119672
 30
0.0
 11
857.6971060184483
 21
264.4019223119672
 31
0.0
  0
LINE
  5
2C88
330
2
100
AcDbEntity
  8
0
100
AcDbLine
 10
895.2149131368692
 20
268.8928314028747
 30
0.0
 11
874.3225561967724
 21
314.2746495846936
 31
0.0
  0
ARC
  5
2C89
330
2
100
AcDbEntity
  8
0
100
AcDbCircle
 10
860.6971060184482
 20
253.001922311967
 30
0.0
 40
38.0
100
AcDbArc
 50
335.2801488170924
 51
24.71985118290759
  0
LINE
  5
3171
330
2
100
AcDbEntity
  8
MITTE
 48
12.0
100
AcDbLine
 10
320.9785544638221
 20
253.0019223119668
 30
0.0
 11
248.8170270288447
 21
253.0019223119668
 31
0.0
  0
CIRCLE
  5
3172
330
2
100
AcDbEntity
  8
0
100
AcDbCircle
 10
284.3837654886552
 20
253.0019223119668
 30
0.0
 40
31.0
  0
LINE
  5
3173
330
2
100
AcDbEntity
  8
MITTE
 48
12.0
100
AcDbLine
 10
288.8412733943706
 20
226.3649054148136
 30
0.0
 11
295.3404499122389
 21
187.5273579811758
 31
0.0
  0
LINE
  5
3174
330
2
100
AcDbEntity
  8
MITTE
 48
12.0
100
AcDbLine
 10
279.9901502348193
 20
226.746712847065
 30
0.0
 11
273.4270810650714
 21
187.5273579811758
 31
0.0
  0
LINE
  5
3177
330
2
100
AcDbEntity
  8
0
100
AcDbLine
 10
284.3799811716949
 20
190.713615997483
 30
0.0
 11
277.7563516405671
 21
189.6052005501553
 31
0.0
  0
ARC
  5
3178
330
2
100
AcDbEntity
  8
0
100
AcDbCircle
 10
278.6956260254333
 20
197.7917799733009
 30
0.0
 40
7.861950366150809
100
AcDbArc
 50
250.7827599101538
 51
300.2693063303286
  0
ARC
  5
3179
330
2
100
AcDbEntity
  8
0
100
AcDbCircle
 10
273.143264638164
 20
185.8313378912214
 30
0.0
 40
28.35000000000002
100
AcDbArc
 50
65.58422015240722
 51
95.41577984759319
  0
ARC
  5
317A
330
2
100
AcDbEntity
  8
0
100
AcDbCircle
 10
278.9232175617822
 20
220.370974600279
 30
0.0
 40
28.35000000000002
100
AcDbArc
 50
245.5842201524072
 51
275.4157798475932
  0
LINE
  5
317B
330
2
100
AcDbEntity
  8
0
100
AcDbLine
 10
257.477262709499
 20
195.2155870963297
 30
0.0
 11
291.0109731617644
 21
189.6039684970667
 31
0.0
  0
LINE
  5
317C
330
2
100
AcDbEntity
  8
0
100
AcDbLine
 10
259.5641326606251
 20
216.7745171184956
 30
0.0
 11
296.0566999175025
 21
210.6677557016503
 31
0.0
  0
LINE
  5
317F
330
2
100
AcDbEntity
  8
0
100
AcDbLine
 10
259.5641326606251
 20
216.7745171184956
 30
0.0
 11
267.1970713039577
 21
226.0340121191482
 31
0.0
1001
ACAD
1000
ASC_BOUNDS
1002
{
1070
    16
1005
0
1005
0
1002
}
  0
ARC
  5
3180
330
2
100
AcDbEntity
  8
0
100
AcDbCircle
 10
261.994783423047
 20
208.4117645712879
 30
0.0
 40
7.861950366150809
100
AcDbArc
 50
52.84884218015643
 51
109.2172400898462
  0
ARC
  5
3181
330
2
100
AcDbEntity
  8
0
100
AcDbCircle
 10
261.0306536420849
 20
202.6503521835234
 30
0.0
 40
7.861950366150809
100
AcDbArc
 50
231.7827599101544
 51
288.1511578198468
  0
LINE
  5
3182
330
2
100
AcDbEntity
  8
0
100
AcDbLine
 10
256.1407697267023
 20
196.3173068914388
 30
0.0
 11
259.5641326606251
 21
216.7745171184956
 31
0.0
1001
ACAD
1000
ASC_BOUNDS
1002
{
1070
    16
1005
0
1005
0
1002
}
  0
LINE
  5
3183
330
2
100
AcDbEntity
  8
0
100
AcDbLine
 10
257.477262709499
 20
195.2155870963297
 30
0.0
 11
256.1407697267023
 21
196.3173068914388
 31
0.0
1001
ACAD
1000
ASC_BOUNDS
1002
{
1070
    16
1005
0
1005
0
1002
}
  0
LINE
  5
3184
330
2
100
AcDbEntity
  8
0
100
AcDbLine
 10
263.4798476900901
 20
195.1796285187747
 30
0.0
 11
266.742771606675
 21
214.6780929833608
 31
0.0
  0
LINE
  5
3185
330
2
100
AcDbEntity
  8
0
100
AcDbLine
 10
267.2045969100472
 20
194.556319266133
 30
0.0
 11
270.4675208266326
 21
214.054783730719
 31
0.0
  0
LINE
  5
3186
330
2
100
AcDbEntity
  8
0
100
AcDbLine
 10
267.2045969100477
 20
194.556319266133
 30
0.0
 11
263.4798476900901
 21
195.1796285187747
 31
0.0
  0
LINE
  5
3187
330
2
100
AcDbEntity
  8
0
100
AcDbLine
 10
276.1339878187523
 20
190.2117775276824
 30
0.0
 11
275.810019520442
 21
192.1477357399315
 31
0.0
1001
ACAD
1000
ASC_BOUNDS
1002
{
1070
    16
1005
0
1005
0
1002
}
  0
LINE
  5
3188
330
2
100
AcDbEntity
  8
0
100
AcDbLine
 10
277.7563516405671
 20
189.6052005501553
 30
0.0
 11
276.1339878187523
 21
190.2117775276824
 31
0.0
1001
ACAD
1000
ASC_BOUNDS
1002
{
1070
    16
1005
0
1005
0
1002
}
  0
LINE
  5
3189
330
2
100
AcDbEntity
  8
0
100
AcDbLine
 10
270.4675208266326
 20
214.054783730719
 30
0.0
 11
266.742771606675
 21
214.6780929833608
 31
0.0
  0
LINE
  5
318A
330
2
100
AcDbEntity
  8
0
100
AcDbLine
 10
267.1970713039577
 20
226.0340121191482
 30
0.0
 11
269.9328102073623
 21
225.5762064332869
 31
0.0
  0
LINE
  5
3190
330
2
100
AcDbEntity
  8
0
100
AcDbLine
 10
298.2998039756994
 20
214.0560157838077
 30
0.0
 11
302.0245531956571
 21
214.6793250364492
 31
0.0
  0
LINE
  5
3191
330
2
100
AcDbEntity
  8
0
100
AcDbLine
 10
301.5702534983739
 20
226.0352441722369
 30
0.0
 11
298.8382423821158
 21
225.5780623040028
 31
0.0
  0
ARC
  5
3192
330
2
100
AcDbEntity
  8
0
100
AcDbCircle
 10
289.8441072405499
 20
220.3722066533674
 30
0.0
 40
28.35000000000002
100
AcDbArc
 50
276.3208831749367
 51
294.4157798475928
  0
LINE
  5
3193
330
2
100
AcDbEntity
  8
0
100
AcDbLine
 10
301.5627278922843
 20
194.5575513192216
 30
0.0
 11
298.2998039756994
 21
214.0560157838077
 31
0.0
  0
LINE
  5
3194
330
2
100
AcDbEntity
  8
0
100
AcDbLine
 10
311.2900620928326
 20
195.2168191494181
 30
0.0
 11
292.9577295117892
 21
192.1490387847582
 31
0.0
  0
LINE
  5
3195
330
2
100
AcDbEntity
  8
0
100
AcDbLine
 10
309.203192141707
 20
216.7757491715843
 30
0.0
 11
294.681585729139
 21
214.3456656664516
 31
0.0
  0
LINE
  5
3196
330
2
100
AcDbEntity
  8
0
100
AcDbLine
 10
296.0566999175025
 20
210.6677557016503
 30
0.0
 11
291.8542113423887
 21
221.9078219726311
 31
0.0
1001
ACAD
1000
ASC_BOUNDS
1002
{
1070
    16
1005
0
1005
0
1002
}
  0
ARC
  5
3197
330
2
100
AcDbEntity
  8
0
100
AcDbCircle
 10
291.0358285578614
 20
203.5519603079769
 30
0.0
 40
7.861950366150809
100
AcDbArc
 50
51.78275991015439
 51
108.1511578198468
  0
ARC
  5
3198
330
2
100
AcDbEntity
  8
0
100
AcDbCircle
 10
290.0716987768987
 20
197.7905479202125
 30
0.0
 40
7.861950366150809
100
AcDbArc
 50
232.8488421801564
 51
289.2172400898462
  0
LINE
  5
3199
330
2
100
AcDbEntity
  8
0
100
AcDbLine
 10
281.5989613733136
 20
192.1475287607811
 30
0.0
 11
284.8618852898985
 21
211.6459932253672
 31
0.0
  0
LINE
  5
319A
330
2
100
AcDbEntity
  8
0
100
AcDbLine
 10
281.5989613733131
 20
192.1475287607811
 30
0.0
 11
285.3237105932712
 21
191.5242195081396
 31
0.0
  0
LINE
  5
319B
330
2
100
AcDbEntity
  8
0
100
AcDbLine
 10
285.3237105932712
 20
191.5242195081396
 30
0.0
 11
288.5866345098561
 21
211.0226839727256
 31
0.0
  0
LINE
  5
319C
330
2
100
AcDbEntity
  8
0
100
AcDbLine
 10
285.3237105932712
 20
191.5242195081396
 30
0.0
 11
288.5866345098561
 21
211.0226839727254
 31
0.0
  0
LINE
  5
319D
330
2
100
AcDbEntity
  8
0
100
AcDbLine
 10
284.8618852898985
 20
211.6459932253672
 30
0.0
 11
288.5866345098561
 21
211.0226839727256
 31
0.0
  0
LINE
  5
319E
330
2
100
AcDbEntity
  8
0
100
AcDbLine
 10
292.6333369835798
 20
190.2105454745938
 30
0.0
 11
296.0566999175025
 21
210.6677557016503
 31
0.0
1001
ACAD
1000
ASC_BOUNDS
1002
{
1070
    16
1005
0
1005
0
1002
}
  0
LINE
  5
319F
330
2
100
AcDbEntity
  8
0
100
AcDbLine
 10
291.0109731617644
 20
189.6039684970667
 30
0.0
 11
292.6333369835798
 21
190.2105454745938
 31
0.0
1001
ACAD
1000
ASC_BOUNDS
1002
{
1070
    16
1005
0
1005
0
1002
}
  0
LINE
  5
31A0
330
2
100
AcDbEntity
  8
0
100
AcDbLine
 10
289.1184724389845
 20
222.3656276584923
 30
0.0
 11
291.8542113423887
 21
221.9078219726311
 31
0.0
  0
ARC
  5
31A1
330
2
100
AcDbEntity
  8
0
100
AcDbCircle
 10
295.624060164168
 20
185.8325699443101
 30
0.0
 40
28.35000000000002
100
AcDbArc
 50
84.58422015240678
 51
91.77155881040951
  0
LINE
  5
31A2
330
2
100
AcDbEntity
  8
0
100
AcDbLine
 10
312.6265550756297
 20
196.3185389445275
 30
0.0
 11
309.203192141707
 21
216.7757491715843
 31
0.0
1001
ACAD
1000
ASC_BOUNDS
1002
{
1070
    16
1005
0
1005
0
1002
}
  0
LINE
  5
31A3
330
2
100
AcDbEntity
  8
0
100
AcDbLine
 10
305.287477112242
 20
195.1808605718634
 30
0.0
 11
302.0245531956571
 21
214.6793250364492
 31
0.0
  0
ARC
  5
31A4
330
2
100
AcDbEntity
  8
0
100
AcDbCircle
 10
307.7366711602472
 20
202.6515842366118
 30
0.0
 40
7.861950366150809
100
AcDbArc
 50
251.8488421801532
 51
308.2172400898457
  0
LINE
  5
31A5
330
2
100
AcDbEntity
  8
0
100
AcDbLine
 10
301.5627278922843
 20
194.5575513192216
 30
0.0
 11
305.287477112242
 21
195.1808605718634
 31
0.0
  0
LINE
  5
31A6
330
2
100
AcDbEntity
  8
0
100
AcDbLine
 10
311.2900620928331
 20
195.2168191494184
 30
0.0
 11
312.6265550756297
 21
196.3185389445275
 31
0.0
1001
ACAD
1000
ASC_BOUNDS
1002
{
1070
    16
1005
0
1005
0
1002
}
  0
LINE
  5
31A7
330
2
100
AcDbEntity
  8
0
100
AcDbLine
 10
309.203192141707
 20
216.7757491715843
 30
0.0
 11
301.5702534983739
 21
226.0352441722369
 31
0.0
1001
ACAD
1000
ASC_BOUNDS
1002
{
1070
    16
1005
0
1005
0
1002
}
  0
ARC
  5
31A8
330
2
100
AcDbEntity
  8
0
100
AcDbCircle
 10
306.7725413792846
 20
208.4129966243765
 30
0.0
 40
7.861950366150809
100
AcDbArc
 50
70.78275991015378
 51
127.1511578198435
  0
CIRCLE
  5
32D1
330
2
100
AcDbEntity
  8
0
 48
10.0
100
AcDbCircle
 10
284.3837654886552
 20
253.0019223119666
 30
0.0
 40
13.00000000000045
  0
LINE
  5
32D3
330
2
100
AcDbEntity
  8
0
100
AcDbLine
 10
270.1278849594419
 20
193.0985989625208
 30
0.0
 11
270.758315310331
 21
191.72919503924
 31
0.0
  0
LINE
  5
32D4
330
2
100
AcDbEntity
  8
0
100
AcDbLine
 10
298.64027776947
 20
193.0999712364296
 30
0.0
 11
298.0092156669794
 21
191.72919503924
 31
0.0
  0
ENDSEC
  0
SECTION
  2
OBJECTS
  0
DICTIONARY
  5
1A
330
0
100
AcDbDictionary
281
     1
  3
ACAD_COLOR
350
4640
  3
ACAD_GROUP
350
18
  3
ACAD_LAYOUT
350
6C2
  3
ACAD_MATERIAL
350
463F
  3
ACAD_MLINESTYLE
350
19
  3
ACAD_PLOTSETTINGS
350
6C3
  3
ACAD_PLOTSTYLENAME
350
6C0
  3
ACAD_TABLESTYLE
350
4641
  3
ACAD_VISUALSTYLE
350
475A
  3
ACDBVARIABLEDICTIONARY
350
25F
  3
ACMDICTIONARY
350
265
  3
AMG
350
6CC
  3
AMGSNAPSETTINGS
350
72B
  0
DICTIONARY
  5
28B
330
2
100
AcDbDictionary
280
     1
281
     1
  0
DICTIONARY
  5
4640
102
{ACAD_REACTORS
330
1A
102
}
330
1A
100
AcDbDictionary
281
     1
  0
DICTIONARY
  5
18
102
{ACAD_REACTORS
330
1A
102
}
330
1A
100
AcDbDictionary
281
     1
  0
DICTIONARY
  5
6C2
102
{ACAD_REACTORS
330
1A
102
}
330
1A
100
AcDbDictionary
281
     1
  3
Layout1
350
6C5
  3
Model
350
6C4
  0
DICTIONARY
  5
463F
102
{ACAD_REACTORS
330
1A
102
}
330
1A
100
AcDbDictionary
281
     1
  3
ByBlock
350
4758
  3
ByLayer
350
4757
  3
Global
350
4759
  0
DICTIONARY
  5
19
102
{ACAD_REACTORS
330
1A
102
}
330
1A
100
AcDbDictionary
281
     1
  3
STANDARD
350
1B
  0
DICTIONARY
  5
6C3
102
{ACAD_REACTORS
330
1A
102
}
330
1A
100
AcDbDictionary
281
     1
  0
ACDBDICTIONARYWDFLT
  5
6C0
102
{ACAD_REACTORS
330
1A
102
}
330
1A
100
AcDbDictionary
281
     1
  3
Normal
350
6C1
100
AcDbDictionaryWithDefault
340
6C1
  0
DICTIONARY
  5
4641
102
{ACAD_REACTORS
330
1A
102
}
330
1A
100
AcDbDictionary
281
     1
  3
Standard
350
4642
  0
DICTIONARY
  5
475A
102
{ACAD_REACTORS
330
1A
102
}
330
1A
100
AcDbDictionary
281
     1
  3
2dWireframe
350
4760
  3
3D Hidden
350
4762
  3
3dWireframe
350
4761
  3
Basic
350
475F
  3
Brighten
350
4766
  3
ColorChange
350
476A
  3
Conceptual
350
4763
  3
Dim
350
4765
  3
Facepattern
350
4769
  3
Flat
350
475B
  3
FlatWithEdges
350
475C
  3
Gouraud
350
475D
  3
GouraudWithEdges
350
475E
  3
Linepattern
350
4768
  3
Realistic
350
4764
  3
Thicken
350
4767
  0
DICTIONARY
  5
25F
102
{ACAD_REACTORS
330
1A
102
}
330
1A
100
AcDbDictionary
281
     1
  3
CTABLESTYLE
350
4719
  3
DIMASSOC
350
4633
  3
INDEXCTL
350
260
  3
SORTENTS
350
4D0
  0
DICTIONARY
  5
265
102
{ACAD_REACTORS
330
1A
102
}
330
1A
100
AcDbDictionary
281
     1
  3
ACMSTDDICTIONARY
350
266
  3
AMDTSECTSYM_ARROWCOLOR
350
4698
  0
DICTIONARY
  5
6CC
102
{ACAD_REACTORS
330
1A
102
}
330
1A
100
AcDbDictionary
281
     1
  0
DICTIONARY
  5
72B
102
{ACAD_REACTORS
330
1A
102
}
330
1A
100
AcDbDictionary
281
     1
  0
LAYOUT
  5
6C5
102
{ACAD_REACTORS
330
6C2
102
}
330
6C2
100
AcDbPlotSettings
  1

  2
Kein
  4

  6

 40
0.0
 41
0.0
 42
0.0
 43
0.0
 44
0.0
 45
0.0
 46
0.0
 47
0.0
 48
0.0
 49
0.0
140
0.0
141
0.0
142
1.0
143
1.0
 70
   688
 72
     0
 73
     0
 74
     5
  7
Zeich.ctb
 75
    16
147
1.0
 76
     0
 77
     2
 78
   300
148
0.0
149
0.0
100
AcDbLayout
  1
Layout1
 70
     0
 71
     1
 10
0.0
 20
0.0
 11
420.0
 21
297.0
 12
0.0
 22
0.0
 32
0.0
 14
1.000000000000000E+20
 24
1.000000000000000E+20
 34
1.000000000000000E+20
 15
-1.000000000000000E+20
 25
-1.000000000000000E+20
 35
-1.000000000000000E+20
146
0.0
 13
0.0
 23
0.0
 33
0.0
 16
1.0
 26
0.0
 36
0.0
 17
0.0
 27
1.0
 37
0.0
 76
     0
330
7
  0
LAYOUT
  5
6C4
102
{ACAD_REACTORS
330
6C2
102
}
330
6C2
100
AcDbPlotSettings
  1

  2
Konstruktion
  4
A4
  6

 40
7.143749713897705
 41
7.186082363128662
 42
7.059066772460937
 43
5.027069091796875
 44
209.9733276367187
 45
296.9683227539062
 46
50.06791060510988
 47
0.0
 48
0.0
 49
0.0
140
0.0
141
0.0
142
1.0
143
3.507769801496631
 70
 28340
 72
     1
 73
     1
 74
     1
  7
Zeich.ctb
 75
     0
147
0.2850814211278454
 76
     0
 77
     2
 78
   300
148
-78.51867941035743
149
-78.98712283813757
100
AcDbLayout
  1
Model
 70
     1
 71
     0
 10
0.0
 20
0.0
 11
12.0
 21
9.0
 12
0.0
 22
0.0
 32
0.0
 14
0.0
 24
0.0
 34
0.0
 15
0.0
 25
0.0
 35
0.0
146
0.0
 13
0.0
 23
0.0
 33
0.0
 16
1.0
 26
0.0
 36
0.0
 17
0.0
 27
1.0
 37
0.0
 76
     0
330
2
331
4755
1001
ACAD_PSEXT
1000
Konstruktion
1000
Kyocera FS-1030D
1000
IP_192.168.10.181
1000

1070
     0
  0
MATERIAL
  5
4758
102
{ACAD_XDICTIONARY
360
47BA
102
}
102
{ACAD_REACTORS
330
463F
102
}
330
463F
100
AcDbMaterial
  1
ByBlock
  0
MATERIAL
  5
4757
102
{ACAD_XDICTIONARY
360
47B8
102
}
102
{ACAD_REACTORS
330
463F
102
}
330
463F
100
AcDbMaterial
  1
ByLayer
  0
MATERIAL
  5
4759
102
{ACAD_XDICTIONARY
360
47BC
102
}
102
{ACAD_REACTORS
330
463F
102
}
330
463F
100
AcDbMaterial
  1
Global
  0
MLINESTYLE
  5
1B
102
{ACAD_REACTORS
330
19
102
}
330
19
100
AcDbMlineStyle
  2
STANDARD
 70
     0
  3

 62
     0
 51
90.0
 52
90.0
 71
     2
 49
0.5
 62
   256
  6
BYLAYER
 49
-0.5
 62
   256
  6
BYLAYER
  0
ACDBPLACEHOLDER
  5
6C1
102
{ACAD_REACTORS
330
6C0
102
}
330
6C0
  0
TABLESTYLE
  5
4642
102
{ACAD_XDICTIONARY
360
47B6
102
}
102
{ACAD_REACTORS
330
4641
102
}
330
4641
100
AcDbTableStyle
  3
Standard
 70
     0
 71
     0
 40
0.06
 41
0.06
280
     0
281
     0
  7
STANDARD
140
0.18
170
     2
 62
     0
 63
     7
283
     0
274
    -2
284
     1
 64
     0
275
    -2
285
     1
 65
     0
276
    -2
286
     1
 66
     0
277
    -2
287
     1
 67
     0
278
    -2
288
     1
 68
     0
279
    -2
289
     1
 69
     0
  7
STANDARD
140
0.25
170
     5
 62
     0
 63
     7
283
     0
274
    -2
284
     1
 64
     0
275
    -2
285
     1
 65
     0
276
    -2
286
     1
 66
     0
277
    -2
287
     1
 67
     0
278
    -2
288
     1
 68
     0
279
    -2
289
     1
 69
     0
  7
STANDARD
140
0.18
170
     5
 62
     0
 63
     7
283
     0
274
    -2
284
     1
 64
     0
275
    -2
285
     1
 65
     0
276
    -2
286
     1
 66
     0
277
    -2
287
     1
 67
     0
278
    -2
288
     1
 68
     0
279
    -2
289
     1
 69
     0
  0
VISUALSTYLE
  5
4760
102
{ACAD_REACTORS
330
475A
102
}
330
475A
100
AcDbVisualStyle
  2
2dWireframe
 70
     4
 71
     0
 72
     2
 73
     0
 90
        0
 40
-0.6
 41
-30.0
 62
     5
 63
     7
421
 16777215
 74
     1
 91
        4
 64
     7
 65
   257
 75
     1
175
     1
 42
1.0
 92
        0
 66
   257
 43
1.0
 76
     1
 77
     6
 78
     2
 67
     7
 79
     5
170
     0
171
     0
290
     0
174
     0
 93
        1
 44
0.0
173
     0
291
     0
 45
0.0
1001
ACAD
1000
AcDbSavedByObjectVersion
1070
     0
  0
VISUALSTYLE
  5
4762
102
{ACAD_REACTORS
330
475A
102
}
330
475A
100
AcDbVisualStyle
  2
3D Hidden
 70
     6
 71
     1
 72
     2
 73
     2
 90
        0
 40
-0.6
 41
-30.0
 62
     5
 63
     7
421
 16777215
 74
     2
 91
        2
 64
     7
 65
   257
 75
     2
175
     1
 42
40.0
 92
        0
 66
   257
 43
1.0
 76
     1
 77
     6
 78
     2
 67
     7
 79
     3
170
     0
171
     0
290
     0
174
     0
 93
        1
 44
0.0
173
     0
291
     0
 45
0.0
1001
ACAD
1000
AcDbSavedByObjectVersion
1070
     0
  0
VISUALSTYLE
  5
4761
102
{ACAD_REACTORS
330
475A
102
}
330
475A
100
AcDbVisualStyle
  2
3dWireframe
 70
     5
 71
     0
 72
     2
 73
     0
 90
        0
 40
-0.6
 41
-30.0
 62
     5
 63
     7
421
 16777215
 74
     1
 91
        4
 64
     7
 65
   257
 75
     1
175
     1
 42
1.0
 92
        0
 66
   257
 43
1.0
 76
     1
 77
     6
 78
     2
 67
     7
 79
     5
170
     0
171
     0
290
     0
174
     0
 93
        1
 44
0.0
173
     0
291
     0
 45
0.0
1001
ACAD
1000
AcDbSavedByObjectVersion
1070
     0
  0
VISUALSTYLE
  5
475F
102
{ACAD_REACTORS
330
475A
102
}
330
475A
100
AcDbVisualStyle
  2
Basic
 70
     7
 71
     1
 72
     0
 73
     1
 90
        0
 40
-0.6
 41
-30.0
 62
     5
 63
     7
421
 16777215
 74
     0
 91
        4
 64
     7
 65
   257
 75
     1
175
     1
 42
1.0
 92
        8
 66
     7
 43
1.0
 76
     1
 77
     6
 78
     2
 67
     7
 79
     5
170
     0
171
     0
290
     0
174
     0
 93
        1
 44
0.0
173
     0
291
     1
 45
0.0
1001
ACAD
1000
AcDbSavedByObjectVersion
1070
     0
  0
VISUALSTYLE
  5
4766
102
{ACAD_REACTORS
330
475A
102
}
330
475A
100
AcDbVisualStyle
  2
Brighten
 70
    12
 71
     2
 72
     2
 73
     0
 90
        0
 40
-0.6
 41
-30.0
 62
     5
 63
     7
421
 16777215
 74
     1
 91
        4
 64
     7
 65
   257
 75
     1
175
     1
 42
1.0
 92
        8
 66
     7
 43
1.0
 76
     1
 77
     6
 78
     2
 67
     7
 79
     5
170
     0
171
     0
290
     0
174
     0
 93
        1
 44
50.0
173
     0
291
     1
 45
0.0
1001
ACAD
1000
AcDbSavedByObjectVersion
1070
     0
  0
VISUALSTYLE
  5
476A
102
{ACAD_REACTORS
330
475A
102
}
330
475A
100
AcDbVisualStyle
  2
ColorChange
 70
    16
 71
     2
 72
     2
 73
     3
 90
        0
 40
-0.6
 41
-30.0
 62
     5
 63
     8
421
  8421504
 74
     1
 91
        4
 64
     7
 65
   257
 75
     1
175
     1
 42
1.0
 92
        8
 66
     8
424
  8421504
 43
1.0
 76
     1
 77
     6
 78
     2
 67
     7
 79
     5
170
     0
171
     0
290
     0
174
     0
 93
        1
 44
0.0
173
     0
291
     1
 45
0.0
1001
ACAD
1000
AcDbSavedByObjectVersion
1070
     0
  0
VISUALSTYLE
  5
4763
102
{ACAD_REACTORS
330
475A
102
}
330
475A
100
AcDbVisualStyle
  2
Conceptual
 70
     9
 71
     3
 72
     2
 73
     0
 90
        0
 40
-0.6
 41
-30.0
 62
     5
 63
     7
421
 16777215
 74
     2
 91
        2
 64
     7
 65
   257
 75
     1
175
     1
 42
40.0
 92
        8
 66
     7
 43
1.0
 76
     1
 77
     6
 78
     2
 67
     7
 79
     3
170
     0
171
     0
290
     0
174
     0
 93
        1
 44
0.0
173
     0
291
     0
 45
0.0
1001
ACAD
1000
AcDbSavedByObjectVersion
1070
     0
  0
VISUALSTYLE
  5
4765
102
{ACAD_REACTORS
330
475A
102
}
330
475A
100
AcDbVisualStyle
  2
Dim
 70
    11
 71
     2
 72
     2
 73
     0
 90
        0
 40
-0.6
 41
-30.0
 62
     5
 63
     7
421
 16777215
 74
     1
 91
        4
 64
     7
 65
   257
 75
     1
175
     1
 42
1.0
 92
        8
 66
     7
 43
1.0
 76
     1
 77
     6
 78
     2
 67
     7
 79
     5
170
     0
171
     0
290
     0
174
     0
 93
        1
 44
-50.0
173
     0
291
     1
 45
0.0
1001
ACAD
1000
AcDbSavedByObjectVersion
1070
     0
  0
VISUALSTYLE
  5
4769
102
{ACAD_REACTORS
330
475A
102
}
330
475A
100
AcDbVisualStyle
  2
Facepattern
 70
    15
 71
     2
 72
     2
 73
     0
 90
        0
 40
-0.6
 41
-30.0
 62
     5
 63
     7
421
 16777215
 74
     1
 91
        4
 64
     7
 65
   257
 75
     1
175
     1
 42
1.0
 92
        8
 66
     7
 43
1.0
 76
     1
 77
     6
 78
     2
 67
     7
 79
     5
170
     0
171
     0
290
     0
174
     0
 93
        1
 44
0.0
173
     0
291
     1
 45
0.0
1001
ACAD
1000
AcDbSavedByObjectVersion
1070
     0
  0
VISUALSTYLE
  5
475B
102
{ACAD_REACTORS
330
475A
102
}
330
475A
100
AcDbVisualStyle
  2
Flat
 70
     0
 71
     2
 72
     1
 73
     1
 90
        2
 40
-0.6
 41
30.0
 62
     5
 63
     7
421
 16777215
 74
     0
 91
        4
 64
     7
 65
   257
 75
     1
175
     1
 42
1.0
 92
        8
 66
     7
 43
1.0
 76
     1
 77
     6
 78
     2
 67
     7
 79
     5
170
     0
171
     0
290
     0
174
     0
 93
       13
 44
0.0
173
     0
291
     1
 45
0.0
1001
ACAD
1000
AcDbSavedByObjectVersion
1070
     0
  0
VISUALSTYLE
  5
475C
102
{ACAD_REACTORS
330
475A
102
}
330
475A
100
AcDbVisualStyle
  2
FlatWithEdges
 70
     1
 71
     2
 72
     1
 73
     1
 90
        2
 40
-0.6
 41
30.0
 62
     5
 63
     7
421
 16777215
 74
     1
 91
        4
 64
     7
 65
   257
 75
     1
175
     1
 42
1.0
 92
        0
 66
   257
 43
1.0
 76
     1
 77
     6
 78
     2
 67
     7
 79
     5
170
     0
171
     0
290
     0
174
     0
 93
       13
 44
0.0
173
     0
291
     1
 45
0.0
1001
ACAD
1000
AcDbSavedByObjectVersion
1070
     0
  0
VISUALSTYLE
  5
475D
102
{ACAD_REACTORS
330
475A
102
}
330
475A
100
AcDbVisualStyle
  2
Gouraud
 70
     2
 71
     2
 72
     2
 73
     1
 90
        2
 40
-0.6
 41
30.0
 62
     5
 63
     7
421
 16777215
 74
     0
 91
        4
 64
     7
 65
   257
 75
     1
175
     1
 42
1.0
 92
        0
 66
     7
 43
1.0
 76
     1
 77
     6
 78
     2
 67
     7
 79
     5
170
     0
171
     0
290
     0
174
     0
 93
       13
 44
0.0
173
     0
291
     1
 45
0.0
1001
ACAD
1000
AcDbSavedByObjectVersion
1070
     0
  0
VISUALSTYLE
  5
475E
102
{ACAD_REACTORS
330
475A
102
}
330
475A
100
AcDbVisualStyle
  2
GouraudWithEdges
 70
     3
 71
     2
 72
     2
 73
     1
 90
        2
 40
-0.6
 41
30.0
 62
     5
 63
     7
421
 16777215
 74
     1
 91
        4
 64
     7
 65
   257
 75
     1
175
     1
 42
1.0
 92
        0
 66
   257
 43
1.0
 76
     1
 77
     6
 78
     2
 67
     7
 79
     5
170
     0
171
     0
290
     0
174
     0
 93
       13
 44
0.0
173
     0
291
     1
 45
0.0
1001
ACAD
1000
AcDbSavedByObjectVersion
1070
     0
  0
VISUALSTYLE
  5
4768
102
{ACAD_REACTORS
330
475A
102
}
330
475A
100
AcDbVisualStyle
  2
Linepattern
 70
    14
 71
     2
 72
     2
 73
     0
 90
        0
 40
-0.6
 41
-30.0
 62
     5
 63
     7
421
 16777215
 74
     1
 91
        4
 64
     7
 65
   257
 75
     7
175
     7
 42
1.0
 92
        8
 66
     7
 43
1.0
 76
     1
 77
     6
 78
     2
 67
     7
 79
     5
170
     0
171
     0
290
     0
174
     0
 93
        1
 44
0.0
173
     0
291
     1
 45
0.0
1001
ACAD
1000
AcDbSavedByObjectVersion
1070
     0
  0
VISUALSTYLE
  5
4764
102
{ACAD_REACTORS
330
475A
102
}
330
475A
100
AcDbVisualStyle
  2
Realistic
 70
     8
 71
     2
 72
     2
 73
     0
 90
        0
 40
-0.6
 41
-30.0
 62
     5
 63
     7
421
 16777215
 74
     1
 91
        0
 64
     7
 65
   257
 75
     1
175
     1
 42
1.0
 92
        8
 66
     8
424
  7895160
 43
1.0
 76
     1
 77
     6
 78
     2
 67
     7
 79
     5
170
     0
171
     0
290
     0
174
     0
 93
       13
 44
0.0
173
     0
291
     0
 45
0.0
1001
ACAD
1000
AcDbSavedByObjectVersion
1070
     0
  0
VISUALSTYLE
  5
4767
102
{ACAD_REACTORS
330
475A
102
}
330
475A
100
AcDbVisualStyle
  2
Thicken
 70
    13
 71
     2
 72
     2
 73
     0
 90
        0
 40
-0.6
 41
-30.0
 62
     5
 63
     7
421
 16777215
 74
     1
 91
        4
 64
     7
 65
   257
 75
     1
175
     1
 42
1.0
 92
       12
 66
     7
 43
1.0
 76
     1
 77
     6
 78
     2
 67
     7
 79
     5
170
     0
171
     0
290
     0
174
     0
 93
        1
 44
0.0
173
     0
291
     1
 45
0.0
1001
ACAD
1000
AcDbSavedByObjectVersion
1070
     0
  0
DICTIONARYVAR
  5
4719
102
{ACAD_REACTORS
330
25F
102
}
330
25F
100
DictionaryVariables
280
     0
  1
STANDARD
  0
DICTIONARYVAR
  5
4633
102
{ACAD_REACTORS
330
25F
102
}
330
25F
100
DictionaryVariables
280
     0
  1
1
  0
DICTIONARYVAR
  5
260
102
{ACAD_REACTORS
330
25F
102
}
330
25F
100
DictionaryVariables
280
     0
  1
1
  0
DICTIONARYVAR
  5
4D0
102
{ACAD_REACTORS
330
25F
102
}
330
25F
100
DictionaryVariables
280
     0
  1
96
  0
DICTIONARY
  5
266
102
{ACAD_REACTORS
330
265
102
}
330
265
100
AcDbDictionary
281
     1
  0
XRECORD
  5
4698
102
{ACAD_REACTORS
330
265
102
}
330
265
100
AcDbXrecord
280
     1
 90
-1023410169
  0
DICTIONARY
  5
47BA
330
4758
100
AcDbDictionary
280
     1
281
     1
  3
ACAD_XREC_ROUNDTRIP
360
47BB
  0
DICTIONARY
  5
47B8
330
4757
100
AcDbDictionary
280
     1
281
     1
  3
ACAD_XREC_ROUNDTRIP
360
47B9
  0
DICTIONARY
  5
47BC
330
4759
100
AcDbDictionary
280
     1
281
     1
  3
ACAD_XREC_ROUNDTRIP
360
47BD
  0
DICTIONARY
  5
47B6
330
4642
100
AcDbDictionary
280
     1
281
     1
  3
ACAD_XREC_ROUNDTRIP
360
47B7
  0
XRECORD
  5
47BB
102
{ACAD_REACTORS
330
47BA
102
}
330
47BA
100
AcDbXrecord
280
     1
102
MATERIAL
148
0.0
149
0.0
149
0.0
 93
        0
 94
       63
282
     0
 72
     1
 77
     1
171
     1
175
     1
179
     1
273
     0
  0
XRECORD
  5
47B9
102
{ACAD_REACTORS
330
47B8
102
}
330
47B8
100
AcDbXrecord
280
     1
102
MATERIAL
148
0.0
149
0.0
149
0.0
 93
        0
 94
       63
282
     0
 72
     1
 77
     1
171
     1
175
     1
179
     1
273
     0
  0
XRECORD
  5
47BD
102
{ACAD_REACTORS
330
47BC
102
}
330
47BC
100
AcDbXrecord
280
     1
102
MATERIAL
148
0.0
149
0.0
149
0.0
 93
        0
 94
       63
282
     0
 72
     1
 77
     1
171
     1
175
     1
179
     1
273
     0
  0
XRECORD
  5
47B7
102
{ACAD_REACTORS
330
47B6
102
}
330
47B6
100
AcDbXrecord
280
     1
102
ACAD_ROUNDTRIP_PRE2007_TABLESTYLE
 90
        4
 91
        0
  1

 92
        4
 93
        0
  2

 94
        4
 95
        0
  3

  0
ENDSEC
  0
EOF
