  0
SECTION
  2
HEADER
  9
$ACADVER
  1
AC1014
  9
$ACADMAINTVER
 70
     9
  9
$DWGCODEPAGE
  3
ANSI_1252
  9
$INSBASE
 10
0.0
 20
0.0
 30
0.0
  9
$EXTMIN
 10
130.1142506055085
 20
229.742226020355
 30
-0.00000001
  9
$EXTMAX
 10
1109.177106505668
 20
466.9483606855061
 30
0.00000001
  9
$LIMMIN
 10
0.0
 20
0.0
  9
$LIMMAX
 10
1280.0
 20
600.0
  9
$ORTHOMODE
 70
     1
  9
$REGENMODE
 70
     1
  9
$FILLMODE
 70
     1
  9
$QTEXTMODE
 70
     0
  9
$MIRRTEXT
 70
     1
  9
$DRAGMODE
 70
     2
  9
$LTSCALE
 40
1.0
  9
$OSMODE
 70
   545
  9
$ATTMODE
 70
     1
  9
$TEXTSIZE
 40
10.0
  9
$TRACEWID
 40
1.0
  9
$TEXTSTYLE
  7
STANDARD
  9
$CLAYER
  8
0
  9
$CELTYPE
  6
BYLAYER
  9
$CECOLOR
 62
   256
  9
$CELTSCALE
 40
10.0
  9
$DELOBJ
 70
     1
  9
$DISPSILH
 70
     0
  9
$DIMSCALE
 40
1.0
  9
$DIMASZ
 40
7.0
  9
$DIMEXO
 40
0.0
  9
$DIMDLI
 40
7.0
  9
$DIMRND
 40
0.0
  9
$DIMDLE
 40
0.0
  9
$DIMEXE
 40
1.25
  9
$DIMTP
 40
0.0
  9
$DIMTM
 40
0.0
  9
$DIMTXT
 40
10.0
  9
$DIMCEN
 40
0.0
  9
$DIMTSZ
 40
0.0
  9
$DIMTOL
 70
     0
  9
$DIMLIM
 70
     0
  9
$DIMTIH
 70
     0
  9
$DIMTOH
 70
     0
  9
$DIMSE1
 70
     0
  9
$DIMSE2
 70
     0
  9
$DIMTAD
 70
     1
  9
$DIMZIN
 70
     8
  9
$DIMBLK
  1

  9
$DIMASO
 70
     1
  9
$DIMSHO
 70
     1
  9
$DIMPOST
  1

  9
$DIMAPOST
  1

  9
$DIMALT
 70
     0
  9
$DIMALTD
 70
     2
  9
$DIMALTF
 40
25.4
  9
$DIMLFAC
 40
1.0
  9
$DIMTOFL
 70
     1
  9
$DIMTVP
 40
0.0
  9
$DIMTIX
 70
     0
  9
$DIMSOXD
 70
     0
  9
$DIMSAH
 70
     0
  9
$DIMBLK1
  1

  9
$DIMBLK2
  1

  9
$DIMSTYLE
  2
ISO-25
  9
$DIMCLRD
 70
   256
  9
$DIMCLRE
 70
   256
  9
$DIMCLRT
 70
   256
  9
$DIMTFAC
 40
1.0
  9
$DIMGAP
 40
4.0
  9
$DIMJUST
 70
     0
  9
$DIMSD1
 70
     0
  9
$DIMSD2
 70
     0
  9
$DIMTOLJ
 70
     1
  9
$DIMTZIN
 70
     8
  9
$DIMALTZ
 70
     0
  9
$DIMALTTZ
 70
     0
  9
$DIMFIT
 70
     0
  9
$DIMUPT
 70
     1
  9
$DIMUNIT
 70
     2
  9
$DIMDEC
 70
     4
  9
$DIMTDEC
 70
     4
  9
$DIMALTU
 70
     2
  9
$DIMALTTD
 70
     2
  9
$DIMTXSTY
  7
STANDARD
  9
$DIMAUNIT
 70
     0
  9
$LUNITS
 70
     2
  9
$LUPREC
 70
     4
  9
$SKETCHINC
 40
1.0
  9
$FILLETRAD
 40
2.5
  9
$AUNITS
 70
     0
  9
$AUPREC
 70
     0
  9
$MENU
  1
.
  9
$ELEVATION
 40
0.0
  9
$PELEVATION
 40
0.0
  9
$THICKNESS
 40
0.0
  9
$LIMCHECK
 70
     0
  9
$BLIPMODE
 70
     0
  9
$CHAMFERA
 40
2.0
  9
$CHAMFERB
 40
2.0
  9
$CHAMFERC
 40
0.0
  9
$CHAMFERD
 40
0.0
  9
$SKPOLY
 70
     0
  9
$TDCREATE
 40
2450848.795139884
  9
$TDUPDATE
 40
2452067.576719826
  9
$TDINDWG
 40
1.9631734259
  9
$TDUSRTIMER
 40
1.9631734259
  9
$USRTIMER
 70
     1
  9
$ANGBASE
 50
0.0
  9
$ANGDIR
 70
     0
  9
$PDMODE
 70
     0
  9
$PDSIZE
 40
0.0
  9
$PLINEWID
 40
0.5
  9
$COORDS
 70
     0
  9
$SPLFRAME
 70
     0
  9
$SPLINETYPE
 70
     6
  9
$SPLINESEGS
 70
     8
  9
$ATTDIA
 70
     1
  9
$ATTREQ
 70
     1
  9
$HANDLING
 70
 12289
  9
$HANDSEED
  5
464C
  9
$SURFTAB1
 70
     6
  9
$SURFTAB2
 70
     6
  9
$SURFTYPE
 70
     6
  9
$SURFU
 70
     6
  9
$SURFV
 70
     6
  9
$UCSNAME
  2

  9
$UCSORG
 10
0.0
 20
0.0
 30
0.0
  9
$UCSXDIR
 10
1.0
 20
0.0
 30
0.0
  9
$UCSYDIR
 10
0.0
 20
1.0
 30
0.0
  9
$PUCSNAME
  2

  9
$PUCSORG
 10
0.0
 20
0.0
 30
0.0
  9
$PUCSXDIR
 10
1.0
 20
0.0
 30
0.0
  9
$PUCSYDIR
 10
0.0
 20
1.0
 30
0.0
  9
$USERI1
 70
     0
  9
$USERI2
 70
     0
  9
$USERI3
 70
     0
  9
$USERI4
 70
     0
  9
$USERI5
 70
     0
  9
$USERR1
 40
0.0
  9
$USERR2
 40
0.0
  9
$USERR3
 40
0.0
  9
$USERR4
 40
0.0
  9
$USERR5
 40
0.0
  9
$WORLDVIEW
 70
     1
  9
$SHADEDGE
 70
     3
  9
$SHADEDIF
 70
    70
  9
$TILEMODE
 70
     1
  9
$MAXACTVP
 70
    16
  9
$PINSBASE
 10
0.0
 20
0.0
 30
0.0
  9
$PLIMCHECK
 70
     0
  9
$PEXTMIN
 10
1.000000000000000E+20
 20
1.000000000000000E+20
 30
1.000000000000000E+20
  9
$PEXTMAX
 10
-1.000000000000000E+20
 20
-1.000000000000000E+20
 30
-1.000000000000000E+20
  9
$PLIMMIN
 10
0.0
 20
0.0
  9
$PLIMMAX
 10
420.0
 20
297.0
  9
$UNITMODE
 70
     0
  9
$VISRETAIN
 70
     0
  9
$PLINEGEN
 70
     0
  9
$PSLTSCALE
 70
     0
  9
$TREEDEPTH
 70
  3020
  9
$PICKSTYLE
 70
     3
  9
$CMLSTYLE
  2
STANDARD
  9
$CMLJUST
 70
     0
  9
$CMLSCALE
 40
1.0
  9
$PROXYGRAPHICS
 70
     1
  9
$MEASUREMENT
 70
     0
  0
ENDSEC
  0
SECTION
  2
CLASSES
  0
CLASS
  1
IDBUFFER
  2
AcDbIdBuffer
  3
AutoCAD 2000
 90
        0
280
     0
281
     0
  0
CLASS
  1
LWPOLYLINE
  2
AcDbPolyline
  3
AutoCAD 2000
 90
        0
280
     0
281
     1
  0
CLASS
  1
DICTIONARYVAR
  2
AcDbDictionaryVar
  3
AutoCAD 2000
 90
        0
280
     0
281
     0
  0
CLASS
  1
HATCH
  2
AcDbHatch
  3
AutoCAD 2000
 90
        0
280
     0
281
     1
  0
CLASS
  1
ACMESTATEMGR
  2
AcMeStateMgr
  3
AcMeServices
 90
        0
280
     0
281
     0
  0
CLASS
  1
ACMESCOPE
  2
AcMeScope
  3
AcMeServices
 90
        0
280
     0
281
     0
  0
CLASS
  1
ACMECOMMANDHISTORY
  2
AcMeCommandHistory
  3
AcMeServices
 90
        0
280
     0
281
     0
  0
CLASS
  1
ACRFINSADJUSTERMGR
  2
AcRfInsAdjusterMgr
  3
AcMeServices
 90
        0
280
     0
281
     0
  0
CLASS
  1
ACMEDRAWINGMAN
  2
AcMeDrawingMan
  3
AcMeServices
 90
        0
280
     0
281
     0
  0
CLASS
  1
AMATTR
  2
AcMeAttribute
  3
AcMeServices
 90
        0
280
     0
281
     0
  0
CLASS
  1
ACMEBOMCOLUMN
  2
AcMeBOMColumn
  3
AcMeServices
 90
        0
280
     0
281
     0
  0
CLASS
  1
ACANBOMCONF
  2
AcMeBOMConf
  3
AcMeServices
 90
        0
280
     0
281
     0
  0
CLASS
  1
ACMEBOMTABLE
  2
AcMeBOMTable
  3
AcMeServices
 90
        0
280
     0
281
     0
  0
CLASS
  1
ACMEBOMENTRY
  2
AcMeBOMEntry
  3
AcMeServices
 90
        0
280
     0
281
     0
  0
CLASS
  1
ACMEVIEW
  2
AcMeView
  3
AcMeServices
 90
        0
280
     0
281
     0
  0
CLASS
  1
LAYER_INDEX
  2
AcDbLayerIndex
  3
AutoCAD 2000
 90
        0
280
     0
281
     0
  0
CLASS
  1
ACIMSYSVARMAN
  2
AcImSysVarManager
  3
AcMeServices
 90
        0
280
     0
281
     0
  0
CLASS
  1
ACIMINTSYSVAR
  2
AcImIntSysVar
  3
AcMeServices
 90
        0
280
     0
281
     0
  0
CLASS
  1
ACIMSTRSYSVAR
  2
AcImStrSysVar
  3
AcMeServices
 90
        0
280
     0
281
     0
  0
CLASS
  1
ACMSTANDARDJIS
  2
AcmStandardJIS
  3
"AcmSymBB|Product Description: AutoCAD Mechanical 2000|Company: Autodesk"
 90
        0
280
     0
281
     0
  0
CLASS
  1
ACMSTANDARDANSI
  2
AcmStandardANSI
  3
"AcmSymBB|Product Description: AutoCAD Mechanical 2000|Company: Autodesk"
 90
        0
280
     0
281
     0
  0
CLASS
  1
ACMSTANDARDBSI
  2
AcmStandardBSI
  3
"AcmSymBB|Product Description: AutoCAD Mechanical 2000|Company: Autodesk"
 90
        0
280
     0
281
     0
  0
CLASS
  1
ACMSTANDARDDIN
  2
AcmStandardDIN
  3
"AcmSymBB|Product Description: AutoCAD Mechanical 2000|Company: Autodesk"
 90
        0
280
     0
281
     0
  0
CLASS
  1
ACMSTANDARDISO
  2
AcmStandardISO
  3
"AcmSymBB|Product Description: AutoCAD Mechanical 2000|Company: Autodesk"
 90
        0
280
     0
281
     0
  0
CLASS
  1
ACDBDICTIONARYWDFLT
  2
AcDbDictionaryWithDefault
  3
AutoCAD 2000
 90
        0
280
     0
281
     0
  0
CLASS
  1
ACDBPLACEHOLDER
  2
AcDbPlaceHolder
  3
AutoCAD 2000
 90
        0
280
     0
281
     0
  0
CLASS
  1
LAYOUT
  2
AcDbLayout
  3
AutoCAD 2000
 90
        0
280
     0
281
     0
  0
CLASS
  1
ACME_DOCUMENT
  2
AcMeDbDoc
  3
AcMeServices
 90
        0
280
     0
281
     0
  0
CLASS
  1
AMGSETTINGSOBJ
  2
AmgSettingsObj
  3
"AcadM|Product Description: AutoCAD Mechanical 2000|Company: Autodesk"
 90
        0
280
     0
281
     0
  0
CLASS
  1
ACIMREALSYSVAR
  2
AcImRealSysVar
  3
AcMeServices
 90
        0
280
     0
281
     0
  0
CLASS
  1
ACDBENTITYCACHE
  2
AcMeEntityCache
  3
AcMeServices
 90
        0
280
     0
281
     0
  0
CLASS
  1
GSMANAGER
  2
AcMeGSManager
  3
AcMeServices
 90
        0
280
     0
281
     0
  0
CLASS
  1
AmdtInternalReactor
  2
AmdtInternalReactor
  3
AcMeServices
 90
        0
280
     0
281
     0
  0
CLASS
  1
ACME_DATABASE
  2
AcMeDbDatabase
  3
AcMeServices
 90
        0
280
     0
281
     0
  0
CLASS
  1
ACMDATADICTIONARY
  2
AcmDataDictionary
  3
"AcmSymBB|Product Description: AutoCAD Mechanical 2000|Company: Autodesk"
 90
        0
280
     0
281
     0
  0
CLASS
  1
ACMDATAENTRYBLOCK
  2
AcmDataEntryBlock
  3
"AcmSymBB|Product Description: AutoCAD Mechanical 2000|Company: Autodesk"
 90
        0
280
     0
281
     0
  0
CLASS
  1
ACMSURFSTANDARDJIS
  2
AcmSurfTextStdJIS
  3
"AcmSymBB|Product Description: AutoCAD Mechanical 2000|Company: Autodesk"
 90
        0
280
     0
281
     0
  0
CLASS
  1
ACMFCFSTANDARDJIS
  2
AcmFCFStdJIS
  3
"AcmSymBB|Product Description: AutoCAD Mechanical 2000|Company: Autodesk"
 90
        0
280
     0
281
     0
  0
CLASS
  1
ACMWELDSTANDARDJIS
  2
AcmWeldingStdJIS
  3
"AcmSymBB|Product Description: AutoCAD Mechanical 2000|Company: Autodesk"
 90
        0
280
     0
281
     0
  0
CLASS
  1
ACMIDSTANDARDJIS
  2
AcmIdStdJIS
  3
"AcmSymBB|Product Description: AutoCAD Mechanical 2000|Company: Autodesk"
 90
        0
280
     0
281
     0
  0
CLASS
  1
ACMDATUMSTANDARDJIS
  2
AcmDatumStdJIS
  3
"AcmSymBB|Product Description: AutoCAD Mechanical 2000|Company: Autodesk"
 90
        0
280
     0
281
     0
  0
CLASS
  1
ACMBOMSTANDARDJIS
  2
AcmBOMStdJIS
  3
"AcmSymBB|Product Description: AutoCAD Mechanical 2000|Company: Autodesk"
 90
        0
280
     0
281
     0
  0
CLASS
  1
AMGOBJPROPCFG
  2
AmgObjPropCfg
  3
"AmgLay|Product Description: AutoCAD Mechanical 2000|Company: Autodesk"
 90
        1
280
     0
281
     0
  0
CLASS
  1
ACMSURFSTANDARDANSI
  2
AcmSurfTextStdANSI
  3
"AcmSymBB|Product Description: AutoCAD Mechanical 2000|Company: Autodesk"
 90
        0
280
     0
281
     0
  0
CLASS
  1
ACMFCFSTANDARDANSI
  2
AcmFCFStdANSI
  3
"AcmSymBB|Product Description: AutoCAD Mechanical 2000|Company: Autodesk"
 90
        0
280
     0
281
     0
  0
CLASS
  1
ACMWELDSTANDARDANSI
  2
AcmWeldingStdANSI
  3
"AcmSymBB|Product Description: AutoCAD Mechanical 2000|Company: Autodesk"
 90
        0
280
     0
281
     0
  0
CLASS
  1
ACMIDSTANDARDANSI
  2
AcmIdStdANSI
  3
"AcmSymBB|Product Description: AutoCAD Mechanical 2000|Company: Autodesk"
 90
        0
280
     0
281
     0
  0
CLASS
  1
ACMDATUMSTANDARDANSI
  2
AcmDatumStdANSI
  3
"AcmSymBB|Product Description: AutoCAD Mechanical 2000|Company: Autodesk"
 90
        0
280
     0
281
     0
  0
CLASS
  1
ACMBOMSTANDARDANSI
  2
AcmBOMStdANSI
  3
"AcmSymBB|Product Description: AutoCAD Mechanical 2000|Company: Autodesk"
 90
        0
280
     0
281
     0
  0
CLASS
  1
ACMSURFSTANDARDBSI
  2
AcmSurfTextStdBSI
  3
"AcmSymBB|Product Description: AutoCAD Mechanical 2000|Company: Autodesk"
 90
        0
280
     0
281
     0
  0
CLASS
  1
ACMFCFSTANDARDBSI
  2
AcmFCFStdBSI
  3
"AcmSymBB|Product Description: AutoCAD Mechanical 2000|Company: Autodesk"
 90
        0
280
     0
281
     0
  0
CLASS
  1
ACMWELDSTANDARDBSI
  2
AcmWeldingStdBSI
  3
"AcmSymBB|Product Description: AutoCAD Mechanical 2000|Company: Autodesk"
 90
        0
280
     0
281
     0
  0
CLASS
  1
ACMIDSTANDARDBSI
  2
AcmIdStdBSI
  3
"AcmSymBB|Product Description: AutoCAD Mechanical 2000|Company: Autodesk"
 90
        0
280
     0
281
     0
  0
CLASS
  1
ACMDATUMSTANDARDBSI
  2
AcmDatumStdBSI
  3
"AcmSymBB|Product Description: AutoCAD Mechanical 2000|Company: Autodesk"
 90
        0
280
     0
281
     0
  0
CLASS
  1
ACMBOMSTANDARDBSI
  2
AcmBOMStdBSI
  3
"AcmSymBB|Product Description: AutoCAD Mechanical 2000|Company: Autodesk"
 90
        0
280
     0
281
     0
  0
CLASS
  1
AMDTEDGESTANDARDDIN
  2
AmdtEdgeStdDIN
  3
"AcmSymBB|Product Description: AutoCAD Mechanical 2000|Company: Autodesk"
 90
        0
280
     0
281
     0
  0
CLASS
  1
ACMSURFSTANDARDDIN
  2
AcmSurfTextStdDIN
  3
"AcmSymBB|Product Description: AutoCAD Mechanical 2000|Company: Autodesk"
 90
        0
280
     0
281
     0
  0
CLASS
  1
ACMFCFSTANDARDDIN
  2
AcmFCFStdDIN
  3
"AcmSymBB|Product Description: AutoCAD Mechanical 2000|Company: Autodesk"
 90
        0
280
     0
281
     0
  0
CLASS
  1
ACMWELDSTANDARDDIN
  2
AcmWeldingStdDIN
  3
"AcmSymBB|Product Description: AutoCAD Mechanical 2000|Company: Autodesk"
 90
        0
280
     0
281
     0
  0
CLASS
  1
ACMIDSTANDARDDIN
  2
AcmIdStdDIN
  3
"AcmSymBB|Product Description: AutoCAD Mechanical 2000|Company: Autodesk"
 90
        0
280
     0
281
     0
  0
CLASS
  1
ACMDATUMSTANDARDDIN
  2
AcmDatumStdDIN
  3
"AcmSymBB|Product Description: AutoCAD Mechanical 2000|Company: Autodesk"
 90
        0
280
     0
281
     0
  0
CLASS
  1
ACMBOMSTANDARDDIN
  2
AcmBOMStdDIN
  3
"AcmSymBB|Product Description: AutoCAD Mechanical 2000|Company: Autodesk"
 90
        0
280
     0
281
     0
  0
CLASS
  1
AMDTEDGESTANDARDISO
  2
AmdtEdgeStdISO
  3
"AcmSymBB|Product Description: AutoCAD Mechanical 2000|Company: Autodesk"
 90
        0
280
     0
281
     0
  0
CLASS
  1
ACMSURFSTANDARDISO
  2
AcmSurfTextStdISO
  3
"AcmSymBB|Product Description: AutoCAD Mechanical 2000|Company: Autodesk"
 90
        0
280
     0
281
     0
  0
CLASS
  1
ACMFCFSTANDARDISO
  2
AcmFCFStdISO
  3
"AcmSymBB|Product Description: AutoCAD Mechanical 2000|Company: Autodesk"
 90
        0
280
     0
281
     0
  0
CLASS
  1
ACMWELDSTANDARDISO
  2
AcmWeldingStdISO
  3
"AcmSymBB|Product Description: AutoCAD Mechanical 2000|Company: Autodesk"
 90
        0
280
     0
281
     0
  0
CLASS
  1
ACMIDSTANDARDISO
  2
AcmIdStdISO
  3
"AcmSymBB|Product Description: AutoCAD Mechanical 2000|Company: Autodesk"
 90
        0
280
     0
281
     0
  0
CLASS
  1
ACMDATUMSTANDARDISO
  2
AcmDatumStdISO
  3
"AcmSymBB|Product Description: AutoCAD Mechanical 2000|Company: Autodesk"
 90
        0
280
     0
281
     0
  0
CLASS
  1
ACMBOMSTANDARDISO
  2
AcmBOMStdISO
  3
"AcmSymBB|Product Description: AutoCAD Mechanical 2000|Company: Autodesk"
 90
        0
280
     0
281
     0
  0
CLASS
  1
ACAMGFILTERDAT
  2
AcAmgFilterDat
  3
"AcadM|Product Description: AutoCAD Mechanical 2000|Company: Autodesk"
 90
        0
280
     0
281
     0
  0
CLASS
  1
ACMDIMBREAKPERSREACTOR
  2
AcmDimBreakPersReactor
  3
AutoCadMServices
 90
     1023
280
     0
281
     0
  0
CLASS
  1
LONG_TRANSACTION
  2
AcDbLongTransaction
  3
AutoCAD 2000
 90
        0
280
     0
281
     0
  0
CLASS
  1
LWPOLYLINE
  2
AcDbPolyline
  3
AutoCAD 2000
 90
        0
280
     0
281
     1
  0
CLASS
  1
HATCH
  2
AcDbHatch
  3
AutoCAD 2000
 90
        0
280
     0
281
     1
  0
CLASS
  1
XRECORD
  2
AcDbXrecord
  3
AutoCAD 2000
 90
        0
280
     0
281
     0
  0
ENDSEC
  0
SECTION
  2
TABLES
  0
TABLE
  2
VPORT
  5
13
330
0
100
AcDbSymbolTable
 70
     6
  0
VPORT
  5
4627
330
13
100
AcDbSymbolTableRecord
100
AcDbViewportTableRecord
  2
*ACTIVE
 70
     0
 10
0.0
 20
0.0
 11
1.0
 21
1.0
 12
625.4023358274593
 22
327.2428222450412
 13
0.0
 23
0.0
 14
10.0
 24
10.0
 15
50.0
 25
50.0
 16
0.0
 26
0.0
 36
1.0
 17
0.0
 27
0.0
 37
0.0
 40
552.5448920647335
 41
1.981912144702842
 42
50.0
 43
0.0
 44
0.0
 50
0.0
 51
0.0
 71
     0
 72
   100
 73
     1
 74
     0
 75
     0
 76
     0
 77
     0
 78
     0
  0
ENDTAB
  0
TABLE
  2
LTYPE
  5
E
330
0
100
AcDbSymbolTable
 70
    19
  0
LTYPE
  5
F
330
E
100
AcDbSymbolTableRecord
100
AcDbLinetypeTableRecord
  2
BYBLOCK
 70
     0
  3

 72
    65
 73
     0
 40
0.0
  0
LTYPE
  5
10
330
E
100
AcDbSymbolTableRecord
100
AcDbLinetypeTableRecord
  2
BYLAYER
 70
     0
  3

 72
    65
 73
     0
 40
0.0
  0
LTYPE
  5
6
330
E
100
AcDbSymbolTableRecord
100
AcDbLinetypeTableRecord
  2
CONTINUOUS
 70
     0
  3
Solid line
 72
    65
 73
     0
 40
0.0
  0
LTYPE
  5
25
330
E
100
AcDbSymbolTableRecord
100
AcDbLinetypeTableRecord
  2
MITTE
 70
     0
  3
____ _ ____ _ ____ _ ____ _ ____ _ ____ _ ____ 
 72
    65
 73
     4
 40
2.0
 49
1.25
 74
     0
 49
-0.25
 74
     0
 49
0.25
 74
     0
 49
-0.25
 74
     0
  0
LTYPE
  5
279
330
E
100
AcDbSymbolTableRecord
100
AcDbLinetypeTableRecord
  2
ACJISTGB
 70
     0
  3
__ . . __ . .
 72
    65
 73
     6
 40
9.0
 49
4.0
 74
     0
 49
-1.0
 74
     0
 49
1.0
 74
     0
 49
-1.0
 74
     0
 49
1.0
 74
     0
 49
-1.0
 74
     0
  0
LTYPE
  5
27A
330
E
100
AcDbSymbolTableRecord
100
AcDbLinetypeTableRecord
  2
ACJISTGL
 70
     0
  3
_ _ _ _ _
 72
    65
 73
     2
 40
3.0
 49
2.0
 74
     0
 49
-1.0
 74
     0
  0
LTYPE
  5
27D
330
E
100
AcDbSymbolTableRecord
100
AcDbLinetypeTableRecord
  2
ACANSTGB
 70
     0
  3
__ . . __ . .
 72
    65
 73
     6
 40
0.35433070866
 49
0.15748031496
 74
     0
 49
-0.03937007874
 74
     0
 49
0.03937007874
 74
     0
 49
-0.03937007874
 74
     0
 49
0.03937007874
 74
     0
 49
-0.03937007874
 74
     0
  0
LTYPE
  5
27E
330
E
100
AcDbSymbolTableRecord
100
AcDbLinetypeTableRecord
  2
ACANSTGL
 70
     0
  3
_ _ _ _ _
 72
    65
 73
     2
 40
0.11811023622
 49
0.07874015748
 74
     0
 49
-0.03937007874
 74
     0
  0
LTYPE
  5
281
330
E
100
AcDbSymbolTableRecord
100
AcDbLinetypeTableRecord
  2
ACBSIWELD
 70
     0
  3
_ _ _ _ _
 72
    65
 73
     2
 40
2.0
 49
2.0
 74
     0
 49
-1.0
 74
     0
  0
LTYPE
  5
282
330
E
100
AcDbSymbolTableRecord
100
AcDbLinetypeTableRecord
  2
ACBSITGB
 70
     0
  3
__ . . __ . .
 72
    65
 73
     6
 40
9.0
 49
4.0
 74
     0
 49
-1.0
 74
     0
 49
1.0
 74
     0
 49
-1.0
 74
     0
 49
1.0
 74
     0
 49
-1.0
 74
     0
  0
LTYPE
  5
283
330
E
100
AcDbSymbolTableRecord
100
AcDbLinetypeTableRecord
  2
ACBSITGL
 70
     0
  3
_ _ _ _ _
 72
    65
 73
     2
 40
3.0
 49
2.0
 74
     0
 49
-1.0
 74
     0
  0
LTYPE
  5
286
330
E
100
AcDbSymbolTableRecord
100
AcDbLinetypeTableRecord
  2
ACDINWELD
 70
     0
  3
_ _ _ _ _
 72
    65
 73
     2
 40
2.0
 49
2.0
 74
     0
 49
-1.0
 74
     0
  0
LTYPE
  5
287
330
E
100
AcDbSymbolTableRecord
100
AcDbLinetypeTableRecord
  2
ACDINTGB
 70
     0
  3
__ . . __ . .
 72
    65
 73
     6
 40
9.0
 49
4.0
 74
     0
 49
-1.0
 74
     0
 49
1.0
 74
     0
 49
-1.0
 74
     0
 49
1.0
 74
     0
 49
-1.0
 74
     0
  0
LTYPE
  5
288
330
E
100
AcDbSymbolTableRecord
100
AcDbLinetypeTableRecord
  2
ACDINTGL
 70
     0
  3
_ _ _ _ _
 72
    65
 73
     2
 40
3.0
 49
2.0
 74
     0
 49
-1.0
 74
     0
  0
LTYPE
  5
28B
330
E
100
AcDbSymbolTableRecord
100
AcDbLinetypeTableRecord
  2
ACISOWELD
 70
     0
  3
_ _ _ _ _
 72
    65
 73
     2
 40
2.0
 49
2.0
 74
     0
 49
-1.0
 74
     0
  0
LTYPE
  5
28C
330
E
100
AcDbSymbolTableRecord
100
AcDbLinetypeTableRecord
  2
ACISOTGB
 70
     0
  3
__ . . __ . .
 72
    65
 73
     6
 40
9.0
 49
4.0
 74
     0
 49
-1.0
 74
     0
 49
1.0
 74
     0
 49
-1.0
 74
     0
 49
1.0
 74
     0
 49
-1.0
 74
     0
  0
LTYPE
  5
28D
330
E
100
AcDbSymbolTableRecord
100
AcDbLinetypeTableRecord
  2
ACISOTGL
 70
     0
  3
_ _ _ _ _
 72
    65
 73
     2
 40
3.0
 49
2.0
 74
     0
 49
-1.0
 74
     0
  0
LTYPE
  5
2D1
330
E
100
AcDbSymbolTableRecord
100
AcDbLinetypeTableRecord
  2
AMCONSTR
 70
     0
  3
_______________________
 72
    65
 73
     2
 40
9999.0
 49
9999.0
 74
     0
 49
0.0
 74
     0
  0
LTYPE
  5
2D7
330
E
100
AcDbSymbolTableRecord
100
AcDbLinetypeTableRecord
  2
PHANTOM2
 70
     0
  3
Phantom (.5x) ___ _ _ ___ _ _ ___ _ _ ___ _ _
 72
    65
 73
     6
 40
1.25
 49
0.625
 74
     0
 49
-0.125
 74
     0
 49
0.125
 74
     0
 49
-0.125
 74
     0
 49
0.125
 74
     0
 49
-0.125
 74
     0
  0
LTYPE
  5
2D8
330
E
100
AcDbSymbolTableRecord
100
AcDbLinetypeTableRecord
  2
AMZIGZAG2
 70
     0
  3
/\/-/\/-/\/-/\/-/\/-/\/
 72
    65
 73
     2
 40
0.4401
 49
0.0001
 74
     4
 75
   135
340
2D5
 46
0.0016
 50
0.0
 44
0.0
 45
0.0
 49
-0.4400000000000001
 74
     0
  0
LTYPE
  5
52E
330
E
100
AcDbSymbolTableRecord
100
AcDbLinetypeTableRecord
  2
GESTRICHELT
 70
     0
  3
__ __ __ __ __ __ __ __ __ __ __ __ __ __ __ __
 72
    65
 73
     2
 40
0.75
 49
0.5
 74
     0
 49
-0.25
 74
     0
  0
ENDTAB
  0
TABLE
  2
LAYER
  5
B
330
0
100
AcDbSymbolTable
 70
     5
  0
LAYER
  5
5
330
B
100
AcDbSymbolTableRecord
100
AcDbLayerTableRecord
  2
0
 70
     0
 62
     7
  6
CONTINUOUS
  0
LAYER
  5
2B
330
B
100
AcDbSymbolTableRecord
100
AcDbLayerTableRecord
  2
BEM
 70
     0
 62
     1
  6
CONTINUOUS
  0
LAYER
  5
24
330
B
100
AcDbSymbolTableRecord
100
AcDbLayerTableRecord
  2
MITTE
 70
     0
 62
     6
  6
MITTE
  0
LAYER
  5
27
330
B
100
AcDbSymbolTableRecord
100
AcDbLayerTableRecord
  2
LINIE
 70
     0
 62
     6
  6
CONTINUOUS
  0
LAYER
  5
3C5E
330
B
100
AcDbSymbolTableRecord
100
AcDbLayerTableRecord
  2
SCHRAFF
 70
     0
 62
    62
  6
CONTINUOUS
  0
ENDTAB
  0
TABLE
  2
STYLE
  5
C
330
0
100
AcDbSymbolTable
 70
    12
  0
STYLE
  5
D
330
C
100
AcDbSymbolTableRecord
100
AcDbTextStyleTableRecord
  2
STANDARD
 70
     0
 40
0.0
 41
1.0
 50
0.0
 71
     0
 42
10.0
  3
romans.shx
  4

  0
STYLE
  5
277
330
C
100
AcDbSymbolTableRecord
100
AcDbTextStyleTableRecord
  2
ACJISTS
 70
     0
 40
1.0
 41
1.0
 50
0.0
 71
     0
 42
10.0
  3
isocp.shx
  4
bigfont.shx
  0
STYLE
  5
278
330
C
100
AcDbSymbolTableRecord
100
AcDbTextStyleTableRecord
  2
ACJISGDT
 70
     0
 40
0.0
 41
1.0
 50
0.0
 71
     0
 42
10.0
  3
amgdt.shx
  4

  0
STYLE
  5
27B
330
C
100
AcDbSymbolTableRecord
100
AcDbTextStyleTableRecord
  2
ACANSTSB
 70
     0
 40
1.0
 41
1.0
 50
0.0
 71
     0
 42
10.0
  3
romans.shx
  4

  0
STYLE
  5
27C
330
C
100
AcDbSymbolTableRecord
100
AcDbTextStyleTableRecord
  2
ACANSGDT
 70
     0
 40
0.0
 41
1.0
 50
0.0
 71
     0
 42
10.0
  3
amgdt.shx
  4

  0
STYLE
  5
27F
330
C
100
AcDbSymbolTableRecord
100
AcDbTextStyleTableRecord
  2
ACBSITS
 70
     0
 40
1.0
 41
1.0
 50
0.0
 71
     0
 42
10.0
  3
isocp.shx
  4

  0
STYLE
  5
280
330
C
100
AcDbSymbolTableRecord
100
AcDbTextStyleTableRecord
  2
ACBSIGDT
 70
     0
 40
0.0
 41
1.0
 50
0.0
 71
     0
 42
10.0
  3
amgdt.shx
  4

  0
STYLE
  5
284
330
C
100
AcDbSymbolTableRecord
100
AcDbTextStyleTableRecord
  2
ACDINTS
 70
     0
 40
1.0
 41
1.0
 50
0.0
 71
     0
 42
10.0
  3
isocp.shx
  4

  0
STYLE
  5
285
330
C
100
AcDbSymbolTableRecord
100
AcDbTextStyleTableRecord
  2
ACDINGDT
 70
     0
 40
0.0
 41
1.0
 50
0.0
 71
     0
 42
10.0
  3
amgdt.shx
  4

  0
STYLE
  5
289
330
C
100
AcDbSymbolTableRecord
100
AcDbTextStyleTableRecord
  2
ACISOTS
 70
     0
 40
1.0
 41
1.0
 50
0.0
 71
     0
 42
10.0
  3
isocp.shx
  4

  0
STYLE
  5
28A
330
C
100
AcDbSymbolTableRecord
100
AcDbTextStyleTableRecord
  2
ACISOGDT
 70
     0
 40
0.0
 41
1.0
 50
0.0
 71
     0
 42
10.0
  3
amgdt.shx
  4

  0
STYLE
  5
2D5
330
C
100
AcDbSymbolTableRecord
100
AcDbTextStyleTableRecord
  2

 70
     1
 40
0.0
 41
1.0
 50
0.0
 71
     0
 42
10.0
  3
ltypeshp.shx
  4

  0
ENDTAB
  0
TABLE
  2
VIEW
  5
11
330
0
100
AcDbSymbolTable
 70
     0
  0
ENDTAB
  0
TABLE
  2
UCS
  5
12
330
0
100
AcDbSymbolTable
 70
     0
  0
ENDTAB
  0
TABLE
  2
APPID
  5
15
330
0
100
AcDbSymbolTable
 70
     3
  0
APPID
  5
16
330
15
100
AcDbSymbolTableRecord
100
AcDbRegAppTableRecord
  2
ACAD
 70
     0
  0
APPID
  5
254
330
15
100
AcDbSymbolTableRecord
100
AcDbRegAppTableRecord
  2
MCAD_NO_VIS
 70
     0
  0
APPID
  5
2B5
330
15
100
AcDbSymbolTableRecord
100
AcDbRegAppTableRecord
  2
ACAD_TEMP_GRAPHIC
 70
     0
  0
ENDTAB
  0
TABLE
  2
DIMSTYLE
  5
17
330
0
100
AcDbSymbolTable
 70
     1
  0
DIMSTYLE
105
1D
330
17
100
AcDbSymbolTableRecord
100
AcDbDimStyleTableRecord
  2
ISO-25
 70
     0
  3

  4

  5

  6

  7

 40
1.0
 41
7.0
 42
0.0
 43
7.0
 44
1.25
 45
0.0
 46
0.0
 47
0.0
 48
0.0
140
10.0
141
0.0
142
0.0
143
25.4
144
0.5
145
0.0
146
1.0
147
4.0
 71
     0
 72
     0
 73
     0
 74
     0
 75
     0
 76
     0
 77
     1
 78
     8
170
     0
171
     2
172
     1
173
     0
174
     0
175
     0
176
   256
177
   256
178
   256
270
     2
271
     4
272
     4
273
     2
274
     2
340
D
275
     0
280
     0
281
     0
282
     0
283
     1
284
     8
285
     0
286
     0
287
     3
288
     1
  0
ENDTAB
  0
TABLE
  2
BLOCK_RECORD
  5
1
330
0
100
AcDbSymbolTable
 70
     1
  0
BLOCK_RECORD
  5
2
102
{ACAD_XDICTIONARY
360
3
102
}
330
1
100
AcDbSymbolTableRecord
100
AcDbBlockTableRecord
  2
*MODEL_SPACE
  0
BLOCK_RECORD
  5
8
102
{ACAD_XDICTIONARY
360
464A
102
}
330
1
100
AcDbSymbolTableRecord
100
AcDbBlockTableRecord
  2
*PAPER_SPACE
  0
BLOCK_RECORD
  5
3A17
330
1
100
AcDbSymbolTableRecord
100
AcDbBlockTableRecord
  2
*X0
  0
ENDTAB
  0
ENDSEC
  0
SECTION
  2
BLOCKS
  0
BLOCK
  5
4
330
2
100
AcDbEntity
  8
0
100
AcDbBlockBegin
  2
*MODEL_SPACE
 70
     0
 10
0.0
 20
0.0
 30
0.0
  3
*MODEL_SPACE
  1

  0
ENDBLK
  5
7
330
2
100
AcDbEntity
  8
0
100
AcDbBlockEnd
  0
BLOCK
  5
9
330
8
100
AcDbEntity
 67
     1
  8
0
100
AcDbBlockBegin
  2
*PAPER_SPACE
 70
     0
 10
0.0
 20
0.0
 30
0.0
  3
*PAPER_SPACE
  1

  0
ENDBLK
  5
A
330
8
100
AcDbEntity
 67
     1
  8
0
100
AcDbBlockEnd
  0
BLOCK
  5
3C56
330
3A17
100
AcDbEntity
  8
0
 48
10.0
100
AcDbBlockBegin
  2
*X0
 70
     1
 10
0.0
 20
0.0
 30
0.0
  3
*X0
  1

  0
LINE
  5
3A18
330
3A17
100
AcDbEntity
  8
0
 62
     0
 48
10.0
100
AcDbLine
 10
98.35104377251177
 20
163.0876864723723
 30
0.0
 11
98.44746191396474
 21
163.2025931388402
 31
0.0
  0
LINE
  5
3A19
330
3A17
100
AcDbEntity
  8
0
 62
     0
 48
10.0
100
AcDbLine
 10
99.50806146994754
 20
164.4665664699865
 30
0.0
 11
99.60447961140053
 21
164.5814731364543
 31
0.0
  0
LINE
  5
3A1A
330
3A17
100
AcDbEntity
  8
0
 62
     0
 48
10.0
100
AcDbLine
 10
100.6650791673833
 20
165.8454464676006
 30
0.0
 11
100.72699073486
 21
165.9192298005641
 31
0.0
  0
LINE
  5
3A1B
330
3A17
100
AcDbEntity
  8
0
 62
     0
 48
10.0
100
AcDbLine
 10
100.72699073486
 20
165.9192298005642
 30
0.0
 11
100.7614973088362
 21
165.9603531340685
 31
0.0
  0
LINE
  5
3A1C
330
3A17
100
AcDbEntity
  8
0
 62
     0
 48
10.0
100
AcDbLine
 10
101.822096864819
 20
167.2243264652148
 30
0.0
 11
101.918515006272
 21
167.3392331316826
 31
0.0
  0
LINE
  5
3A1D
330
3A17
100
AcDbEntity
  8
0
 62
     0
 48
10.0
100
AcDbLine
 10
102.9791145622548
 20
168.6032064628289
 30
0.0
 11
103.0755327037078
 21
168.7181131292968
 31
0.0
  0
LINE
  5
3A1E
330
3A17
100
AcDbEntity
  8
0
 62
     0
 48
10.0
100
AcDbLine
 10
98.62854644027748
 20
161.583302204793
 30
0.0
 11
98.72496458173047
 21
161.6982088712608
 31
0.0
  0
LINE
  5
3A1F
330
3A17
100
AcDbEntity
  8
0
 62
     0
 48
10.0
100
AcDbLine
 10
99.78556413771327
 20
162.9621822024071
 30
0.0
 11
99.88198227916626
 21
163.077088868875
 31
0.0
  0
LINE
  5
3A20
330
3A17
100
AcDbEntity
  8
0
 62
     0
 48
10.0
100
AcDbLine
 10
100.942581835149
 20
164.3410622000213
 30
0.0
 11
101.038999976602
 21
164.4559688664891
 31
0.0
  0
LINE
  5
3A21
330
3A17
100
AcDbEntity
  8
0
 62
     0
 48
10.0
100
AcDbLine
 10
102.0995995325848
 20
165.7199421976354
 30
0.0
 11
102.1960176740377
 21
165.8348488641033
 31
0.0
  0
LINE
  5
3A22
330
3A17
100
AcDbEntity
  8
0
 62
     0
 48
10.0
100
AcDbLine
 10
103.2566172300205
 20
167.0988221952496
 30
0.0
 11
103.3530353714735
 21
167.2137288617174
 31
0.0
  0
LINE
  5
3A23
330
3A17
100
AcDbEntity
  8
0
 62
     0
 48
10.0
100
AcDbLine
 10
100.063066805479
 20
161.4577979348278
 30
0.0
 11
100.1594849469319
 21
161.5727046012956
 31
0.0
  0
LINE
  5
3A24
330
3A17
100
AcDbEntity
  8
0
 62
     0
 48
10.0
100
AcDbLine
 10
101.2200845029147
 20
162.8366779324419
 30
0.0
 11
101.3165026443677
 21
162.9515845989098
 31
0.0
  0
LINE
  5
3A25
330
3A17
100
AcDbEntity
  8
0
 62
     0
 48
10.0
100
AcDbLine
 10
102.3771022003505
 20
164.2155579300561
 30
0.0
 11
102.4735203418035
 21
164.3304645965239
 31
0.0
  0
LINE
  5
3A26
330
3A17
100
AcDbEntity
  8
0
 62
     0
 48
10.0
100
AcDbLine
 10
101.5436325231569
 20
161.3871683790986
 30
0.0
 11
101.5940053121334
 21
161.4472003313304
 31
0.0
  0
LINE
  5
3A27
330
3A17
100
AcDbEntity
  8
0
 62
     0
 48
10.0
100
AcDbLine
 10
102.6546048681162
 20
162.7111736624768
 30
0.0
 11
102.7510230095692
 21
162.8260803289446
 31
0.0
  0
LINE
  5
3A28
330
3A17
100
AcDbEntity
  8
0
 62
     0
 48
10.0
100
AcDbLine
 10
98.07354110474603
 20
164.5920707399517
 30
0.0
 11
98.16995924619902
 21
164.7069774064195
 31
0.0
  0
LINE
  5
3A29
330
3A17
100
AcDbEntity
  8
0
 62
     0
 48
10.0
100
AcDbLine
 10
99.2305588021818
 20
165.9709507375658
 30
0.0
 11
99.32697694363479
 21
166.0858574040337
 31
0.0
  0
LINE
  5
3A2A
330
3A17
100
AcDbEntity
  8
0
 62
     0
 48
10.0
100
AcDbLine
 10
100.3875764996175
 20
167.34983073518
 30
0.0
 11
100.4839946410705
 21
167.4647374016478
 31
0.0
  0
LINE
  5
3A2B
330
3A17
100
AcDbEntity
  8
0
 62
     0
 48
10.0
100
AcDbLine
 10
101.5445941970533
 20
168.7287107327942
 30
0.0
 11
101.6410123385063
 21
168.843617399262
 31
0.0
  0
LINE
  5
3A2C
330
3A17
100
AcDbEntity
  8
0
 62
     0
 48
10.0
100
AcDbLine
 10
102.7016118944891
 20
170.1075907304083
 30
0.0
 11
102.7980300359421
 21
170.2224973968762
 31
0.0
  0
LINE
  5
3A2D
330
3A17
100
AcDbEntity
  8
0
 62
     0
 48
10.0
100
AcDbLine
 10
98.95305613441607
 20
167.4753350051452
 30
0.0
 11
99.04947427586904
 21
167.590241671613
 31
0.0
  0
LINE
  5
3A2E
330
3A17
100
AcDbEntity
  8
0
 62
     0
 48
10.0
100
AcDbLine
 10
100.1100738318518
 20
168.8542150027593
 30
0.0
 11
100.2064919733048
 21
168.9691216692272
 31
0.0
  0
LINE
  5
3A2F
330
3A17
100
AcDbEntity
  8
0
 62
     0
 48
10.0
100
AcDbLine
 10
101.2670915292876
 20
170.2330950003735
 30
0.0
 11
101.3635096707405
 21
170.3480016668414
 31
0.0
  0
LINE
  5
3A30
330
3A17
100
AcDbEntity
  8
0
 62
     0
 48
10.0
100
AcDbLine
 10
102.4241092267233
 20
171.6119749979877
 30
0.0
 11
102.5205273681763
 21
171.7268816644555
 31
0.0
  0
LINE
  5
3A31
330
3A17
100
AcDbEntity
  8
0
 62
     0
 48
10.0
100
AcDbLine
 10
98.67555346665033
 20
168.9797192727245
 30
0.0
 11
98.77197160810332
 21
169.0946259391924
 31
0.0
  0
LINE
  5
3A32
330
3A17
100
AcDbEntity
  8
0
 62
     0
 48
10.0
100
AcDbLine
 10
99.8325711640861
 20
170.3585992703387
 30
0.0
 11
99.92898930553909
 21
170.4735059368065
 31
0.0
  0
LINE
  5
3A33
330
3A17
100
AcDbEntity
  8
0
 62
     0
 48
10.0
100
AcDbLine
 10
100.9895888615218
 20
171.7374792679528
 30
0.0
 11
101.0860070029748
 21
171.8523859344207
 31
0.0
  0
LINE
  5
3A34
330
3A17
100
AcDbEntity
  8
0
 62
     0
 48
10.0
100
AcDbLine
 10
102.1466065589576
 20
173.116359265567
 30
0.0
 11
102.2430247004106
 21
173.2312659320348
 31
0.0
  0
LINE
  5
3A35
330
3A17
100
AcDbEntity
  8
0
 62
     0
 48
10.0
100
AcDbLine
 10
98.43297771752247
 20
170.5257278210688
 30
0.0
 11
98.49446894033755
 21
170.5990102067717
 31
0.0
  0
LINE
  5
3A36
330
3A17
100
AcDbEntity
  8
0
 62
     0
 48
10.0
100
AcDbLine
 10
99.55506849632035
 20
171.862983537918
 30
0.0
 11
99.65148663777334
 21
171.9778902043859
 31
0.0
  0
LINE
  5
3A37
330
3A17
100
AcDbEntity
  8
0
 62
     0
 48
10.0
100
AcDbLine
 10
100.7120861937561
 20
173.2418635355322
 30
0.0
 11
100.72699073486
 21
173.2596260759387
 31
0.0
  0
LINE
  5
3A38
330
3A17
100
AcDbEntity
  8
0
 62
     0
 48
10.0
100
AcDbLine
 10
100.72699073486
 20
173.2596260759388
 30
0.0
 11
100.808504335209
 21
173.356770202
 31
0.0
  0
LINE
  5
3A39
330
3A17
100
AcDbEntity
  8
0
 62
     0
 48
10.0
100
AcDbLine
 10
99.2775658285546
 20
173.3673678054974
 30
0.0
 11
99.29418048256046
 21
173.3871683790986
 31
0.0
  0
LINE
  5
3A3A
330
3A17
100
AcDbEntity
  8
0
 62
     0
 48
10.0
100
AcDbLine
 10
98.9530562033004
 20
167.475335021393
 30
0.0
 11
99.07259956707141
 21
167.4648763322633
 31
0.0
  0
LINE
  5
3A3B
330
3A17
100
AcDbEntity
  8
0
 62
     0
 48
10.0
100
AcDbLine
 10
100.3875765685525
 20
167.3498307518364
 30
0.0
 11
100.5071199323235
 21
167.3393720627067
 31
0.0
  0
LINE
  5
3A3C
330
3A17
100
AcDbEntity
  8
0
 62
     0
 48
10.0
100
AcDbLine
 10
101.8220969338046
 20
167.2243264822798
 30
0.0
 11
101.9416402975756
 21
167.21386779315
 31
0.0
  0
LINE
  5
3A3D
330
3A17
100
AcDbEntity
  8
0
 62
     0
 48
10.0
100
AcDbLine
 10
103.2566172990567
 20
167.0988222127231
 30
0.0
 11
103.3741750844858
 21
167.0885372391889
 31
0.0
  0
LINE
  5
3A3E
330
3A17
100
AcDbEntity
  8
0
 62
     0
 48
10.0
100
AcDbLine
 10
98.67555353607443
 20
168.979719288793
 30
0.0
 11
98.79509689984544
 21
168.9692605996634
 31
0.0
  0
LINE
  5
3A3F
330
3A17
100
AcDbEntity
  8
0
 62
     0
 48
10.0
100
AcDbLine
 10
100.1100739013265
 20
168.8542150192364
 30
0.0
 11
100.2296172650975
 21
168.8437563301067
 31
0.0
  0
LINE
  5
3A40
330
3A17
100
AcDbEntity
  8
0
 62
     0
 48
10.0
100
AcDbLine
 10
101.5445942665786
 20
168.7287107496798
 30
0.0
 11
101.6641376303496
 21
168.7182520605501
 31
0.0
  0
LINE
  5
3A41
330
3A17
100
AcDbEntity
  8
0
 62
     0
 48
10.0
100
AcDbLine
 10
102.9791146318307
 20
168.6032064801232
 30
0.0
 11
103.0986579956017
 21
168.5927477909935
 31
0.0
  0
LINE
  5
3A42
330
3A17
100
AcDbEntity
  8
0
 62
     0
 48
10.0
100
AcDbLine
 10
98.42842775252039
 20
170.4814459232385
 30
0.0
 11
98.51759423261938
 21
170.4736448670634
 31
0.0
  0
LINE
  5
3A43
330
3A17
100
AcDbEntity
  8
0
 62
     0
 48
10.0
100
AcDbLine
 10
99.8325712341005
 20
170.3585992866365
 30
0.0
 11
99.95211459787151
 21
170.3481405975067
 31
0.0
  0
LINE
  5
3A44
330
3A17
100
AcDbEntity
  8
0
 62
     0
 48
10.0
100
AcDbLine
 10
101.2670915993526
 20
170.2330950170798
 30
0.0
 11
101.3866349631236
 21
170.2226363279501
 31
0.0
  0
LINE
  5
3A45
330
3A17
100
AcDbEntity
  8
0
 62
     0
 48
10.0
100
AcDbLine
 10
102.7016119646047
 20
170.1075907475232
 30
0.0
 11
102.8211553283757
 21
170.0971320583934
 31
0.0
  0
LINE
  5
3A46
330
3A17
100
AcDbEntity
  8
0
 62
     0
 48
10.0
100
AcDbLine
 10
99.55506856687449
 20
171.8629835540365
 30
0.0
 11
99.67461193064551
 21
171.8525248649068
 31
0.0
  0
LINE
  5
3A47
330
3A17
100
AcDbEntity
  8
0
 62
     0
 48
10.0
100
AcDbLine
 10
100.9895889321266
 20
171.7374792844798
 30
0.0
 11
101.1091322958976
 21
171.7270205953501
 31
0.0
  0
LINE
  5
3A48
330
3A17
100
AcDbEntity
  8
0
 62
     0
 48
10.0
100
AcDbLine
 10
102.4241092973787
 20
171.6119750149232
 30
0.0
 11
102.5436526611497
 21
171.6015163257935
 31
0.0
  0
LINE
  5
3A49
330
3A17
100
AcDbEntity
  8
0
 62
     0
 48
10.0
100
AcDbLine
 10
99.27756589964852
 20
173.3673678214365
 30
0.0
 11
99.39710926341954
 21
173.3569091323068
 31
0.0
  0
LINE
  5
3A4A
330
3A17
100
AcDbEntity
  8
0
 62
     0
 48
10.0
100
AcDbLine
 10
100.7120862649006
 20
173.2418635518799
 30
0.0
 11
100.72699073486
 21
173.2405595797226
 31
0.0
  0
LINE
  5
3A4B
330
3A17
100
AcDbEntity
  8
0
 62
     0
 48
10.0
100
AcDbLine
 10
100.72699073486
 20
173.2405595797225
 30
0.0
 11
100.8316296286716
 21
173.2314048627501
 31
0.0
  0
LINE
  5
3A4C
330
3A17
100
AcDbEntity
  8
0
 62
     0
 48
10.0
100
AcDbLine
 10
102.1466066301527
 20
173.1163592823232
 30
0.0
 11
102.2661499939237
 21
173.1059005931935
 31
0.0
  0
LINE
  5
3A4D
330
3A17
100
AcDbEntity
  8
0
 62
     0
 48
10.0
100
AcDbLine
 10
99.2305588705264
 20
165.970950753993
 30
0.0
 11
99.35010223429742
 21
165.9604920648633
 31
0.0
  0
LINE
  5
3A4E
330
3A17
100
AcDbEntity
  8
0
 62
     0
 48
10.0
100
AcDbLine
 10
100.6650792357785
 20
165.8454464844364
 30
0.0
 11
100.72699073486
 21
165.8400299301248
 31
0.0
  0
LINE
  5
3A4F
330
3A17
100
AcDbEntity
  8
0
 62
     0
 48
10.0
100
AcDbLine
 10
100.72699073486
 20
165.8400299301248
 30
0.0
 11
100.7846225995495
 21
165.8349877953066
 31
0.0
  0
LINE
  5
3A50
330
3A17
100
AcDbEntity
  8
0
 62
     0
 48
10.0
100
AcDbLine
 10
102.0995996010306
 20
165.7199422148797
 30
0.0
 11
102.2191429648016
 21
165.70948352575
 31
0.0
  0
LINE
  5
3A51
330
3A17
100
AcDbEntity
  8
0
 62
     0
 48
10.0
100
AcDbLine
 10
98.0735411725003
 20
164.5920707561496
 30
0.0
 11
98.19308453627131
 21
164.5816120670199
 31
0.0
  0
LINE
  5
3A52
330
3A17
100
AcDbEntity
  8
0
 62
     0
 48
10.0
100
AcDbLine
 10
99.50806153775243
 20
164.466566486593
 30
0.0
 11
99.62760490152344
 21
164.4561077974633
 31
0.0
  0
LINE
  5
3A53
330
3A17
100
AcDbEntity
  8
0
 62
     0
 48
10.0
100
AcDbLine
 10
100.9425819030045
 20
164.3410622170363
 30
0.0
 11
101.0621252667755
 21
164.3306035279066
 31
0.0
  0
LINE
  5
3A54
330
3A17
100
AcDbEntity
  8
0
 62
     0
 48
10.0
100
AcDbLine
 10
102.3771022682566
 20
164.2155579474797
 30
0.0
 11
102.4966456320276
 21
164.20509925835
 31
0.0
  0
LINE
  5
3A55
330
3A17
100
AcDbEntity
  8
0
 62
     0
 48
10.0
100
AcDbLine
 10
98.35104383972627
 20
163.0876864887496
 30
0.0
 11
98.47058720349728
 21
163.0772277996199
 31
0.0
  0
LINE
  5
3A56
330
3A17
100
AcDbEntity
  8
0
 62
     0
 48
10.0
100
AcDbLine
 10
99.7855642049784
 20
162.962182219193
 30
0.0
 11
99.90510756874941
 21
162.9517235300633
 31
0.0
  0
LINE
  5
3A57
330
3A17
100
AcDbEntity
  8
0
 62
     0
 48
10.0
100
AcDbLine
 10
101.2200845702305
 20
162.8366779496364
 30
0.0
 11
101.3396279340015
 21
162.8262192605066
 31
0.0
  0
LINE
  5
3A58
330
3A17
100
AcDbEntity
  8
0
 62
     0
 48
10.0
100
AcDbLine
 10
102.6546049354826
 20
162.7111736800797
 30
0.0
 11
102.7741482992536
 21
162.70071499095
 31
0.0
  0
LINE
  5
3A59
330
3A17
100
AcDbEntity
  8
0
 62
     0
 48
10.0
100
AcDbLine
 10
98.62854650695226
 20
161.5833022213496
 30
0.0
 11
98.74808987072327
 21
161.5728435322199
 31
0.0
  0
LINE
  5
3A5A
330
3A17
100
AcDbEntity
  8
0
 62
     0
 48
10.0
100
AcDbLine
 10
100.0630668722043
 20
161.457797951793
 30
0.0
 11
100.1826102359754
 21
161.4473392626632
 31
0.0
  0
LINE
  5
3A5B
330
3A17
100
AcDbEntity
  8
0
 62
     0
 48
10.0
100
AcDbLine
 10
101.6051892029216
 20
161.3871683790987
 30
0.0
 11
101.5941304023094
 21
161.4471200855588
 31
0.0
  0
LINE
  5
3A5C
330
3A17
100
AcDbEntity
  8
0
 62
     0
 48
10.0
100
AcDbLine
 10
101.3397540336111
 20
162.8261391963499
 30
0.0
 11
101.3166289099096
 21
162.9515045661246
 31
0.0
  0
LINE
  5
3A5D
330
3A17
100
AcDbEntity
  8
0
 62
     0
 48
10.0
100
AcDbLine
 10
101.0622525412112
 20
164.3305236769157
 30
0.0
 11
101.0391274175097
 21
164.4558890466903
 31
0.0
  0
LINE
  5
3A5E
330
3A17
100
AcDbEntity
  8
0
 62
     0
 48
10.0
100
AcDbLine
 10
100.7847510488113
 20
165.8349081574814
 30
0.0
 11
100.7616259251098
 21
165.9602735272561
 31
0.0
  0
LINE
  5
3A5F
330
3A17
100
AcDbEntity
  8
0
 62
     0
 48
10.0
100
AcDbLine
 10
100.5072495564115
 20
167.3392926380472
 30
0.0
 11
100.48412443271
 21
167.4646580078218
 31
0.0
  0
LINE
  5
3A60
330
3A17
100
AcDbEntity
  8
0
 62
     0
 48
10.0
100
AcDbLine
 10
100.2297480640117
 20
168.8436771186129
 30
0.0
 11
100.2066229403101
 21
168.9690424883876
 31
0.0
  0
LINE
  5
3A61
330
3A17
100
AcDbEntity
  8
0
 62
     0
 48
10.0
100
AcDbLine
 10
99.95224657161184
 20
170.3480615991787
 30
0.0
 11
99.92912144791032
 21
170.4734269689534
 31
0.0
  0
LINE
  5
3A62
330
3A17
100
AcDbEntity
  8
0
 62
     0
 48
10.0
100
AcDbLine
 10
99.67474507921197
 20
171.8524460797445
 30
0.0
 11
99.65161995551046
 21
171.9778114495191
 31
0.0
  0
LINE
  5
3A63
330
3A17
100
AcDbEntity
  8
0
 62
     0
 48
10.0
100
AcDbLine
 10
99.3972435868121
 20
173.3568305603102
 30
0.0
 11
99.39164741768202
 21
173.3871683790986
 31
0.0
  0
LINE
  5
3A64
330
3A17
100
AcDbEntity
  8
0
 62
     0
 48
10.0
100
AcDbLine
 10
102.774274289439
 20
162.700633799906
 30
0.0
 11
102.7511491657375
 21
162.8259991696807
 31
0.0
  0
LINE
  5
3A65
330
3A17
100
AcDbEntity
  8
0
 62
     0
 48
10.0
100
AcDbLine
 10
102.4967727970391
 20
164.2050182804718
 30
0.0
 11
102.4736476733376
 21
164.3303836502465
 31
0.0
  0
LINE
  5
3A66
330
3A17
100
AcDbEntity
  8
0
 62
     0
 48
10.0
100
AcDbLine
 10
102.2192713046393
 20
165.7094027610376
 30
0.0
 11
102.1961461809377
 21
165.8347681308122
 31
0.0
  0
LINE
  5
3A67
330
3A17
100
AcDbEntity
  8
0
 62
     0
 48
10.0
100
AcDbLine
 10
101.9417698122394
 20
167.2137872416033
 30
0.0
 11
101.9186446885379
 21
167.339152611378
 31
0.0
  0
LINE
  5
3A68
330
3A17
100
AcDbEntity
  8
0
 62
     0
 48
10.0
100
AcDbLine
 10
101.6642683198395
 20
168.7181717221691
 30
0.0
 11
101.641143196138
 21
168.8435370919437
 31
0.0
  0
LINE
  5
3A69
330
3A17
100
AcDbEntity
  8
0
 62
     0
 48
10.0
100
AcDbLine
 10
101.3867668274397
 20
170.2225562027348
 30
0.0
 11
101.3636417037382
 21
170.3479215725095
 31
0.0
  0
LINE
  5
3A6A
330
3A17
100
AcDbEntity
  8
0
 62
     0
 48
10.0
100
AcDbLine
 10
101.1092653350398
 20
171.7269406833006
 30
0.0
 11
101.0861402113383
 21
171.8523060530753
 31
0.0
  0
LINE
  5
3A6B
330
3A17
100
AcDbEntity
  8
0
 62
     0
 48
10.0
100
AcDbLine
 10
100.83176384264
 20
173.2313251638664
 30
0.0
 11
100.8086387189384
 21
173.356690533641
 31
0.0
  0
LINE
  5
3A6C
330
3A17
100
AcDbEntity
  8
0
 62
     0
 48
10.0
100
AcDbLine
 10
103.3715748000164
 20
167.1138441440004
 30
0.0
 11
103.3531649443658
 21
167.2136472149341
 31
0.0
  0
LINE
  5
3A6D
330
3A17
100
AcDbEntity
  8
0
 62
     0
 48
10.0
100
AcDbLine
 10
103.0987885756675
 20
168.5926663257253
 30
0.0
 11
103.075663451966
 21
168.7180316954999
 31
0.0
  0
LINE
  5
3A6E
330
3A17
100
AcDbEntity
  8
0
 62
     0
 48
10.0
100
AcDbLine
 10
102.8212870832676
 20
170.097050806291
 30
0.0
 11
102.7981619595661
 21
170.2224161760657
 31
0.0
  0
LINE
  5
3A6F
330
3A17
100
AcDbEntity
  8
0
 62
     0
 48
10.0
100
AcDbLine
 10
102.5437855908678
 20
171.6014352868568
 30
0.0
 11
102.5206604671662
 21
171.7268006566314
 31
0.0
  0
LINE
  5
3A70
330
3A17
100
AcDbEntity
  8
0
 62
     0
 48
10.0
100
AcDbLine
 10
102.2662840984679
 20
173.1058197674225
 30
0.0
 11
102.2431589747664
 21
173.2311851371972
 31
0.0
  0
LINE
  5
3A71
330
3A17
100
AcDbEntity
  8
0
 62
     0
 48
10.0
100
AcDbLine
 10
100.182735270183
 20
161.447260112228
 30
0.0
 11
100.1596101464815
 21
161.5726254820026
 31
0.0
  0
LINE
  5
3A72
330
3A17
100
AcDbEntity
  8
0
 62
     0
 48
10.0
100
AcDbLine
 10
99.90523377778322
 20
162.9516445927938
 30
0.0
 11
99.8821086540817
 21
163.0770099625684
 31
0.0
  0
LINE
  5
3A73
330
3A17
100
AcDbEntity
  8
0
 62
     0
 48
10.0
100
AcDbLine
 10
99.62773228538335
 20
164.4560290733595
 30
0.0
 11
99.60460716168183
 21
164.5813944431341
 31
0.0
  0
LINE
  5
3A74
330
3A17
100
AcDbEntity
  8
0
 62
     0
 48
10.0
100
AcDbLine
 10
99.35023079298348
 20
165.9604135539253
 30
0.0
 11
99.32710566928196
 21
166.0857789236999
 31
0.0
  0
LINE
  5
3A75
330
3A17
100
AcDbEntity
  8
0
 62
     0
 48
10.0
100
AcDbLine
 10
99.07272930058361
 20
167.464798034491
 30
0.0
 11
99.0496041768821
 21
167.5901634042657
 31
0.0
  0
LINE
  5
3A76
330
3A17
100
AcDbEntity
  8
0
 62
     0
 48
10.0
100
AcDbLine
 10
98.79522780818376
 20
168.9691825150568
 30
0.0
 11
98.77210268448223
 21
169.0945478848314
 31
0.0
  0
LINE
  5
3A77
330
3A17
100
AcDbEntity
  8
0
 62
     0
 48
10.0
100
AcDbLine
 10
98.5177263157839
 20
170.4735669956226
 30
0.0
 11
98.49460119208238
 21
170.5989323653972
 31
0.0
  0
LINE
  5
3A78
330
3A17
100
AcDbEntity
  8
0
 62
     0
 48
10.0
100
AcDbLine
 10
98.74821501435516
 20
161.5727655086718
 30
0.0
 11
98.72508989065364
 21
161.6981308784465
 31
0.0
  0
LINE
  5
3A79
330
3A17
100
AcDbEntity
  8
0
 62
     0
 48
10.0
100
AcDbLine
 10
98.47071352195529
 20
163.0771499892376
 30
0.0
 11
98.44758839825377
 21
163.2025153590122
 31
0.0
  0
LINE
  5
3A7A
330
3A17
100
AcDbEntity
  8
0
 62
     0
 48
10.0
100
AcDbLine
 10
98.19321202955542
 20
164.5815344698034
 30
0.0
 11
98.17008690585391
 21
164.706899839578
 31
0.0
  0
LINE
  5
3A7B
330
3A17
100
AcDbEntity
  8
0
 62
     0
 48
10.0
100
AcDbLine
 10
98.31834089388953
 20
164.2038888008513
 30
0.0
 11
98.47411788475195
 21
164.366241900969
 31
0.0
  0
LINE
  5
3A7C
330
3A17
100
AcDbEntity
  8
0
 62
     0
 48
10.0
100
AcDbLine
 10
100.1876647842385
 20
166.1521260022645
 30
0.0
 11
100.3434417751009
 21
166.3144791023823
 31
0.0
  0
LINE
  5
3A7D
330
3A17
100
AcDbEntity
  8
0
 62
     0
 48
10.0
100
AcDbLine
 10
102.0569886745875
 20
168.1003632036778
 30
0.0
 11
102.21276566545
 21
168.2627163037955
 31
0.0
  0
LINE
  5
3A7E
330
3A17
100
AcDbEntity
  8
0
 62
     0
 48
10.0
100
AcDbLine
 10
98.58349910079187
 20
161.92461357078
 30
0.0
 11
98.73927609165429
 21
162.0869666708978
 31
0.0
  0
LINE
  5
3A7F
330
3A17
100
AcDbEntity
  8
0
 62
     0
 48
10.0
100
AcDbLine
 10
100.4528229911408
 20
163.8728507721932
 30
0.0
 11
100.6085999820033
 21
164.035203872311
 31
0.0
  0
LINE
  5
3A80
330
3A17
100
AcDbEntity
  8
0
 62
     0
 48
10.0
100
AcDbLine
 10
102.3221468814898
 20
165.8210879736065
 30
0.0
 11
102.4779238723522
 21
165.9834410737242
 31
0.0
  0
LINE
  5
3A81
330
3A17
100
AcDbEntity
  8
0
 62
     0
 48
10.0
100
AcDbLine
 10
100.7179811980431
 20
161.593575542122
 30
0.0
 11
100.72699073486
 21
161.6029654155863
 31
0.0
  0
LINE
  5
3A82
330
3A17
100
AcDbEntity
  8
0
 62
     0
 48
10.0
100
AcDbLine
 10
100.72699073486
 20
161.6029654155863
 30
0.0
 11
100.8737581889055
 21
161.7559286422397
 31
0.0
  0
LINE
  5
3A83
330
3A17
100
AcDbEntity
  8
0
 62
     0
 48
10.0
100
AcDbLine
 10
102.5873050883921
 20
163.5418127435352
 30
0.0
 11
102.7430820792545
 21
163.704165843653
 31
0.0
  0
LINE
  5
3A84
330
3A17
100
AcDbEntity
  8
0
 62
     0
 48
10.0
100
AcDbLine
 10
102.9720459900694
 20
161.3871683790986
 30
0.0
 11
103.0082402861568
 21
161.4248906135817
 31
0.0
  0
LINE
  5
3A85
330
3A17
100
AcDbEntity
  8
0
 62
     0
 48
10.0
100
AcDbLine
 10
98.05318268698727
 20
166.4831640309225
 30
0.0
 11
98.2089596778497
 21
166.6455171310403
 31
0.0
  0
LINE
  5
3A86
330
3A17
100
AcDbEntity
  8
0
 62
     0
 48
10.0
100
AcDbLine
 10
99.92250657733627
 20
168.4314012323358
 30
0.0
 11
100.0782835681987
 21
168.5937543324535
 31
0.0
  0
LINE
  5
3A87
330
3A17
100
AcDbEntity
  8
0
 62
     0
 48
10.0
100
AcDbLine
 10
101.7918304676852
 20
170.379638433749
 30
0.0
 11
101.9476074585477
 21
170.5419915338668
 31
0.0
  0
LINE
  5
3A88
330
3A17
100
AcDbEntity
  8
0
 62
     0
 48
10.0
100
AcDbLine
 10
99.65734837043399
 20
170.710676462407
 30
0.0
 11
99.81312536129641
 21
170.8730295625248
 31
0.0
  0
LINE
  5
3A89
330
3A17
100
AcDbEntity
  8
0
 62
     0
 48
10.0
100
AcDbLine
 10
101.526672260783
 20
172.6589136638203
 30
0.0
 11
101.6824492516454
 21
172.821266763938
 31
0.0
  0
LINE
  5
3A8A
330
3A17
100
AcDbEntity
  8
0
 62
     0
 48
10.0
100
AcDbLine
 10
99.39219016353174
 20
172.9899516924783
 30
0.0
 11
99.54796715439416
 21
173.1523047925961
 31
0.0
  0
LINE
  5
3A8B
330
3A17
100
AcDbEntity
  8
0
 62
     0
 48
10.0
100
AcDbLine
 10
100.8959813784587
 20
161.5659029505792
 30
0.0
 11
100.8738850095258
 21
161.7558425703686
 31
0.0
  0
LINE
  5
3A8C
330
3A17
100
AcDbEntity
  8
0
 62
     0
 48
10.0
100
AcDbLine
 10
100.6308249900908
 20
163.8451780543032
 30
0.0
 11
100.6087286211579
 21
164.0351176740927
 31
0.0
  0
LINE
  5
3A8D
330
3A17
100
AcDbEntity
  8
0
 62
     0
 48
10.0
100
AcDbLine
 10
100.3656686017229
 20
166.1244531580273
 30
0.0
 11
100.34357223279
 21
166.3143927778167
 31
0.0
  0
LINE
  5
3A8E
330
3A17
100
AcDbEntity
  8
0
 62
     0
 48
10.0
100
AcDbLine
 10
100.100512213355
 20
168.4037282617513
 30
0.0
 11
100.0784158444222
 21
168.5936678815408
 31
0.0
  0
LINE
  5
3A8F
330
3A17
100
AcDbEntity
  8
0
 62
     0
 48
10.0
100
AcDbLine
 10
99.83535582498717
 20
170.6830033654754
 30
0.0
 11
99.81325945605433
 21
170.8729429852648
 31
0.0
  0
LINE
  5
3A90
330
3A17
100
AcDbEntity
  8
0
 62
     0
 48
10.0
100
AcDbLine
 10
99.57019943661929
 20
172.9622784691994
 30
0.0
 11
99.54810306768644
 21
173.1522180889889
 31
0.0
  0
LINE
  5
3A91
330
3A17
100
AcDbEntity
  8
0
 62
     0
 48
10.0
100
AcDbLine
 10
103.0127450059934
 20
161.3871683790986
 30
0.0
 11
103.0083668089911
 21
161.4248032084455
 31
0.0
  0
LINE
  5
3A92
330
3A17
100
AcDbEntity
  8
0
 62
     0
 48
10.0
100
AcDbLine
 10
102.7653067895561
 20
163.5141386923801
 30
0.0
 11
102.7432104206232
 21
163.7040783121695
 31
0.0
  0
LINE
  5
3A93
330
3A17
100
AcDbEntity
  8
0
 62
     0
 48
10.0
100
AcDbLine
 10
102.5001504011882
 20
165.7934137961041
 30
0.0
 11
102.4780540322554
 21
165.9833534158936
 31
0.0
  0
LINE
  5
3A94
330
3A17
100
AcDbEntity
  8
0
 62
     0
 48
10.0
100
AcDbLine
 10
102.2349940128203
 20
168.0726888998282
 30
0.0
 11
102.2128976438875
 21
168.2626285196176
 31
0.0
  0
LINE
  5
3A95
330
3A17
100
AcDbEntity
  8
0
 62
     0
 48
10.0
100
AcDbLine
 10
101.9698376244524
 20
170.3519640035522
 30
0.0
 11
101.9477412555196
 21
170.5419036233417
 31
0.0
  0
LINE
  5
3A96
330
3A17
100
AcDbEntity
  8
0
 62
     0
 48
10.0
100
AcDbLine
 10
101.7046812360846
 20
172.6312391072763
 30
0.0
 11
101.6825848671517
 21
172.8211787270657
 31
0.0
  0
LINE
  5
3A97
330
3A17
100
AcDbEntity
  8
0
 62
     0
 48
10.0
100
AcDbLine
 10
98.76149957899343
 20
161.8969423125023
 30
0.0
 11
98.73940321006058
 21
162.0868819322918
 31
0.0
  0
LINE
  5
3A98
330
3A17
100
AcDbEntity
  8
0
 62
     0
 48
10.0
100
AcDbLine
 10
98.49634319062554
 20
164.1762174162264
 30
0.0
 11
98.47424682169268
 21
164.3661570360158
 31
0.0
  0
LINE
  5
3A99
330
3A17
100
AcDbEntity
  8
0
 62
     0
 48
10.0
100
AcDbLine
 10
98.23118680225766
 20
166.4554925199504
 30
0.0
 11
98.20909043332481
 21
166.6454321397399
 31
0.0
  0
LINE
  5
3A9A
330
3A17
100
AcDbEntity
  8
0
 62
     0
 48
10.0
100
AcDbLine
 10
98.05318267745223
 20
166.4831640511927
 30
0.0
 11
98.23105618556622
 21
166.455577548855
 31
0.0
  0
LINE
  5
3A9B
330
3A17
100
AcDbEntity
  8
0
 62
     0
 48
10.0
100
AcDbLine
 10
100.18766477482
 20
166.1521260231411
 30
0.0
 11
100.365538282934
 21
166.1245395208034
 31
0.0
  0
LINE
  5
3A9C
330
3A17
100
AcDbEntity
  8
0
 62
     0
 48
10.0
100
AcDbLine
 10
102.3221468721878
 20
165.8210879950894
 30
0.0
 11
102.5000203803018
 21
165.7935014927518
 31
0.0
  0
LINE
  5
3A9D
330
3A17
100
AcDbEntity
  8
0
 62
     0
 48
10.0
100
AcDbLine
 10
99.92250656771947
 20
168.4314012530433
 30
0.0
 11
100.1003800758334
 21
168.4038147507056
 31
0.0
  0
LINE
  5
3A9E
330
3A17
100
AcDbEntity
  8
0
 62
     0
 48
10.0
100
AcDbLine
 10
102.0569886650873
 20
168.1003632249917
 30
0.0
 11
102.2348621732012
 21
168.072776722654
 31
0.0
  0
LINE
  5
3A9F
330
3A17
100
AcDbEntity
  8
0
 62
     0
 48
10.0
100
AcDbLine
 10
99.65734836061891
 20
170.7106764829456
 30
0.0
 11
99.8352218687329
 21
170.683089980608
 31
0.0
  0
LINE
  5
3AA0
330
3A17
100
AcDbEntity
  8
0
 62
     0
 48
10.0
100
AcDbLine
 10
101.7918304579867
 20
170.379638454894
 30
0.0
 11
101.9697039661007
 21
170.3520519525563
 31
0.0
  0
LINE
  5
3AA1
330
3A17
100
AcDbEntity
  8
0
 62
     0
 48
10.0
100
AcDbLine
 10
99.39219015351834
 20
172.9899517128478
 30
0.0
 11
99.57006366163234
 21
172.9623652105101
 31
0.0
  0
LINE
  5
3AA2
330
3A17
100
AcDbEntity
  8
0
 62
     0
 48
10.0
100
AcDbLine
 10
101.5266722508861
 20
172.6589136847962
 30
0.0
 11
101.7045457590001
 21
172.6313271824585
 31
0.0
  0
LINE
  5
3AA3
330
3A17
100
AcDbEntity
  8
0
 62
     0
 48
10.0
100
AcDbLine
 10
98.31834088455275
 20
164.2038888212904
 30
0.0
 11
98.49621439266675
 21
164.1763023189528
 31
0.0
  0
LINE
  5
3AA4
330
3A17
100
AcDbEntity
  8
0
 62
     0
 48
10.0
100
AcDbLine
 10
100.4528229819205
 20
163.8728507932388
 30
0.0
 11
100.6306964900345
 21
163.8452642909012
 31
0.0
  0
LINE
  5
3AA5
330
3A17
100
AcDbEntity
  8
0
 62
     0
 48
10.0
100
AcDbLine
 10
102.5873050792883
 20
163.5418127651872
 30
0.0
 11
102.7651785874023
 21
163.5142262628496
 31
0.0
  0
LINE
  5
3AA6
330
3A17
100
AcDbEntity
  8
0
 62
     0
 48
10.0
100
AcDbLine
 10
98.58349909165331
 20
161.9246135913881
 30
0.0
 11
98.76137259976729
 21
161.8970270890505
 31
0.0
  0
LINE
  5
3AA7
330
3A17
100
AcDbEntity
  8
0
 62
     0
 48
10.0
100
AcDbLine
 10
100.7179811890211
 20
161.5935755633365
 30
0.0
 11
100.72699073486
 21
161.592178267809
 31
0.0
  0
LINE
  5
3AA8
330
3A17
100
AcDbEntity
  8
0
 62
     0
 48
10.0
100
AcDbLine
 10
100.72699073486
 20
161.592178267809
 30
0.0
 11
100.8958546971351
 21
161.5659890609989
 31
0.0
  0
LINE
  5
3AA9
330
3A17
100
AcDbEntity
  8
0
 62
     0
 48
10.0
100
AcDbLine
 10
98.08259527241595
 20
165.4871161079986
 30
0.0
 11
98.22263233639054
 21
165.5408713004304
 31
0.0
  0
LINE
  5
3AAA
330
3A17
100
AcDbEntity
  8
0
 62
     0
 48
10.0
100
AcDbLine
 10
99.7630400401109
 20
166.1321784171802
 30
0.0
 11
99.90307710408549
 21
166.185933609612
 31
0.0
  0
LINE
  5
3AAB
330
3A17
100
AcDbEntity
  8
0
 62
     0
 48
10.0
100
AcDbLine
 10
101.4434848078058
 20
166.7772407263617
 30
0.0
 11
101.5835218717804
 21
166.8309959187935
 31
0.0
  0
LINE
  5
3AAC
330
3A17
100
AcDbEntity
  8
0
 62
     0
 48
10.0
100
AcDbLine
 10
103.1239295755008
 20
167.4223030355432
 30
0.0
 11
103.2639666394753
 21
167.476058227975
 31
0.0
  0
LINE
  5
3AAD
330
3A17
100
AcDbEntity
  8
0
 62
     0
 48
10.0
100
AcDbLine
 10
99.27640937665287
 20
164.681878326668
 30
0.0
 11
99.41644644062744
 21
164.7356335190997
 31
0.0
  0
LINE
  5
3AAE
330
3A17
100
AcDbEntity
  8
0
 62
     0
 48
10.0
100
AcDbLine
 10
100.9568541443478
 20
165.3269406358495
 30
0.0
 11
101.0968912083224
 21
165.3806958282813
 31
0.0
  0
LINE
  5
3AAF
330
3A17
100
AcDbEntity
  8
0
 62
     0
 48
10.0
100
AcDbLine
 10
102.6372989120428
 20
165.972002945031
 30
0.0
 11
102.7773359760173
 21
166.0257581374628
 31
0.0
  0
LINE
  5
3AB0
330
3A17
100
AcDbEntity
  8
0
 62
     0
 48
10.0
100
AcDbLine
 10
98.78977871319484
 20
163.2315782361557
 30
0.0
 11
98.92981577716941
 21
163.2853334285876
 31
0.0
  0
LINE
  5
3AB1
330
3A17
100
AcDbEntity
  8
0
 62
     0
 48
10.0
100
AcDbLine
 10
100.4702234808897
 20
163.8766405453373
 30
0.0
 11
100.6102605448643
 21
163.9303957377691
 31
0.0
  0
LINE
  5
3AB2
330
3A17
100
AcDbEntity
  8
0
 62
     0
 48
10.0
100
AcDbLine
 10
102.1506682485847
 20
164.5217028545188
 30
0.0
 11
102.2907053125593
 21
164.5754580469506
 31
0.0
  0
LINE
  5
3AB3
330
3A17
100
AcDbEntity
  8
0
 62
     0
 48
10.0
100
AcDbLine
 10
98.3031480497368
 20
161.7812781456435
 30
0.0
 11
98.44318511371136
 21
161.8350333380753
 31
0.0
  0
LINE
  5
3AB4
330
3A17
100
AcDbEntity
  8
0
 62
     0
 48
10.0
100
AcDbLine
 10
99.98359281743175
 20
162.426340454825
 30
0.0
 11
100.1236298814063
 21
162.4800956472568
 31
0.0
  0
LINE
  5
3AB5
330
3A17
100
AcDbEntity
  8
0
 62
     0
 48
10.0
100
AcDbLine
 10
101.6640375851267
 20
163.0714027640066
 30
0.0
 11
101.8040746491013
 21
163.1251579564384
 31
0.0
  0
LINE
  5
3AB6
330
3A17
100
AcDbEntity
  8
0
 62
     0
 48
10.0
100
AcDbLine
 10
103.3444823528216
 20
163.7164650731881
 30
0.0
 11
103.4845194167962
 21
163.77022026562
 31
0.0
  0
LINE
  5
3AB7
330
3A17
100
AcDbEntity
  8
0
 62
     0
 48
10.0
100
AcDbLine
 10
101.1774069216686
 20
161.6211026734944
 30
0.0
 11
101.3174439856432
 21
161.6748578659262
 31
0.0
  0
LINE
  5
3AB8
330
3A17
100
AcDbEntity
  8
0
 62
     0
 48
10.0
100
AcDbLine
 10
102.8578516893636
 20
162.2661649826759
 30
0.0
 11
102.9978887533382
 21
162.3199201751077
 31
0.0
  0
LINE
  5
3AB9
330
3A17
100
AcDbEntity
  8
0
 62
     0
 48
10.0
100
AcDbLine
 10
98.56922593587398
 20
166.9374161985109
 30
0.0
 11
98.70926299984855
 21
166.9911713909427
 31
0.0
  0
LINE
  5
3ABA
330
3A17
100
AcDbEntity
  8
0
 62
     0
 48
10.0
100
AcDbLine
 10
100.2496707035689
 20
167.5824785076924
 30
0.0
 11
100.3897077675435
 21
167.6362337001242
 31
0.0
  0
LINE
  5
3ABB
330
3A17
100
AcDbEntity
  8
0
 62
     0
 48
10.0
100
AcDbLine
 10
101.9301154712639
 20
168.2275408168739
 30
0.0
 11
102.0701525352385
 21
168.2812960093057
 31
0.0
  0
LINE
  5
3ABC
330
3A17
100
AcDbEntity
  8
0
 62
     0
 48
10.0
100
AcDbLine
 10
99.05585659933203
 20
168.3877162890231
 30
0.0
 11
99.19589366330662
 21
168.4414714814549
 31
0.0
  0
LINE
  5
3ABD
330
3A17
100
AcDbEntity
  8
0
 62
     0
 48
10.0
100
AcDbLine
 10
100.736301367027
 20
169.0327785982046
 30
0.0
 11
100.8763384310015
 21
169.0865337906364
 31
0.0
  0
LINE
  5
3ABE
330
3A17
100
AcDbEntity
  8
0
 62
     0
 48
10.0
100
AcDbLine
 10
102.4167461347219
 20
169.6778409073861
 30
0.0
 11
102.5567831986965
 21
169.7315960998179
 31
0.0
  0
LINE
  5
3ABF
330
3A17
100
AcDbEntity
  8
0
 62
     0
 48
10.0
100
AcDbLine
 10
99.54248726279006
 20
169.8380163795353
 30
0.0
 11
99.68252432676464
 21
169.8917715719671
 31
0.0
  0
LINE
  5
3AC0
330
3A17
100
AcDbEntity
  8
0
 62
     0
 48
10.0
100
AcDbLine
 10
101.222932030485
 20
170.4830786887168
 30
0.0
 11
101.3629690944596
 21
170.5368338811486
 31
0.0
  0
LINE
  5
3AC1
330
3A17
100
AcDbEntity
  8
0
 62
     0
 48
10.0
100
AcDbLine
 10
102.90337679818
 20
171.1281409978983
 30
0.0
 11
102.9569911398281
 21
171.1487216154191
 31
0.0
  0
LINE
  5
3AC2
330
3A17
100
AcDbEntity
  8
0
 62
     0
 48
10.0
100
AcDbLine
 10
98.4490110802127
 20
170.6817702803413
 30
0.0
 11
98.48871022252772
 21
170.6970093532978
 31
0.0
  0
LINE
  5
3AC3
330
3A17
100
AcDbEntity
  8
0
 62
     0
 48
10.0
100
AcDbLine
 10
100.029117926248
 20
171.2883164700475
 30
0.0
 11
100.1691549902226
 21
171.3420716624793
 31
0.0
  0
LINE
  5
3AC4
330
3A17
100
AcDbEntity
  8
0
 62
     0
 48
10.0
100
AcDbLine
 10
101.709562693943
 20
171.9333787792291
 30
0.0
 11
101.8495997579176
 21
171.9871339716609
 31
0.0
  0
LINE
  5
3AC5
330
3A17
100
AcDbEntity
  8
0
 62
     0
 48
10.0
100
AcDbLine
 10
98.83530382201117
 20
172.0935542513782
 30
0.0
 11
98.97534088598575
 21
172.14730944381
 31
0.0
  0
LINE
  5
3AC6
330
3A17
100
AcDbEntity
  8
0
 62
     0
 48
10.0
100
AcDbLine
 10
100.5157485897061
 20
172.7386165605597
 30
0.0
 11
100.6557856536806
 21
172.7923717529915
 31
0.0
  0
LINE
  5
3AC7
330
3A17
100
AcDbEntity
  8
0
 62
     0
 48
10.0
100
AcDbLine
 10
102.1961933574011
 20
173.3836788697413
 30
0.0
 11
102.2052838400689
 21
173.3871683790986
 31
0.0
  0
LINE
  5
3AC8
330
3A17
100
AcDbEntity
  8
0
 62
     0
 48
10.0
100
AcDbLine
 10
99.05585665719607
 20
168.3877162434308
 30
0.0
 11
99.15534116590269
 21
168.3206130950143
 31
0.0
  0
LINE
  5
3AC9
330
3A17
100
AcDbEntity
  8
0
 62
     0
 48
10.0
100
AcDbLine
 10
100.2496707616753
 20
167.5824784624329
 30
0.0
 11
100.3491552703819
 21
167.5153753140165
 31
0.0
  0
LINE
  5
3ACA
330
3A17
100
AcDbEntity
  8
0
 62
     0
 48
10.0
100
AcDbLine
 10
101.4434848661545
 20
166.7772406814351
 30
0.0
 11
101.5429693748612
 21
166.7101375330186
 31
0.0
  0
LINE
  5
3ACB
330
3A17
100
AcDbEntity
  8
0
 62
     0
 48
10.0
100
AcDbLine
 10
102.6372989706338
 20
165.9720029004372
 30
0.0
 11
102.7367834793404
 21
165.9048997520207
 31
0.0
  0
LINE
  5
3ACC
330
3A17
100
AcDbEntity
  8
0
 62
     0
 48
10.0
100
AcDbLine
 10
98.43880677060223
 20
170.5824582646676
 30
0.0
 11
98.44815772526658
 21
170.5761509661059
 31
0.0
  0
LINE
  5
3ACD
330
3A17
100
AcDbEntity
  8
0
 62
     0
 48
10.0
100
AcDbLine
 10
99.54248732103922
 20
169.8380163335245
 30
0.0
 11
99.64197182974583
 21
169.7709131851081
 31
0.0
  0
LINE
  5
3ACE
330
3A17
100
AcDbEntity
  8
0
 62
     0
 48
10.0
100
AcDbLine
 10
100.7363014255185
 20
169.0327785525267
 30
0.0
 11
100.8357859342251
 21
168.9656754041102
 31
0.0
  0
LINE
  5
3ACF
330
3A17
100
AcDbEntity
  8
0
 62
     0
 48
10.0
100
AcDbLine
 10
101.9301155299977
 20
168.2275407715288
 30
0.0
 11
102.0296000387043
 21
168.1604376231123
 31
0.0
  0
LINE
  5
3AD0
330
3A17
100
AcDbEntity
  8
0
 62
     0
 48
10.0
100
AcDbLine
 10
103.123929634477
 20
167.4223029905309
 30
0.0
 11
103.2234141431836
 21
167.3551998421144
 31
0.0
  0
LINE
  5
3AD1
330
3A17
100
AcDbEntity
  8
0
 62
     0
 48
10.0
100
AcDbLine
 10
98.83530388040313
 20
172.0935542046161
 30
0.0
 11
98.93478838910974
 21
172.0264510561996
 31
0.0
  0
LINE
  5
3AD2
330
3A17
100
AcDbEntity
  8
0
 62
     0
 48
10.0
100
AcDbLine
 10
100.0291179848823
 20
171.2883164236182
 30
0.0
 11
100.1286024935889
 21
171.2212132752017
 31
0.0
  0
LINE
  5
3AD3
330
3A17
100
AcDbEntity
  8
0
 62
     0
 48
10.0
100
AcDbLine
 10
101.2229320893616
 20
170.4830786426204
 30
0.0
 11
101.3224165980682
 21
170.4159754942039
 31
0.0
  0
LINE
  5
3AD4
330
3A17
100
AcDbEntity
  8
0
 62
     0
 48
10.0
100
AcDbLine
 10
102.4167461938409
 20
169.6778408616225
 30
0.0
 11
102.5162307025475
 21
169.610737713206
 31
0.0
  0
LINE
  5
3AD5
330
3A17
100
AcDbEntity
  8
0
 62
     0
 48
10.0
100
AcDbLine
 10
100.5157486487255
 20
172.738616513712
 30
0.0
 11
100.6152331574321
 21
172.6715133652955
 31
0.0
  0
LINE
  5
3AD6
330
3A17
100
AcDbEntity
  8
0
 62
     0
 48
10.0
100
AcDbLine
 10
101.7095627532048
 20
171.9333787327141
 30
0.0
 11
101.8090472619114
 21
171.8662755842976
 31
0.0
  0
LINE
  5
3AD7
330
3A17
100
AcDbEntity
  8
0
 62
     0
 48
10.0
100
AcDbLine
 10
102.903376857684
 20
171.1281409517162
 30
0.0
 11
102.9632557549114
 21
171.0877521255573
 31
0.0
  0
LINE
  5
3AD8
330
3A17
100
AcDbEntity
  8
0
 62
     0
 48
10.0
100
AcDbLine
 10
102.1961934170479
 20
173.3836788228078
 30
0.0
 11
102.2956779257546
 21
173.3165756743913
 31
0.0
  0
LINE
  5
3AD9
330
3A17
100
AcDbEntity
  8
0
 62
     0
 48
10.0
100
AcDbLine
 10
98.56922599335291
 20
166.9374161533372
 30
0.0
 11
98.66871050205952
 21
166.8703130049207
 31
0.0
  0
LINE
  5
3ADA
330
3A17
100
AcDbEntity
  8
0
 62
     0
 48
10.0
100
AcDbLine
 10
99.76304009783218
 20
166.1321783723393
 30
0.0
 11
99.86252460653879
 21
166.0650752239228
 31
0.0
  0
LINE
  5
3ADB
330
3A17
100
AcDbEntity
  8
0
 62
     0
 48
10.0
100
AcDbLine
 10
100.9568542023114
 20
165.3269405913414
 30
0.0
 11
101.056338711018
 21
165.259837442925
 31
0.0
  0
LINE
  5
3ADC
330
3A17
100
AcDbEntity
  8
0
 62
     0
 48
10.0
100
AcDbLine
 10
102.1506683067906
 20
164.5217028103436
 30
0.0
 11
102.2501528154972
 21
164.4545996619271
 31
0.0
  0
LINE
  5
3ADD
330
3A17
100
AcDbEntity
  8
0
 62
     0
 48
10.0
100
AcDbLine
 10
103.3444824112699
 20
163.7164650293457
 30
0.0
 11
103.4439669199765
 21
163.6493618809292
 31
0.0
  0
LINE
  5
3ADE
330
3A17
100
AcDbEntity
  8
0
 62
     0
 48
10.0
100
AcDbLine
 10
98.08259532950975
 20
165.4871160632434
 30
0.0
 11
98.18207983821636
 21
165.4200129148269
 31
0.0
  0
LINE
  5
3ADF
330
3A17
100
AcDbEntity
  8
0
 62
     0
 48
10.0
100
AcDbLine
 10
99.276409433989
 20
164.6818782822455
 30
0.0
 11
99.37589394269561
 21
164.614775133829
 31
0.0
  0
LINE
  5
3AE0
330
3A17
100
AcDbEntity
  8
0
 62
     0
 48
10.0
100
AcDbLine
 10
100.4702235384682
 20
163.8766405012477
 30
0.0
 11
100.5697080471748
 21
163.8095373528312
 31
0.0
  0
LINE
  5
3AE1
330
3A17
100
AcDbEntity
  8
0
 62
     0
 48
10.0
100
AcDbLine
 10
101.6640376429475
 20
163.0714027202498
 30
0.0
 11
101.7635221516541
 21
163.0042995718333
 31
0.0
  0
LINE
  5
3AE2
330
3A17
100
AcDbEntity
  8
0
 62
     0
 48
10.0
100
AcDbLine
 10
102.8578517474267
 20
162.2661649392519
 30
0.0
 11
102.9573362561334
 21
162.1990617908354
 31
0.0
  0
LINE
  5
3AE3
330
3A17
100
AcDbEntity
  8
0
 62
     0
 48
10.0
100
AcDbLine
 10
98.78977877014586
 20
163.2315781921519
 30
0.0
 11
98.88926327885247
 21
163.1644750437354
 31
0.0
  0
LINE
  5
3AE4
330
3A17
100
AcDbEntity
  8
0
 62
     0
 48
10.0
100
AcDbLine
 10
99.98359287462513
 20
162.426340411154
 30
0.0
 11
100.0830773833317
 21
162.3592372627375
 31
0.0
  0
LINE
  5
3AE5
330
3A17
100
AcDbEntity
  8
0
 62
     0
 48
10.0
100
AcDbLine
 10
101.1774069791043
 20
161.6211026301561
 30
0.0
 11
101.2768914878109
 21
161.5539994817396
 31
0.0
  0
LINE
  5
3AE6
330
3A17
100
AcDbEntity
  8
0
 62
     0
 48
10.0
100
AcDbLine
 10
98.3031481063027
 20
161.7812781020582
 30
0.0
 11
98.40263261500929
 21
161.7141749536417
 31
0.0
  0
LINE
  5
3AE7
330
3A17
100
AcDbEntity
  8
0
 62
     0
 48
10.0
100
AcDbLine
 10
98.40275806286673
 20
161.714097873231
 30
0.0
 11
98.44331071125983
 21
161.8349561786685
 31
0.0
  0
LINE
  5
3AE8
330
3A17
100
AcDbEntity
  8
0
 62
     0
 48
10.0
100
AcDbLine
 10
98.88938985758079
 20
163.1643975801966
 30
0.0
 11
98.92994250597389
 21
163.2852558856342
 31
0.0
  0
LINE
  5
3AE9
330
3A17
100
AcDbEntity
  8
0
 62
     0
 48
10.0
100
AcDbLine
 10
99.37602165229485
 20
164.6146972871622
 30
0.0
 11
99.41657430068794
 21
164.7355555925998
 31
0.0
  0
LINE
  5
3AEA
330
3A17
100
AcDbEntity
  8
0
 62
     0
 48
10.0
100
AcDbLine
 10
99.86265344700889
 20
166.0649969941279
 30
0.0
 11
99.903206095402
 21
166.1858552995655
 31
0.0
  0
LINE
  5
3AEB
330
3A17
100
AcDbEntity
  8
0
 62
     0
 48
10.0
100
AcDbLine
 10
100.3492852417229
 20
167.5152967010935
 30
0.0
 11
100.389837890116
 21
167.6361550065311
 31
0.0
  0
LINE
  5
3AEC
330
3A17
100
AcDbEntity
  8
0
 62
     0
 48
10.0
100
AcDbLine
 10
100.8359170364369
 20
168.9655964080593
 30
0.0
 11
100.87646968483
 21
169.0864547134968
 31
0.0
  0
LINE
  5
3AED
330
3A17
100
AcDbEntity
  8
0
 62
     0
 48
10.0
100
AcDbLine
 10
101.322548831151
 20
170.4158961150249
 30
0.0
 11
101.3631014795441
 21
170.5367544204625
 31
0.0
  0
LINE
  5
3AEE
330
3A17
100
AcDbEntity
  8
0
 62
     0
 48
10.0
100
AcDbLine
 10
101.8091806258651
 20
171.8661958219905
 30
0.0
 11
101.8497332742581
 21
171.9870541274281
 31
0.0
  0
LINE
  5
3AEF
330
3A17
100
AcDbEntity
  8
0
 62
     0
 48
10.0
100
AcDbLine
 10
102.2958124205791
 20
173.3164955289562
 30
0.0
 11
102.3195259025147
 21
173.3871683790986
 31
0.0
  0
LINE
  5
3AF0
330
3A17
100
AcDbEntity
  8
0
 62
     0
 48
10.0
100
AcDbLine
 10
100.0832033200296
 20
162.3591588666509
 30
0.0
 11
100.1237559684227
 21
162.4800171720885
 31
0.0
  0
LINE
  5
3AF1
330
3A17
100
AcDbEntity
  8
0
 62
     0
 48
10.0
100
AcDbLine
 10
100.5698351147437
 20
163.8094585736165
 30
0.0
 11
100.6103877631368
 21
163.9303168790541
 31
0.0
  0
LINE
  5
3AF2
330
3A17
100
AcDbEntity
  8
0
 62
     0
 48
10.0
100
AcDbLine
 10
101.0564669094578
 20
165.2597582805822
 30
0.0
 11
101.0970195578509
 21
165.3806165860198
 31
0.0
  0
LINE
  5
3AF3
330
3A17
100
AcDbEntity
  8
0
 62
     0
 48
10.0
100
AcDbLine
 10
101.5430987041718
 20
166.7100579875478
 30
0.0
 11
101.5836513525649
 21
166.8309162929854
 31
0.0
  0
LINE
  5
3AF4
330
3A17
100
AcDbEntity
  8
0
 62
     0
 48
10.0
100
AcDbLine
 10
102.0297304988859
 20
168.1603576945135
 30
0.0
 11
102.070283147279
 21
168.2812159999511
 31
0.0
  0
LINE
  5
3AF5
330
3A17
100
AcDbEntity
  8
0
 62
     0
 48
10.0
100
AcDbLine
 10
102.5163622935999
 20
169.6106574014791
 30
0.0
 11
102.556914941993
 21
169.7315157069167
 31
0.0
  0
LINE
  5
3AF6
330
3A17
100
AcDbEntity
  8
0
 62
     0
 48
10.0
100
AcDbLine
 10
101.2770167824786
 20
161.5539201531051
 30
0.0
 11
101.3175694308717
 21
161.6747784585427
 31
0.0
  0
LINE
  5
3AF7
330
3A17
100
AcDbEntity
  8
0
 62
     0
 48
10.0
100
AcDbLine
 10
101.7636485771926
 20
163.0042198600708
 30
0.0
 11
101.8042012255857
 21
163.1250781655084
 31
0.0
  0
LINE
  5
3AF8
330
3A17
100
AcDbEntity
  8
0
 62
     0
 48
10.0
100
AcDbLine
 10
102.2502803719067
 20
164.4545195670364
 30
0.0
 11
102.2908330202998
 21
164.575377872474
 31
0.0
  0
LINE
  5
3AF9
330
3A17
100
AcDbEntity
  8
0
 62
     0
 48
10.0
100
AcDbLine
 10
102.7369121666207
 20
165.904819274002
 30
0.0
 11
102.7774648150139
 21
166.0256775794396
 31
0.0
  0
LINE
  5
3AFA
330
3A17
100
AcDbEntity
  8
0
 62
     0
 48
10.0
100
AcDbLine
 10
103.2235439613348
 20
167.3551189809677
 30
0.0
 11
103.2640966097279
 21
167.4759772864053
 31
0.0
  0
LINE
  5
3AFB
330
3A17
100
AcDbEntity
  8
0
 62
     0
 48
10.0
100
AcDbLine
 10
102.9574620396416
 20
162.198981146525
 30
0.0
 11
102.9980146880347
 21
162.3198394519626
 31
0.0
  0
LINE
  5
3AFC
330
3A17
100
AcDbEntity
  8
0
 62
     0
 48
10.0
100
AcDbLine
 10
103.4440938343556
 20
163.6492808534907
 30
0.0
 11
103.4846464827487
 21
163.7701391589282
 31
0.0
  0
LINE
  5
3AFD
330
3A17
100
AcDbEntity
  8
0
 62
     0
 48
10.0
100
AcDbLine
 10
98.18220818984592
 20
165.419936000708
 30
0.0
 11
98.22276083823901
 21
165.5407943061456
 31
0.0
  0
LINE
  5
3AFE
330
3A17
100
AcDbEntity
  8
0
 62
     0
 48
10.0
100
AcDbLine
 10
98.66883998455996
 20
166.8702357076736
 30
0.0
 11
98.70939263295307
 21
166.9910940131112
 31
0.0
  0
LINE
  5
3AFF
330
3A17
100
AcDbEntity
  8
0
 62
     0
 48
10.0
100
AcDbLine
 10
99.15547177927402
 20
168.3205354146393
 30
0.0
 11
99.19602442766713
 21
168.4413937200769
 31
0.0
  0
LINE
  5
3B00
330
3A17
100
AcDbEntity
  8
0
 62
     0
 48
10.0
100
AcDbLine
 10
99.64210357398808
 20
169.7708351216049
 30
0.0
 11
99.68265622238119
 21
169.8916934270425
 31
0.0
  0
LINE
  5
3B01
330
3A17
100
AcDbEntity
  8
0
 62
     0
 48
10.0
100
AcDbLine
 10
100.1287353687021
 20
171.2211348285705
 30
0.0
 11
100.1692880170952
 21
171.3419931340081
 31
0.0
  0
LINE
  5
3B02
330
3A17
100
AcDbEntity
  8
0
 62
     0
 48
10.0
100
AcDbLine
 10
100.6153671634161
 20
172.6714345355362
 30
0.0
 11
100.6559198118093
 21
172.7922928409738
 31
0.0
  0
LINE
  5
3B03
330
3A17
100
AcDbEntity
  8
0
 62
     0
 48
10.0
100
AcDbLine
 10
98.44829011153915
 20
170.5760738351507
 30
0.0
 11
98.48884275993226
 21
170.6969321405883
 31
0.0
  0
LINE
  5
3B04
330
3A17
100
AcDbEntity
  8
0
 62
     0
 48
10.0
100
AcDbLine
 10
98.93492190625321
 20
172.0263735421164
 30
0.0
 11
98.97547455464632
 21
172.147231847554
 31
0.0
  0
LINE
  5
3B05
330
3A17
100
AcDbEntity
  8
0
 62
     0
 48
10.0
100
AcDbLine
 10
98.87955476242396
 20
165.8235396206003
 30
0.0
 11
98.87955476242396
 21
165.8235396206003
 31
0.0
  0
LINE
  5
3B06
330
3A17
100
AcDbEntity
  8
0
 62
     0
 48
10.0
100
AcDbLine
 10
99.94264823841421
 20
166.639279935472
 30
0.0
 11
99.94264823841421
 21
166.639279935472
 31
0.0
  0
LINE
  5
3B07
330
3A17
100
AcDbEntity
  8
0
 62
     0
 48
10.0
100
AcDbLine
 10
100.9938414143001
 20
167.4458888289085
 30
0.0
 11
100.9938414143001
 21
167.4458888289085
 31
0.0
  0
LINE
  5
3B08
330
3A17
100
AcDbEntity
  8
0
 62
     0
 48
10.0
100
AcDbLine
 10
102.0283741700398
 20
168.2397137323359
 30
0.0
 11
102.0283741700398
 21
168.2397137323359
 31
0.0
  0
LINE
  5
3B09
330
3A17
100
AcDbEntity
  8
0
 62
     0
 48
10.0
100
AcDbLine
 10
103.0914676460301
 20
169.0554540472076
 30
0.0
 11
103.0914676460301
 21
169.0554540472076
 31
0.0
  0
LINE
  5
3B0A
330
3A17
100
AcDbEntity
  8
0
 62
     0
 48
10.0
100
AcDbLine
 10
98.90387447305849
 20
166.4893273282629
 30
0.0
 11
98.90387447305849
 21
166.4893273282629
 31
0.0
  0
LINE
  5
3B0B
330
3A17
100
AcDbEntity
  8
0
 62
     0
 48
10.0
100
AcDbLine
 10
99.96696794904876
 20
167.3050676431346
 30
0.0
 11
99.96696794904876
 21
167.3050676431346
 31
0.0
  0
LINE
  5
3B0C
330
3A17
100
AcDbEntity
  8
0
 62
     0
 48
10.0
100
AcDbLine
 10
101.0181611249346
 20
168.1116765365712
 30
0.0
 11
101.0181611249346
 21
168.1116765365712
 31
0.0
  0
LINE
  5
3B0D
330
3A17
100
AcDbEntity
  8
0
 62
     0
 48
10.0
100
AcDbLine
 10
102.0526938806744
 20
168.9055014399986
 30
0.0
 11
102.0526938806744
 21
168.9055014399986
 31
0.0
  0
LINE
  5
3B0E
330
3A17
100
AcDbEntity
  8
0
 62
     0
 48
10.0
100
AcDbLine
 10
98.92819418369311
 20
167.1551150359256
 30
0.0
 11
98.92819418369311
 21
167.1551150359256
 31
0.0
  0
LINE
  5
3B0F
330
3A17
100
AcDbEntity
  8
0
 62
     0
 48
10.0
100
AcDbLine
 10
99.99128765968336
 20
167.9708553507972
 30
0.0
 11
99.99128765968336
 21
167.9708553507972
 31
0.0
  0
LINE
  5
3B10
330
3A17
100
AcDbEntity
  8
0
 62
     0
 48
10.0
100
AcDbLine
 10
101.0424808355692
 20
168.7774642442338
 30
0.0
 11
101.0424808355692
 21
168.7774642442338
 31
0.0
  0
LINE
  5
3B11
330
3A17
100
AcDbEntity
  8
0
 62
     0
 48
10.0
100
AcDbLine
 10
102.077013591309
 20
169.5712891476611
 30
0.0
 11
102.077013591309
 21
169.5712891476611
 31
0.0
  0
LINE
  5
3B12
330
3A17
100
AcDbEntity
  8
0
 62
     0
 48
10.0
100
AcDbLine
 10
98.95251389432766
 20
167.8209027435882
 30
0.0
 11
98.95251389432766
 21
167.8209027435882
 31
0.0
  0
LINE
  5
3B13
330
3A17
100
AcDbEntity
  8
0
 62
     0
 48
10.0
100
AcDbLine
 10
100.0156073703179
 20
168.6366430584598
 30
0.0
 11
100.0156073703179
 21
168.6366430584598
 31
0.0
  0
LINE
  5
3B14
330
3A17
100
AcDbEntity
  8
0
 62
     0
 48
10.0
100
AcDbLine
 10
101.0668005462038
 20
169.4432519518964
 30
0.0
 11
101.0668005462038
 21
169.4432519518964
 31
0.0
  0
LINE
  5
3B15
330
3A17
100
AcDbEntity
  8
0
 62
     0
 48
10.0
100
AcDbLine
 10
102.1013333019435
 20
170.2370768553238
 30
0.0
 11
102.1013333019435
 21
170.2370768553238
 31
0.0
  0
LINE
  5
3B16
330
3A17
100
AcDbEntity
  8
0
 62
     0
 48
10.0
100
AcDbLine
 10
98.97683360496225
 20
168.4866904512508
 30
0.0
 11
98.97683360496225
 21
168.4866904512508
 31
0.0
  0
LINE
  5
3B17
330
3A17
100
AcDbEntity
  8
0
 62
     0
 48
10.0
100
AcDbLine
 10
100.0399270809525
 20
169.3024307661225
 30
0.0
 11
100.0399270809525
 21
169.3024307661225
 31
0.0
  0
LINE
  5
3B18
330
3A17
100
AcDbEntity
  8
0
 62
     0
 48
10.0
100
AcDbLine
 10
101.0911202568383
 20
170.109039659559
 30
0.0
 11
101.0911202568383
 21
170.109039659559
 31
0.0
  0
LINE
  5
3B19
330
3A17
100
AcDbEntity
  8
0
 62
     0
 48
10.0
100
AcDbLine
 10
102.1256530125781
 20
170.9028645629864
 30
0.0
 11
102.1256530125781
 21
170.9028645629864
 31
0.0
  0
LINE
  5
3B1A
330
3A17
100
AcDbEntity
  8
0
 62
     0
 48
10.0
100
AcDbLine
 10
99.00115331559684
 20
169.1524781589134
 30
0.0
 11
99.00115331559684
 21
169.1524781589134
 31
0.0
  0
LINE
  5
3B1B
330
3A17
100
AcDbEntity
  8
0
 62
     0
 48
10.0
100
AcDbLine
 10
100.064246791587
 20
169.9682184737851
 30
0.0
 11
100.064246791587
 21
169.9682184737851
 31
0.0
  0
LINE
  5
3B1C
330
3A17
100
AcDbEntity
  8
0
 62
     0
 48
10.0
100
AcDbLine
 10
101.1154399674729
 20
170.7748273672217
 30
0.0
 11
101.1154399674729
 21
170.7748273672217
 31
0.0
  0
LINE
  5
3B1D
330
3A17
100
AcDbEntity
  8
0
 62
     0
 48
10.0
100
AcDbLine
 10
102.1499727232127
 20
171.5686522706491
 30
0.0
 11
102.1499727232127
 21
171.5686522706491
 31
0.0
  0
LINE
  5
3B1E
330
3A17
100
AcDbEntity
  8
0
 62
     0
 48
10.0
100
AcDbLine
 10
99.0254730262314
 20
169.818265866576
 30
0.0
 11
99.0254730262314
 21
169.818265866576
 31
0.0
  0
LINE
  5
3B1F
330
3A17
100
AcDbEntity
  8
0
 62
     0
 48
10.0
100
AcDbLine
 10
100.0885665022216
 20
170.6340061814477
 30
0.0
 11
100.0885665022216
 21
170.6340061814477
 31
0.0
  0
LINE
  5
3B20
330
3A17
100
AcDbEntity
  8
0
 62
     0
 48
10.0
100
AcDbLine
 10
101.1397596781075
 20
171.4406150748843
 30
0.0
 11
101.1397596781075
 21
171.4406150748843
 31
0.0
  0
LINE
  5
3B21
330
3A17
100
AcDbEntity
  8
0
 62
     0
 48
10.0
100
AcDbLine
 10
102.1742924338473
 20
172.2344399783117
 30
0.0
 11
102.1742924338473
 21
172.2344399783117
 31
0.0
  0
LINE
  5
3B22
330
3A17
100
AcDbEntity
  8
0
 62
     0
 48
10.0
100
AcDbLine
 10
99.04979273686599
 20
170.4840535742386
 30
0.0
 11
99.04979273686599
 21
170.4840535742386
 31
0.0
  0
LINE
  5
3B23
330
3A17
100
AcDbEntity
  8
0
 62
     0
 48
10.0
100
AcDbLine
 10
100.1128862128562
 20
171.2997938891103
 30
0.0
 11
100.1128862128562
 21
171.2997938891103
 31
0.0
  0
LINE
  5
3B24
330
3A17
100
AcDbEntity
  8
0
 62
     0
 48
10.0
100
AcDbLine
 10
101.1640793887421
 20
172.1064027825469
 30
0.0
 11
101.1640793887421
 21
172.1064027825469
 31
0.0
  0
LINE
  5
3B25
330
3A17
100
AcDbEntity
  8
0
 62
     0
 48
10.0
100
AcDbLine
 10
102.1986121444819
 20
172.9002276859743
 30
0.0
 11
102.1986121444819
 21
172.9002276859743
 31
0.0
  0
LINE
  5
3B26
330
3A17
100
AcDbEntity
  8
0
 62
     0
 48
10.0
100
AcDbLine
 10
99.07411244750058
 20
171.1498412819013
 30
0.0
 11
99.07411244750058
 21
171.1498412819013
 31
0.0
  0
LINE
  5
3B27
330
3A17
100
AcDbEntity
  8
0
 62
     0
 48
10.0
100
AcDbLine
 10
100.1372059234908
 20
171.965581596773
 30
0.0
 11
100.1372059234908
 21
171.965581596773
 31
0.0
  0
LINE
  5
3B28
330
3A17
100
AcDbEntity
  8
0
 62
     0
 48
10.0
100
AcDbLine
 10
101.1883990993767
 20
172.7721904902095
 30
0.0
 11
101.1883990993767
 21
172.7721904902095
 31
0.0
  0
LINE
  5
3B29
330
3A17
100
AcDbEntity
  8
0
 62
     0
 48
10.0
100
AcDbLine
 10
99.09843215813518
 20
171.8156289895639
 30
0.0
 11
99.09843215813518
 21
171.8156289895639
 31
0.0
  0
LINE
  5
3B2A
330
3A17
100
AcDbEntity
  8
0
 62
     0
 48
10.0
100
AcDbLine
 10
100.1615256341254
 20
172.6313693044356
 30
0.0
 11
100.1615256341254
 21
172.6313693044356
 31
0.0
  0
LINE
  5
3B2B
330
3A17
100
AcDbEntity
  8
0
 62
     0
 48
10.0
100
AcDbLine
 10
99.12275186876975
 20
172.4814166972265
 30
0.0
 11
99.12275186876975
 21
172.4814166972265
 31
0.0
  0
LINE
  5
3B2C
330
3A17
100
AcDbEntity
  8
0
 62
     0
 48
10.0
100
AcDbLine
 10
100.18584534476
 20
173.2971570120982
 30
0.0
 11
100.18584534476
 21
173.2971570120982
 31
0.0
  0
LINE
  5
3B2D
330
3A17
100
AcDbEntity
  8
0
 62
     0
 48
10.0
100
AcDbLine
 10
99.14707157940434
 20
173.1472044048891
 30
0.0
 11
99.14707157940434
 21
173.1472044048891
 31
0.0
  0
LINE
  5
3B2E
330
3A17
100
AcDbEntity
  8
0
 62
     0
 48
10.0
100
AcDbLine
 10
97.82070229604959
 20
164.3639270095103
 30
0.0
 11
97.82070229604959
 21
164.3639270095103
 31
0.0
  0
LINE
  5
3B2F
330
3A17
100
AcDbEntity
  8
0
 62
     0
 48
10.0
100
AcDbLine
 10
98.85523505178937
 20
165.1577519129377
 30
0.0
 11
98.85523505178937
 21
165.1577519129377
 31
0.0
  0
LINE
  5
3B30
330
3A17
100
AcDbEntity
  8
0
 62
     0
 48
10.0
100
AcDbLine
 10
99.91832852777962
 20
165.9734922278094
 30
0.0
 11
99.91832852777962
 21
165.9734922278094
 31
0.0
  0
LINE
  5
3B31
330
3A17
100
AcDbEntity
  8
0
 62
     0
 48
10.0
100
AcDbLine
 10
100.9695217036654
 20
166.7801011212459
 30
0.0
 11
100.9695217036654
 21
166.7801011212459
 31
0.0
  0
LINE
  5
3B32
330
3A17
100
AcDbEntity
  8
0
 62
     0
 48
10.0
100
AcDbLine
 10
102.0040544594052
 20
167.5739260246733
 30
0.0
 11
102.0040544594052
 21
167.5739260246733
 31
0.0
  0
LINE
  5
3B33
330
3A17
100
AcDbEntity
  8
0
 62
     0
 48
10.0
100
AcDbLine
 10
103.0671479353955
 20
168.389666339545
 30
0.0
 11
103.0671479353955
 21
168.389666339545
 31
0.0
  0
LINE
  5
3B34
330
3A17
100
AcDbEntity
  8
0
 62
     0
 48
10.0
100
AcDbLine
 10
97.79638258541503
 20
163.6981393018477
 30
0.0
 11
97.79638258541503
 21
163.6981393018477
 31
0.0
  0
LINE
  5
3B35
330
3A17
100
AcDbEntity
  8
0
 62
     0
 48
10.0
100
AcDbLine
 10
98.83091534115481
 20
164.4919642052751
 30
0.0
 11
98.83091534115481
 21
164.4919642052751
 31
0.0
  0
LINE
  5
3B36
330
3A17
100
AcDbEntity
  8
0
 62
     0
 48
10.0
100
AcDbLine
 10
99.89400881714507
 20
165.3077045201467
 30
0.0
 11
99.89400881714507
 21
165.3077045201467
 31
0.0
  0
LINE
  5
3B37
330
3A17
100
AcDbEntity
  8
0
 62
     0
 48
10.0
100
AcDbLine
 10
100.9452019930308
 20
166.1143134135833
 30
0.0
 11
100.9452019930308
 21
166.1143134135833
 31
0.0
  0
LINE
  5
3B38
330
3A17
100
AcDbEntity
  8
0
 62
     0
 48
10.0
100
AcDbLine
 10
101.9797347487706
 20
166.9081383170107
 30
0.0
 11
101.9797347487706
 21
166.9081383170107
 31
0.0
  0
LINE
  5
3B39
330
3A17
100
AcDbEntity
  8
0
 62
     0
 48
10.0
100
AcDbLine
 10
103.0428282247609
 20
167.7238786318824
 30
0.0
 11
103.0428282247609
 21
167.7238786318824
 31
0.0
  0
LINE
  5
3B3A
330
3A17
100
AcDbEntity
  8
0
 62
     0
 48
10.0
100
AcDbLine
 10
97.77206287478044
 20
163.0323515941851
 30
0.0
 11
97.77206287478044
 21
163.0323515941851
 31
0.0
  0
LINE
  5
3B3B
330
3A17
100
AcDbEntity
  8
0
 62
     0
 48
10.0
100
AcDbLine
 10
98.80659563052022
 20
163.8261764976125
 30
0.0
 11
98.80659563052022
 21
163.8261764976125
 31
0.0
  0
LINE
  5
3B3C
330
3A17
100
AcDbEntity
  8
0
 62
     0
 48
10.0
100
AcDbLine
 10
99.86968910651048
 20
164.6419168124841
 30
0.0
 11
99.86968910651048
 21
164.6419168124841
 31
0.0
  0
LINE
  5
3B3D
330
3A17
100
AcDbEntity
  8
0
 62
     0
 48
10.0
100
AcDbLine
 10
100.9208822823963
 20
165.4485257059207
 30
0.0
 11
100.9208822823963
 21
165.4485257059207
 31
0.0
  0
LINE
  5
3B3E
330
3A17
100
AcDbEntity
  8
0
 62
     0
 48
10.0
100
AcDbLine
 10
101.9554150381361
 20
166.2423506093481
 30
0.0
 11
101.9554150381361
 21
166.2423506093481
 31
0.0
  0
LINE
  5
3B3F
330
3A17
100
AcDbEntity
  8
0
 62
     0
 48
10.0
100
AcDbLine
 10
103.0185085141263
 20
167.0580909242197
 30
0.0
 11
103.0185085141263
 21
167.0580909242197
 31
0.0
  0
LINE
  5
3B40
330
3A17
100
AcDbEntity
  8
0
 62
     0
 48
10.0
100
AcDbLine
 10
97.74774316414585
 20
162.3665638865225
 30
0.0
 11
97.74774316414585
 21
162.3665638865225
 31
0.0
  0
LINE
  5
3B41
330
3A17
100
AcDbEntity
  8
0
 62
     0
 48
10.0
100
AcDbLine
 10
98.78227591988562
 20
163.1603887899498
 30
0.0
 11
98.78227591988562
 21
163.1603887899498
 31
0.0
  0
LINE
  5
3B42
330
3A17
100
AcDbEntity
  8
0
 62
     0
 48
10.0
100
AcDbLine
 10
99.84536939587588
 20
163.9761291048215
 30
0.0
 11
99.84536939587588
 21
163.9761291048215
 31
0.0
  0
LINE
  5
3B43
330
3A17
100
AcDbEntity
  8
0
 62
     0
 48
10.0
100
AcDbLine
 10
100.8965625717617
 20
164.782737998258
 30
0.0
 11
100.8965625717617
 21
164.782737998258
 31
0.0
  0
LINE
  5
3B44
330
3A17
100
AcDbEntity
  8
0
 62
     0
 48
10.0
100
AcDbLine
 10
101.9310953275015
 20
165.5765629016854
 30
0.0
 11
101.9310953275015
 21
165.5765629016854
 31
0.0
  0
LINE
  5
3B45
330
3A17
100
AcDbEntity
  8
0
 62
     0
 48
10.0
100
AcDbLine
 10
102.9941888034917
 20
166.3923032165571
 30
0.0
 11
102.9941888034917
 21
166.3923032165571
 31
0.0
  0
LINE
  5
3B46
330
3A17
100
AcDbEntity
  8
0
 62
     0
 48
10.0
100
AcDbLine
 10
97.72342345351127
 20
161.7007761788598
 30
0.0
 11
97.72342345351127
 21
161.7007761788598
 31
0.0
  0
LINE
  5
3B47
330
3A17
100
AcDbEntity
  8
0
 62
     0
 48
10.0
100
AcDbLine
 10
98.75795620925105
 20
162.4946010822872
 30
0.0
 11
98.75795620925105
 21
162.4946010822872
 31
0.0
  0
LINE
  5
3B48
330
3A17
100
AcDbEntity
  8
0
 62
     0
 48
10.0
100
AcDbLine
 10
99.82104968524131
 20
163.3103413971589
 30
0.0
 11
99.82104968524131
 21
163.3103413971589
 31
0.0
  0
LINE
  5
3B49
330
3A17
100
AcDbEntity
  8
0
 62
     0
 48
10.0
100
AcDbLine
 10
100.8722428611271
 20
164.1169502905954
 30
0.0
 11
100.8722428611271
 21
164.1169502905954
 31
0.0
  0
LINE
  5
3B4A
330
3A17
100
AcDbEntity
  8
0
 62
     0
 48
10.0
100
AcDbLine
 10
101.9067756168669
 20
164.9107751940228
 30
0.0
 11
101.9067756168669
 21
164.9107751940228
 31
0.0
  0
LINE
  5
3B4B
330
3A17
100
AcDbEntity
  8
0
 62
     0
 48
10.0
100
AcDbLine
 10
102.9698690928572
 20
165.7265155088945
 30
0.0
 11
102.9698690928572
 21
165.7265155088945
 31
0.0
  0
LINE
  5
3B4C
330
3A17
100
AcDbEntity
  8
0
 62
     0
 48
10.0
100
AcDbLine
 10
98.73363649861644
 20
161.8288133746245
 30
0.0
 11
98.73363649861644
 21
161.8288133746245
 31
0.0
  0
LINE
  5
3B4D
330
3A17
100
AcDbEntity
  8
0
 62
     0
 48
10.0
100
AcDbLine
 10
99.79672997460671
 20
162.6445536894962
 30
0.0
 11
99.79672997460671
 21
162.6445536894962
 31
0.0
  0
LINE
  5
3B4E
330
3A17
100
AcDbEntity
  8
0
 62
     0
 48
10.0
100
AcDbLine
 10
100.8479231504925
 20
163.4511625829328
 30
0.0
 11
100.8479231504925
 21
163.4511625829328
 31
0.0
  0
LINE
  5
3B4F
330
3A17
100
AcDbEntity
  8
0
 62
     0
 48
10.0
100
AcDbLine
 10
101.8824559062323
 20
164.2449874863602
 30
0.0
 11
101.8824559062323
 21
164.2449874863602
 31
0.0
  0
LINE
  5
3B50
330
3A17
100
AcDbEntity
  8
0
 62
     0
 48
10.0
100
AcDbLine
 10
102.9455493822226
 20
165.0607278012319
 30
0.0
 11
102.9455493822226
 21
165.0607278012319
 31
0.0
  0
LINE
  5
3B51
330
3A17
100
AcDbEntity
  8
0
 62
     0
 48
10.0
100
AcDbLine
 10
99.77241026397212
 20
161.9787659818336
 30
0.0
 11
99.77241026397212
 21
161.9787659818336
 31
0.0
  0
LINE
  5
3B52
330
3A17
100
AcDbEntity
  8
0
 62
     0
 48
10.0
100
AcDbLine
 10
100.823603439858
 20
162.7853748752702
 30
0.0
 11
100.823603439858
 21
162.7853748752702
 31
0.0
  0
LINE
  5
3B53
330
3A17
100
AcDbEntity
  8
0
 62
     0
 48
10.0
100
AcDbLine
 10
101.8581361955977
 20
163.5791997786975
 30
0.0
 11
101.8581361955977
 21
163.5791997786975
 31
0.0
  0
LINE
  5
3B54
330
3A17
100
AcDbEntity
  8
0
 62
     0
 48
10.0
100
AcDbLine
 10
102.921229671588
 20
164.3949400935692
 30
0.0
 11
102.921229671588
 21
164.3949400935692
 31
0.0
  0
LINE
  5
3B55
330
3A17
100
AcDbEntity
  8
0
 62
     0
 48
10.0
100
AcDbLine
 10
100.7992837292234
 20
162.1195871676075
 30
0.0
 11
100.7992837292234
 21
162.1195871676075
 31
0.0
  0
LINE
  5
3B56
330
3A17
100
AcDbEntity
  8
0
 62
     0
 48
10.0
100
AcDbLine
 10
101.8338164849632
 20
162.9134120710349
 30
0.0
 11
101.8338164849632
 21
162.9134120710349
 31
0.0
  0
LINE
  5
3B57
330
3A17
100
AcDbEntity
  8
0
 62
     0
 48
10.0
100
AcDbLine
 10
102.8969099609534
 20
163.7291523859066
 30
0.0
 11
102.8969099609534
 21
163.7291523859066
 31
0.0
  0
LINE
  5
3B58
330
3A17
100
AcDbEntity
  8
0
 62
     0
 48
10.0
100
AcDbLine
 10
100.7749640185888
 20
161.4537994599449
 30
0.0
 11
100.7749640185888
 21
161.4537994599449
 31
0.0
  0
LINE
  5
3B59
330
3A17
100
AcDbEntity
  8
0
 62
     0
 48
10.0
100
AcDbLine
 10
101.8094967743286
 20
162.2476243633723
 30
0.0
 11
101.8094967743286
 21
162.2476243633723
 31
0.0
  0
LINE
  5
3B5A
330
3A17
100
AcDbEntity
  8
0
 62
     0
 48
10.0
100
AcDbLine
 10
102.8725902503188
 20
163.063364678244
 30
0.0
 11
102.8725902503188
 21
163.063364678244
 31
0.0
  0
LINE
  5
3B5B
330
3A17
100
AcDbEntity
  8
0
 62
     0
 48
10.0
100
AcDbLine
 10
101.785177063694
 20
161.5818366557097
 30
0.0
 11
101.785177063694
 21
161.5818366557097
 31
0.0
  0
LINE
  5
3B5C
330
3A17
100
AcDbEntity
  8
0
 62
     0
 48
10.0
100
AcDbLine
 10
102.8482705396843
 20
162.3975769705814
 30
0.0
 11
102.8482705396843
 21
162.3975769705814
 31
0.0
  0
LINE
  5
3B5D
330
3A17
100
AcDbEntity
  8
0
 62
     0
 48
10.0
100
AcDbLine
 10
102.8239508290497
 20
161.7317892629188
 30
0.0
 11
102.8239508290497
 21
161.7317892629188
 31
0.0
  0
LINE
  5
3B5E
330
3A17
100
AcDbEntity
  8
0
 62
     0
 48
10.0
100
AcDbLine
 10
103.850824294301
 20
161.8726104486927
 30
0.0
 11
103.850824294301
 21
161.8726104486927
 31
0.0
  0
LINE
  5
3B5F
330
3A17
100
AcDbEntity
  8
0
 62
     0
 48
10.0
100
AcDbLine
 10
98.22376020448764
 20
166.9163660556127
 30
0.0
 11
98.22376020448764
 21
166.9163660556127
 31
0.0
  0
LINE
  5
3B60
330
3A17
100
AcDbEntity
  8
0
 62
     0
 48
10.0
100
AcDbLine
 10
99.48686095787786
 20
167.0826564245011
 30
0.0
 11
99.48686095787786
 21
167.0826564245011
 31
0.0
  0
LINE
  5
3B61
330
3A17
100
AcDbEntity
  8
0
 62
     0
 48
10.0
100
AcDbLine
 10
99.98754061287165
 20
167.1485721515722
 30
0.0
 11
99.98754061287165
 21
167.1485721515722
 31
0.0
  0
LINE
  5
3B62
330
3A17
100
AcDbEntity
  8
0
 62
     0
 48
10.0
100
AcDbLine
 10
100.7450044869612
 20
167.2482941624283
 30
0.0
 11
100.7450044869612
 21
167.2482941624283
 31
0.0
  0
LINE
  5
3B63
330
3A17
100
AcDbEntity
  8
0
 62
     0
 48
10.0
100
AcDbLine
 10
102.0081052403514
 20
167.4145845313166
 30
0.0
 11
102.0081052403514
 21
167.4145845313166
 31
0.0
  0
LINE
  5
3B64
330
3A17
100
AcDbEntity
  8
0
 62
     0
 48
10.0
100
AcDbLine
 10
102.5087848953452
 20
167.4805002583877
 30
0.0
 11
102.5087848953452
 21
167.4805002583877
 31
0.0
  0
LINE
  5
3B65
330
3A17
100
AcDbEntity
  8
0
 62
     0
 48
10.0
100
AcDbLine
 10
103.2662487694348
 20
167.5802222692439
 30
0.0
 11
103.2662487694348
 21
167.5802222692439
 31
0.0
  0
LINE
  5
3B66
330
3A17
100
AcDbEntity
  8
0
 62
     0
 48
10.0
100
AcDbLine
 10
98.74989927937194
 20
167.7051894793774
 30
0.0
 11
98.74989927937194
 21
167.7051894793774
 31
0.0
  0
LINE
  5
3B67
330
3A17
100
AcDbEntity
  8
0
 62
     0
 48
10.0
100
AcDbLine
 10
100.0130000327621
 20
167.8714798482658
 30
0.0
 11
100.0130000327621
 21
167.8714798482658
 31
0.0
  0
LINE
  5
3B68
330
3A17
100
AcDbEntity
  8
0
 62
     0
 48
10.0
100
AcDbLine
 10
100.5136796877559
 20
167.9373955753369
 30
0.0
 11
100.5136796877559
 21
167.9373955753369
 31
0.0
  0
LINE
  5
3B69
330
3A17
100
AcDbEntity
  8
0
 62
     0
 48
10.0
100
AcDbLine
 10
101.2711435618455
 20
168.037117586193
 30
0.0
 11
101.2711435618455
 21
168.037117586193
 31
0.0
  0
LINE
  5
3B6A
330
3A17
100
AcDbEntity
  8
0
 62
     0
 48
10.0
100
AcDbLine
 10
102.5342443152357
 20
168.2034079550814
 30
0.0
 11
102.5342443152357
 21
168.2034079550814
 31
0.0
  0
LINE
  5
3B6B
330
3A17
100
AcDbEntity
  8
0
 62
     0
 48
10.0
100
AcDbLine
 10
103.0349239702295
 20
168.2693236821525
 30
0.0
 11
103.0349239702295
 21
168.2693236821525
 31
0.0
  0
LINE
  5
3B6C
330
3A17
100
AcDbEntity
  8
0
 62
     0
 48
10.0
100
AcDbLine
 10
98.51857448016664
 20
168.394290892286
 30
0.0
 11
98.51857448016664
 21
168.394290892286
 31
0.0
  0
LINE
  5
3B6D
330
3A17
100
AcDbEntity
  8
0
 62
     0
 48
10.0
100
AcDbLine
 10
99.27603835425623
 20
168.4940129031421
 30
0.0
 11
99.27603835425623
 21
168.4940129031421
 31
0.0
  0
LINE
  5
3B6E
330
3A17
100
AcDbEntity
  8
0
 62
     0
 48
10.0
100
AcDbLine
 10
100.5391391076464
 20
168.6603032720305
 30
0.0
 11
100.5391391076464
 21
168.6603032720305
 31
0.0
  0
LINE
  5
3B6F
330
3A17
100
AcDbEntity
  8
0
 62
     0
 48
10.0
100
AcDbLine
 10
101.0398187626402
 20
168.7262189991016
 30
0.0
 11
101.0398187626402
 21
168.7262189991016
 31
0.0
  0
LINE
  5
3B70
330
3A17
100
AcDbEntity
  8
0
 62
     0
 48
10.0
100
AcDbLine
 10
101.7972826367298
 20
168.8259410099577
 30
0.0
 11
101.7972826367298
 21
168.8259410099577
 31
0.0
  0
LINE
  5
3B71
330
3A17
100
AcDbEntity
  8
0
 62
     0
 48
10.0
100
AcDbLine
 10
103.06038339012
 20
168.9922313788461
 30
0.0
 11
103.06038339012
 21
168.9922313788461
 31
0.0
  0
LINE
  5
3B72
330
3A17
100
AcDbEntity
  8
0
 62
     0
 48
10.0
100
AcDbLine
 10
98.54403390005714
 20
169.1171985889796
 30
0.0
 11
98.54403390005714
 21
169.1171985889796
 31
0.0
  0
LINE
  5
3B73
330
3A17
100
AcDbEntity
  8
0
 62
     0
 48
10.0
100
AcDbLine
 10
99.04471355505092
 20
169.1831143160507
 30
0.0
 11
99.04471355505092
 21
169.1831143160507
 31
0.0
  0
LINE
  5
3B74
330
3A17
100
AcDbEntity
  8
0
 62
     0
 48
10.0
100
AcDbLine
 10
99.80217742914051
 20
169.2828363269068
 30
0.0
 11
99.80217742914051
 21
169.2828363269068
 31
0.0
  0
LINE
  5
3B75
330
3A17
100
AcDbEntity
  8
0
 62
     0
 48
10.0
100
AcDbLine
 10
101.0652781825307
 20
169.4491266957952
 30
0.0
 11
101.0652781825307
 21
169.4491266957952
 31
0.0
  0
LINE
  5
3B76
330
3A17
100
AcDbEntity
  8
0
 62
     0
 48
10.0
100
AcDbLine
 10
101.5659578375245
 20
169.5150424228663
 30
0.0
 11
101.5659578375245
 21
169.5150424228663
 31
0.0
  0
LINE
  5
3B77
330
3A17
100
AcDbEntity
  8
0
 62
     0
 48
10.0
100
AcDbLine
 10
102.3234217116141
 20
169.6147644337225
 30
0.0
 11
102.3234217116141
 21
169.6147644337225
 31
0.0
  0
LINE
  5
3B78
330
3A17
100
AcDbEntity
  8
0
 62
     0
 48
10.0
100
AcDbLine
 10
99.07017297494146
 20
169.9060220127443
 30
0.0
 11
99.07017297494146
 21
169.9060220127443
 31
0.0
  0
LINE
  5
3B79
330
3A17
100
AcDbEntity
  8
0
 62
     0
 48
10.0
100
AcDbLine
 10
99.57085262993523
 20
169.9719377398154
 30
0.0
 11
99.57085262993523
 21
169.9719377398154
 31
0.0
  0
LINE
  5
3B7A
330
3A17
100
AcDbEntity
  8
0
 62
     0
 48
10.0
100
AcDbLine
 10
100.3283165040248
 20
170.0716597506715
 30
0.0
 11
100.3283165040248
 21
170.0716597506715
 31
0.0
  0
LINE
  5
3B7B
330
3A17
100
AcDbEntity
  8
0
 62
     0
 48
10.0
100
AcDbLine
 10
101.591417257415
 20
170.2379501195599
 30
0.0
 11
101.591417257415
 21
170.2379501195599
 31
0.0
  0
LINE
  5
3B7C
330
3A17
100
AcDbEntity
  8
0
 62
     0
 48
10.0
100
AcDbLine
 10
102.0920969124088
 20
170.303865846631
 30
0.0
 11
102.0920969124088
 21
170.303865846631
 31
0.0
  0
LINE
  5
3B7D
330
3A17
100
AcDbEntity
  8
0
 62
     0
 48
10.0
100
AcDbLine
 10
102.8495607864984
 20
170.4035878574871
 30
0.0
 11
102.8495607864984
 21
170.4035878574871
 31
0.0
  0
LINE
  5
3B7E
330
3A17
100
AcDbEntity
  8
0
 62
     0
 48
10.0
100
AcDbLine
 10
99.59631204982574
 20
170.694845436509
 30
0.0
 11
99.59631204982574
 21
170.694845436509
 31
0.0
  0
LINE
  5
3B7F
330
3A17
100
AcDbEntity
  8
0
 62
     0
 48
10.0
100
AcDbLine
 10
100.0969917048195
 20
170.7607611635801
 30
0.0
 11
100.0969917048195
 21
170.7607611635801
 31
0.0
  0
LINE
  5
3B80
330
3A17
100
AcDbEntity
  8
0
 62
     0
 48
10.0
100
AcDbLine
 10
100.8544555789091
 20
170.8604831744363
 30
0.0
 11
100.8544555789091
 21
170.8604831744363
 31
0.0
  0
LINE
  5
3B81
330
3A17
100
AcDbEntity
  8
0
 62
     0
 48
10.0
100
AcDbLine
 10
102.1175563322993
 20
171.0267735433247
 30
0.0
 11
102.1175563322993
 21
171.0267735433247
 31
0.0
  0
LINE
  5
3B82
330
3A17
100
AcDbEntity
  8
0
 62
     0
 48
10.0
100
AcDbLine
 10
102.6182359872931
 20
171.0926892703958
 30
0.0
 11
102.6182359872931
 21
171.0926892703958
 31
0.0
  0
LINE
  5
3B83
330
3A17
100
AcDbEntity
  8
0
 62
     0
 48
10.0
100
AcDbLine
 10
98.85935037131984
 20
171.3173784913854
 30
0.0
 11
98.85935037131984
 21
171.3173784913854
 31
0.0
  0
LINE
  5
3B84
330
3A17
100
AcDbEntity
  8
0
 62
     0
 48
10.0
100
AcDbLine
 10
100.12245112471
 20
171.4836688602737
 30
0.0
 11
100.12245112471
 21
171.4836688602737
 31
0.0
  0
LINE
  5
3B85
330
3A17
100
AcDbEntity
  8
0
 62
     0
 48
10.0
100
AcDbLine
 10
100.6231307797038
 20
171.5495845873449
 30
0.0
 11
100.6231307797038
 21
171.5495845873449
 31
0.0
  0
LINE
  5
3B86
330
3A17
100
AcDbEntity
  8
0
 62
     0
 48
10.0
100
AcDbLine
 10
101.3805946537934
 20
171.649306598201
 30
0.0
 11
101.3805946537934
 21
171.649306598201
 31
0.0
  0
LINE
  5
3B87
330
3A17
100
AcDbEntity
  8
0
 62
     0
 48
10.0
100
AcDbLine
 10
102.6436954071836
 20
171.8155969670893
 30
0.0
 11
102.6436954071836
 21
171.8155969670893
 31
0.0
  0
LINE
  5
3B88
330
3A17
100
AcDbEntity
  8
0
 62
     0
 48
10.0
100
AcDbLine
 10
98.62802557211452
 20
172.006479904294
 30
0.0
 11
98.62802557211452
 21
172.006479904294
 31
0.0
  0
LINE
  5
3B89
330
3A17
100
AcDbEntity
  8
0
 62
     0
 48
10.0
100
AcDbLine
 10
99.38548944620411
 20
172.1062019151502
 30
0.0
 11
99.38548944620411
 21
172.1062019151502
 31
0.0
  0
LINE
  5
3B8A
330
3A17
100
AcDbEntity
  8
0
 62
     0
 48
10.0
100
AcDbLine
 10
100.6485901995943
 20
172.2724922840385
 30
0.0
 11
100.6485901995943
 21
172.2724922840385
 31
0.0
  0
LINE
  5
3B8B
330
3A17
100
AcDbEntity
  8
0
 62
     0
 48
10.0
100
AcDbLine
 10
101.1492698545881
 20
172.3384080111096
 30
0.0
 11
101.1492698545881
 21
172.3384080111096
 31
0.0
  0
LINE
  5
3B8C
330
3A17
100
AcDbEntity
  8
0
 62
     0
 48
10.0
100
AcDbLine
 10
101.9067337286777
 20
172.4381300219657
 30
0.0
 11
101.9067337286777
 21
172.4381300219657
 31
0.0
  0
LINE
  5
3B8D
330
3A17
100
AcDbEntity
  8
0
 62
     0
 48
10.0
100
AcDbLine
 10
99.15416464699882
 20
172.7953033280588
 30
0.0
 11
99.15416464699882
 21
172.7953033280588
 31
0.0
  0
LINE
  5
3B8E
330
3A17
100
AcDbEntity
  8
0
 62
     0
 48
10.0
100
AcDbLine
 10
99.91162852108843
 20
172.8950253389149
 30
0.0
 11
99.91162852108843
 21
172.8950253389149
 31
0.0
  0
LINE
  5
3B8F
330
3A17
100
AcDbEntity
  8
0
 62
     0
 48
10.0
100
AcDbLine
 10
101.1747292744786
 20
173.0613157078033
 30
0.0
 11
101.1747292744786
 21
173.0613157078033
 31
0.0
  0
LINE
  5
3B90
330
3A17
100
AcDbEntity
  8
0
 62
     0
 48
10.0
100
AcDbLine
 10
101.6754089294724
 20
173.1272314348744
 30
0.0
 11
101.6754089294724
 21
173.1272314348744
 31
0.0
  0
LINE
  5
3B91
330
3A17
100
AcDbEntity
  8
0
 62
     0
 48
10.0
100
AcDbLine
 10
102.432872803562
 20
173.2269534457305
 30
0.0
 11
102.432872803562
 21
173.2269534457305
 31
0.0
  0
LINE
  5
3B92
330
3A17
100
AcDbEntity
  8
0
 62
     0
 48
10.0
100
AcDbLine
 10
98.96072188299356
 20
166.2938330007363
 30
0.0
 11
98.96072188299356
 21
166.2938330007363
 31
0.0
  0
LINE
  5
3B93
330
3A17
100
AcDbEntity
  8
0
 62
     0
 48
10.0
100
AcDbLine
 10
99.46140153798733
 20
166.3597487278074
 30
0.0
 11
99.46140153798733
 21
166.3597487278074
 31
0.0
  0
LINE
  5
3B94
330
3A17
100
AcDbEntity
  8
0
 62
     0
 48
10.0
100
AcDbLine
 10
100.2188654120769
 20
166.4594707386636
 30
0.0
 11
100.2188654120769
 21
166.4594707386636
 31
0.0
  0
LINE
  5
3B95
330
3A17
100
AcDbEntity
  8
0
 62
     0
 48
10.0
100
AcDbLine
 10
101.4819661654671
 20
166.625761107552
 30
0.0
 11
101.4819661654671
 21
166.625761107552
 31
0.0
  0
LINE
  5
3B96
330
3A17
100
AcDbEntity
  8
0
 62
     0
 48
10.0
100
AcDbLine
 10
101.9826458204609
 20
166.6916768346231
 30
0.0
 11
101.9826458204609
 21
166.6916768346231
 31
0.0
  0
LINE
  5
3B97
330
3A17
100
AcDbEntity
  8
0
 62
     0
 48
10.0
100
AcDbLine
 10
102.7401096945505
 20
166.7913988454792
 30
0.0
 11
102.7401096945505
 21
166.7913988454792
 31
0.0
  0
LINE
  5
3B98
330
3A17
100
AcDbEntity
  8
0
 62
     0
 48
10.0
100
AcDbLine
 10
98.43458280810926
 20
165.5050095769716
 30
0.0
 11
98.43458280810926
 21
165.5050095769716
 31
0.0
  0
LINE
  5
3B99
330
3A17
100
AcDbEntity
  8
0
 62
     0
 48
10.0
100
AcDbLine
 10
98.93526246310303
 20
165.5709253040427
 30
0.0
 11
98.93526246310303
 21
165.5709253040427
 31
0.0
  0
LINE
  5
3B9A
330
3A17
100
AcDbEntity
  8
0
 62
     0
 48
10.0
100
AcDbLine
 10
99.69272633719263
 20
165.6706473148989
 30
0.0
 11
99.69272633719263
 21
165.6706473148989
 31
0.0
  0
LINE
  5
3B9B
330
3A17
100
AcDbEntity
  8
0
 62
     0
 48
10.0
100
AcDbLine
 10
100.9558270905828
 20
165.8369376837872
 30
0.0
 11
100.9558270905828
 21
165.8369376837872
 31
0.0
  0
LINE
  5
3B9C
330
3A17
100
AcDbEntity
  8
0
 62
     0
 48
10.0
100
AcDbLine
 10
101.4565067455766
 20
165.9028534108584
 30
0.0
 11
101.4565067455766
 21
165.9028534108584
 31
0.0
  0
LINE
  5
3B9D
330
3A17
100
AcDbEntity
  8
0
 62
     0
 48
10.0
100
AcDbLine
 10
102.2139706196662
 20
166.0025754217144
 30
0.0
 11
102.2139706196662
 21
166.0025754217144
 31
0.0
  0
LINE
  5
3B9E
330
3A17
100
AcDbEntity
  8
0
 62
     0
 48
10.0
100
AcDbLine
 10
97.90844373322499
 20
164.7161861532069
 30
0.0
 11
97.90844373322499
 21
164.7161861532069
 31
0.0
  0
LINE
  5
3B9F
330
3A17
100
AcDbEntity
  8
0
 62
     0
 48
10.0
100
AcDbLine
 10
98.40912338821876
 20
164.782101880278
 30
0.0
 11
98.40912338821876
 21
164.782101880278
 31
0.0
  0
LINE
  5
3BA0
330
3A17
100
AcDbEntity
  8
0
 62
     0
 48
10.0
100
AcDbLine
 10
99.16658726230835
 20
164.8818238911341
 30
0.0
 11
99.16658726230835
 21
164.8818238911341
 31
0.0
  0
LINE
  5
3BA1
330
3A17
100
AcDbEntity
  8
0
 62
     0
 48
10.0
100
AcDbLine
 10
100.4296880156985
 20
165.0481142600225
 30
0.0
 11
100.4296880156985
 21
165.0481142600225
 31
0.0
  0
LINE
  5
3BA2
330
3A17
100
AcDbEntity
  8
0
 62
     0
 48
10.0
100
AcDbLine
 10
100.9303676706923
 20
165.1140299870936
 30
0.0
 11
100.9303676706923
 21
165.1140299870936
 31
0.0
  0
LINE
  5
3BA3
330
3A17
100
AcDbEntity
  8
0
 62
     0
 48
10.0
100
AcDbLine
 10
101.6878315447819
 20
165.2137519979497
 30
0.0
 11
101.6878315447819
 21
165.2137519979497
 31
0.0
  0
LINE
  5
3BA4
330
3A17
100
AcDbEntity
  8
0
 62
     0
 48
10.0
100
AcDbLine
 10
102.9509322981721
 20
165.3800423668381
 30
0.0
 11
102.9509322981721
 21
165.3800423668381
 31
0.0
  0
LINE
  5
3BA5
330
3A17
100
AcDbEntity
  8
0
 62
     0
 48
10.0
100
AcDbLine
 10
103.4516119531659
 20
165.4459580939092
 30
0.0
 11
103.4516119531659
 21
165.4459580939092
 31
0.0
  0
LINE
  5
3BA6
330
3A17
100
AcDbEntity
  8
0
 62
     0
 48
10.0
100
AcDbLine
 10
97.88298431333444
 20
163.9932784565133
 30
0.0
 11
97.88298431333444
 21
163.9932784565133
 31
0.0
  0
LINE
  5
3BA7
330
3A17
100
AcDbEntity
  8
0
 62
     0
 48
10.0
100
AcDbLine
 10
98.64044818742405
 20
164.0930004673694
 30
0.0
 11
98.64044818742405
 21
164.0930004673694
 31
0.0
  0
LINE
  5
3BA8
330
3A17
100
AcDbEntity
  8
0
 62
     0
 48
10.0
100
AcDbLine
 10
99.90354894081427
 20
164.2592908362578
 30
0.0
 11
99.90354894081427
 21
164.2592908362578
 31
0.0
  0
LINE
  5
3BA9
330
3A17
100
AcDbEntity
  8
0
 62
     0
 48
10.0
100
AcDbLine
 10
100.404228595808
 20
164.3252065633289
 30
0.0
 11
100.404228595808
 21
164.3252065633289
 31
0.0
  0
LINE
  5
3BAA
330
3A17
100
AcDbEntity
  8
0
 62
     0
 48
10.0
100
AcDbLine
 10
101.1616924698976
 20
164.424928574185
 30
0.0
 11
101.1616924698976
 21
164.424928574185
 31
0.0
  0
LINE
  5
3BAB
330
3A17
100
AcDbEntity
  8
0
 62
     0
 48
10.0
100
AcDbLine
 10
102.4247932232878
 20
164.5912189430734
 30
0.0
 11
102.4247932232878
 21
164.5912189430734
 31
0.0
  0
LINE
  5
3BAC
330
3A17
100
AcDbEntity
  8
0
 62
     0
 48
10.0
100
AcDbLine
 10
102.9254728782816
 20
164.6571346701445
 30
0.0
 11
102.9254728782816
 21
164.6571346701445
 31
0.0
  0
LINE
  5
3BAD
330
3A17
100
AcDbEntity
  8
0
 62
     0
 48
10.0
100
AcDbLine
 10
98.11430911253976
 20
163.3041770436047
 30
0.0
 11
98.11430911253976
 21
163.3041770436047
 31
0.0
  0
LINE
  5
3BAE
330
3A17
100
AcDbEntity
  8
0
 62
     0
 48
10.0
100
AcDbLine
 10
99.37740986592999
 20
163.470467412493
 30
0.0
 11
99.37740986592999
 21
163.470467412493
 31
0.0
  0
LINE
  5
3BAF
330
3A17
100
AcDbEntity
  8
0
 62
     0
 48
10.0
100
AcDbLine
 10
99.87808952092377
 20
163.5363831395642
 30
0.0
 11
99.87808952092377
 21
163.5363831395642
 31
0.0
  0
LINE
  5
3BB0
330
3A17
100
AcDbEntity
  8
0
 62
     0
 48
10.0
100
AcDbLine
 10
100.6355533950133
 20
163.6361051504203
 30
0.0
 11
100.6355533950133
 21
163.6361051504203
 31
0.0
  0
LINE
  5
3BB1
330
3A17
100
AcDbEntity
  8
0
 62
     0
 48
10.0
100
AcDbLine
 10
101.8986541484036
 20
163.8023955193087
 30
0.0
 11
101.8986541484036
 21
163.8023955193087
 31
0.0
  0
LINE
  5
3BB2
330
3A17
100
AcDbEntity
  8
0
 62
     0
 48
10.0
100
AcDbLine
 10
102.3993338033973
 20
163.8683112463798
 30
0.0
 11
102.3993338033973
 21
163.8683112463798
 31
0.0
  0
LINE
  5
3BB3
330
3A17
100
AcDbEntity
  8
0
 62
     0
 48
10.0
100
AcDbLine
 10
103.1567976774869
 20
163.9680332572359
 30
0.0
 11
103.1567976774869
 21
163.9680332572359
 31
0.0
  0
LINE
  5
3BB4
330
3A17
100
AcDbEntity
  8
0
 62
     0
 48
10.0
100
AcDbLine
 10
98.85127079104568
 20
162.6816439887283
 30
0.0
 11
98.85127079104568
 21
162.6816439887283
 31
0.0
  0
LINE
  5
3BB5
330
3A17
100
AcDbEntity
  8
0
 62
     0
 48
10.0
100
AcDbLine
 10
99.35195044603945
 20
162.7475597157994
 30
0.0
 11
99.35195044603945
 21
162.7475597157994
 31
0.0
  0
LINE
  5
3BB6
330
3A17
100
AcDbEntity
  8
0
 62
     0
 48
10.0
100
AcDbLine
 10
100.109414320129
 20
162.8472817266555
 30
0.0
 11
100.109414320129
 21
162.8472817266555
 31
0.0
  0
LINE
  5
3BB7
330
3A17
100
AcDbEntity
  8
0
 62
     0
 48
10.0
100
AcDbLine
 10
101.3725150735192
 20
163.0135720955439
 30
0.0
 11
101.3725150735192
 21
163.0135720955439
 31
0.0
  0
LINE
  5
3BB8
330
3A17
100
AcDbEntity
  8
0
 62
     0
 48
10.0
100
AcDbLine
 10
101.873194728513
 20
163.079487822615
 30
0.0
 11
101.873194728513
 21
163.079487822615
 31
0.0
  0
LINE
  5
3BB9
330
3A17
100
AcDbEntity
  8
0
 62
     0
 48
10.0
100
AcDbLine
 10
102.6306586026026
 20
163.1792098334711
 30
0.0
 11
102.6306586026026
 21
163.1792098334711
 31
0.0
  0
LINE
  5
3BBA
330
3A17
100
AcDbEntity
  8
0
 62
     0
 48
10.0
100
AcDbLine
 10
98.3251317161614
 20
161.8928205649636
 30
0.0
 11
98.3251317161614
 21
161.8928205649636
 31
0.0
  0
LINE
  5
3BBB
330
3A17
100
AcDbEntity
  8
0
 62
     0
 48
10.0
100
AcDbLine
 10
98.82581137115517
 20
161.9587362920347
 30
0.0
 11
98.82581137115517
 21
161.9587362920347
 31
0.0
  0
LINE
  5
3BBC
330
3A17
100
AcDbEntity
  8
0
 62
     0
 48
10.0
100
AcDbLine
 10
99.58327524524477
 20
162.0584583028908
 30
0.0
 11
99.58327524524477
 21
162.0584583028908
 31
0.0
  0
LINE
  5
3BBD
330
3A17
100
AcDbEntity
  8
0
 62
     0
 48
10.0
100
AcDbLine
 10
100.8463759986349
 20
162.2247486717792
 30
0.0
 11
100.8463759986349
 21
162.2247486717792
 31
0.0
  0
LINE
  5
3BBE
330
3A17
100
AcDbEntity
  8
0
 62
     0
 48
10.0
100
AcDbLine
 10
101.3470556536287
 20
162.2906643988503
 30
0.0
 11
101.3470556536287
 21
162.2906643988503
 31
0.0
  0
LINE
  5
3BBF
330
3A17
100
AcDbEntity
  8
0
 62
     0
 48
10.0
100
AcDbLine
 10
102.1045195277183
 20
162.3903864097064
 30
0.0
 11
102.1045195277183
 21
162.3903864097064
 31
0.0
  0
LINE
  5
3BC0
330
3A17
100
AcDbEntity
  8
0
 62
     0
 48
10.0
100
AcDbLine
 10
103.3676202811085
 20
162.5566767785947
 30
0.0
 11
103.3676202811085
 21
162.5566767785947
 31
0.0
  0
LINE
  5
3BC1
330
3A17
100
AcDbEntity
  8
0
 62
     0
 48
10.0
100
AcDbLine
 10
100.3202369237506
 20
161.4359252480145
 30
0.0
 11
100.3202369237506
 21
161.4359252480145
 31
0.0
  0
LINE
  5
3BC2
330
3A17
100
AcDbEntity
  8
0
 62
     0
 48
10.0
100
AcDbLine
 10
100.8209165787444
 20
161.5018409750856
 30
0.0
 11
100.8209165787444
 21
161.5018409750856
 31
0.0
  0
LINE
  5
3BC3
330
3A17
100
AcDbEntity
  8
0
 62
     0
 48
10.0
100
AcDbLine
 10
101.578380452834
 20
161.6015629859417
 30
0.0
 11
101.578380452834
 21
161.6015629859417
 31
0.0
  0
LINE
  5
3BC4
330
3A17
100
AcDbEntity
  8
0
 62
     0
 48
10.0
100
AcDbLine
 10
102.8414812062242
 20
161.7678533548301
 30
0.0
 11
102.8414812062242
 21
161.7678533548301
 31
0.0
  0
LINE
  5
3BC5
330
3A17
100
AcDbEntity
  8
0
 62
     0
 48
10.0
100
AcDbLine
 10
103.342160861218
 20
161.8337690819012
 30
0.0
 11
103.342160861218
 21
161.8337690819012
 31
0.0
  0
LINE
  5
3BC6
330
3A17
100
AcDbEntity
  8
0
 62
     0
 48
10.0
100
AcDbLine
 10
98.39240440282679
 20
168.8280865683884
 30
0.0
 11
98.39240440282679
 21
168.8280865683884
 31
0.0
  0
LINE
  5
3BC7
330
3A17
100
AcDbEntity
  8
0
 62
     0
 48
10.0
100
AcDbLine
 10
100.1382246956594
 20
167.7158763791105
 30
0.0
 11
100.1382246956594
 21
167.7158763791105
 31
0.0
  0
LINE
  5
3BC8
330
3A17
100
AcDbEntity
  8
0
 62
     0
 48
10.0
100
AcDbLine
 10
100.5599204185659
 20
167.4472265749371
 30
0.0
 11
100.5599204185659
 21
167.4472265749371
 31
0.0
  0
LINE
  5
3BC9
330
3A17
100
AcDbEntity
  8
0
 62
     0
 48
10.0
100
AcDbLine
 10
101.875611074034
 20
166.609039185916
 30
0.0
 11
101.875611074034
 21
166.609039185916
 31
0.0
  0
LINE
  5
3BCA
330
3A17
100
AcDbEntity
  8
0
 62
     0
 48
10.0
100
AcDbLine
 10
99.4600492751716
 20
168.7829768249197
 30
0.0
 11
99.4600492751716
 21
168.7829768249197
 31
0.0
  0
LINE
  5
3BCB
330
3A17
100
AcDbEntity
  8
0
 62
     0
 48
10.0
100
AcDbLine
 10
101.2058695680042
 20
167.6707666356417
 30
0.0
 11
101.2058695680042
 21
167.6707666356417
 31
0.0
  0
LINE
  5
3BCC
330
3A17
100
AcDbEntity
  8
0
 62
     0
 48
10.0
100
AcDbLine
 10
101.6275652909107
 20
167.4021168314683
 30
0.0
 11
101.6275652909107
 21
167.4021168314683
 31
0.0
  0
LINE
  5
3BCD
330
3A17
100
AcDbEntity
  8
0
 62
     0
 48
10.0
100
AcDbLine
 10
102.9432559463788
 20
166.5639294424473
 30
0.0
 11
102.9432559463788
 21
166.5639294424473
 31
0.0
  0
LINE
  5
3BCE
330
3A17
100
AcDbEntity
  8
0
 62
     0
 48
10.0
100
AcDbLine
 10
98.79030776914193
 20
169.8447042746454
 30
0.0
 11
98.79030776914193
 21
169.8447042746454
 31
0.0
  0
LINE
  5
3BCF
330
3A17
100
AcDbEntity
  8
0
 62
     0
 48
10.0
100
AcDbLine
 10
99.21200349204838
 20
169.576054470472
 30
0.0
 11
99.21200349204838
 21
169.576054470472
 31
0.0
  0
LINE
  5
3BD0
330
3A17
100
AcDbEntity
  8
0
 62
     0
 48
10.0
100
AcDbLine
 10
100.5276941475164
 20
168.7378670814509
 30
0.0
 11
100.5276941475164
 21
168.7378670814509
 31
0.0
  0
LINE
  5
3BD1
330
3A17
100
AcDbEntity
  8
0
 62
     0
 48
10.0
100
AcDbLine
 10
102.2735144403491
 20
167.625656892173
 30
0.0
 11
102.2735144403491
 21
167.625656892173
 31
0.0
  0
LINE
  5
3BD2
330
3A17
100
AcDbEntity
  8
0
 62
     0
 48
10.0
100
AcDbLine
 10
102.6952101632555
 20
167.3570070879996
 30
0.0
 11
102.6952101632555
 21
167.3570070879996
 31
0.0
  0
LINE
  5
3BD3
330
3A17
100
AcDbEntity
  8
0
 62
     0
 48
10.0
100
AcDbLine
 10
99.85795264148674
 20
169.7995945311766
 30
0.0
 11
99.85795264148674
 21
169.7995945311766
 31
0.0
  0
LINE
  5
3BD4
330
3A17
100
AcDbEntity
  8
0
 62
     0
 48
10.0
100
AcDbLine
 10
100.2796483643931
 20
169.5309447270032
 30
0.0
 11
100.2796483643931
 21
169.5309447270032
 31
0.0
  0
LINE
  5
3BD5
330
3A17
100
AcDbEntity
  8
0
 62
     0
 48
10.0
100
AcDbLine
 10
101.5953390198612
 20
168.6927573379822
 30
0.0
 11
101.5953390198612
 21
168.6927573379822
 31
0.0
  0
LINE
  5
3BD6
330
3A17
100
AcDbEntity
  8
0
 62
     0
 48
10.0
100
AcDbLine
 10
99.17977722099889
 20
170.8666949769858
 30
0.0
 11
99.17977722099889
 21
170.8666949769858
 31
0.0
  0
LINE
  5
3BD7
330
3A17
100
AcDbEntity
  8
0
 62
     0
 48
10.0
100
AcDbLine
 10
100.9255975138315
 20
169.7544847877078
 30
0.0
 11
100.9255975138315
 21
169.7544847877078
 31
0.0
  0
LINE
  5
3BD8
330
3A17
100
AcDbEntity
  8
0
 62
     0
 48
10.0
100
AcDbLine
 10
101.3472932367379
 20
169.4858349835344
 30
0.0
 11
101.3472932367379
 21
169.4858349835344
 31
0.0
  0
LINE
  5
3BD9
330
3A17
100
AcDbEntity
  8
0
 62
     0
 48
10.0
100
AcDbLine
 10
102.662983892206
 20
168.6476475945134
 30
0.0
 11
102.662983892206
 21
168.6476475945134
 31
0.0
  0
LINE
  5
3BDA
330
3A17
100
AcDbEntity
  8
0
 62
     0
 48
10.0
100
AcDbLine
 10
98.93173143787556
 20
171.6597726225381
 30
0.0
 11
98.93173143787556
 21
171.6597726225381
 31
0.0
  0
LINE
  5
3BDB
330
3A17
100
AcDbEntity
  8
0
 62
     0
 48
10.0
100
AcDbLine
 10
100.2474220933436
 20
170.821585233517
 30
0.0
 11
100.2474220933436
 21
170.821585233517
 31
0.0
  0
LINE
  5
3BDC
330
3A17
100
AcDbEntity
  8
0
 62
     0
 48
10.0
100
AcDbLine
 10
101.9932423861763
 20
169.7093750442391
 30
0.0
 11
101.9932423861763
 21
169.7093750442391
 31
0.0
  0
LINE
  5
3BDD
330
3A17
100
AcDbEntity
  8
0
 62
     0
 48
10.0
100
AcDbLine
 10
102.4149381090827
 20
169.4407252400657
 30
0.0
 11
102.4149381090827
 21
169.4407252400657
 31
0.0
  0
LINE
  5
3BDE
330
3A17
100
AcDbEntity
  8
0
 62
     0
 48
10.0
100
AcDbLine
 10
99.57768058731401
 20
171.8833126832427
 30
0.0
 11
99.57768058731401
 21
171.8833126832427
 31
0.0
  0
LINE
  5
3BDF
330
3A17
100
AcDbEntity
  8
0
 62
     0
 48
10.0
100
AcDbLine
 10
99.99937631022046
 20
171.6146628790693
 30
0.0
 11
99.99937631022046
 21
171.6146628790693
 31
0.0
  0
LINE
  5
3BE0
330
3A17
100
AcDbEntity
  8
0
 62
     0
 48
10.0
100
AcDbLine
 10
101.3150669656884
 20
170.7764754900483
 30
0.0
 11
101.3150669656884
 21
170.7764754900483
 31
0.0
  0
LINE
  5
3BE1
330
3A17
100
AcDbEntity
  8
0
 62
     0
 48
10.0
100
AcDbLine
 10
103.0608872585211
 20
169.6642653007703
 30
0.0
 11
103.0608872585211
 21
169.6642653007703
 31
0.0
  0
LINE
  5
3BE2
330
3A17
100
AcDbEntity
  8
0
 62
     0
 48
10.0
100
AcDbLine
 10
98.8995051668261
 20
172.9504131290519
 30
0.0
 11
98.8995051668261
 21
172.9504131290519
 31
0.0
  0
LINE
  5
3BE3
330
3A17
100
AcDbEntity
  8
0
 62
     0
 48
10.0
100
AcDbLine
 10
100.6453254596587
 20
171.8382029397739
 30
0.0
 11
100.6453254596587
 21
171.8382029397739
 31
0.0
  0
LINE
  5
3BE4
330
3A17
100
AcDbEntity
  8
0
 62
     0
 48
10.0
100
AcDbLine
 10
101.0670211825652
 20
171.5695531356005
 30
0.0
 11
101.0670211825652
 21
171.5695531356005
 31
0.0
  0
LINE
  5
3BE5
330
3A17
100
AcDbEntity
  8
0
 62
     0
 48
10.0
100
AcDbLine
 10
102.3827118380333
 20
170.7313657465795
 30
0.0
 11
102.3827118380333
 21
170.7313657465795
 31
0.0
  0
LINE
  5
3BE6
330
3A17
100
AcDbEntity
  8
0
 62
     0
 48
10.0
100
AcDbLine
 10
99.96715003917094
 20
172.9053033855831
 30
0.0
 11
99.96715003917094
 21
172.9053033855831
 31
0.0
  0
LINE
  5
3BE7
330
3A17
100
AcDbEntity
  8
0
 62
     0
 48
10.0
100
AcDbLine
 10
101.7129703320036
 20
171.7930931963052
 30
0.0
 11
101.7129703320036
 21
171.7930931963052
 31
0.0
  0
LINE
  5
3BE8
330
3A17
100
AcDbEntity
  8
0
 62
     0
 48
10.0
100
AcDbLine
 10
102.13466605491
 20
171.5244433921318
 30
0.0
 11
102.13466605491
 21
171.5244433921318
 31
0.0
  0
LINE
  5
3BE9
330
3A17
100
AcDbEntity
  8
0
 62
     0
 48
10.0
100
AcDbLine
 10
101.0347949115156
 20
172.8601936421144
 30
0.0
 11
101.0347949115156
 21
172.8601936421144
 31
0.0
  0
LINE
  5
3BEA
330
3A17
100
AcDbEntity
  8
0
 62
     0
 48
10.0
100
AcDbLine
 10
102.7806152043483
 20
171.7479834528364
 30
0.0
 11
102.7806152043483
 21
171.7479834528364
 31
0.0
  0
LINE
  5
3BEB
330
3A17
100
AcDbEntity
  8
0
 62
     0
 48
10.0
100
AcDbLine
 10
102.1024397838605
 20
172.8150838986456
 30
0.0
 11
102.1024397838605
 21
172.8150838986456
 31
0.0
  0
LINE
  5
3BEC
330
3A17
100
AcDbEntity
  8
0
 62
     0
 48
10.0
100
AcDbLine
 10
99.07057982331462
 20
167.7609861225793
 30
0.0
 11
99.07057982331462
 21
167.7609861225793
 31
0.0
  0
LINE
  5
3BED
330
3A17
100
AcDbEntity
  8
0
 62
     0
 48
10.0
100
AcDbLine
 10
99.49227554622106
 20
167.4923363184059
 30
0.0
 11
99.49227554622106
 21
167.4923363184059
 31
0.0
  0
LINE
  5
3BEE
330
3A17
100
AcDbEntity
  8
0
 62
     0
 48
10.0
100
AcDbLine
 10
100.8079662016892
 20
166.6541489293848
 30
0.0
 11
100.8079662016892
 21
166.6541489293848
 31
0.0
  0
LINE
  5
3BEF
330
3A17
100
AcDbEntity
  8
0
 62
     0
 48
10.0
100
AcDbLine
 10
102.5537864945218
 20
165.5419387401069
 30
0.0
 11
102.5537864945218
 21
165.5419387401069
 31
0.0
  0
LINE
  5
3BF0
330
3A17
100
AcDbEntity
  8
0
 62
     0
 48
10.0
100
AcDbLine
 10
102.9754822174283
 20
165.2732889359335
 30
0.0
 11
102.9754822174283
 21
165.2732889359335
 31
0.0
  0
LINE
  5
3BF1
330
3A17
100
AcDbEntity
  8
0
 62
     0
 48
10.0
100
AcDbLine
 10
98.42463067387638
 20
167.5374460618746
 30
0.0
 11
98.42463067387638
 21
167.5374460618746
 31
0.0
  0
LINE
  5
3BF2
330
3A17
100
AcDbEntity
  8
0
 62
     0
 48
10.0
100
AcDbLine
 10
99.74032132934448
 20
166.6992586728535
 30
0.0
 11
99.74032132934448
 21
166.6992586728535
 31
0.0
  0
LINE
  5
3BF3
330
3A17
100
AcDbEntity
  8
0
 62
     0
 48
10.0
100
AcDbLine
 10
101.4861416221771
 20
165.5870484835756
 30
0.0
 11
101.4861416221771
 21
165.5870484835756
 31
0.0
  0
LINE
  5
3BF4
330
3A17
100
AcDbEntity
  8
0
 62
     0
 48
10.0
100
AcDbLine
 10
101.9078373450835
 20
165.3183986794022
 30
0.0
 11
101.9078373450835
 21
165.3183986794022
 31
0.0
  0
LINE
  5
3BF5
330
3A17
100
AcDbEntity
  8
0
 62
     0
 48
10.0
100
AcDbLine
 10
103.2235280005517
 20
164.4802112903811
 30
0.0
 11
103.2235280005517
 21
164.4802112903811
 31
0.0
  0
LINE
  5
3BF6
330
3A17
100
AcDbEntity
  8
0
 62
     0
 48
10.0
100
AcDbLine
 10
98.67267645699962
 20
166.7443684163223
 30
0.0
 11
98.67267645699962
 21
166.7443684163223
 31
0.0
  0
LINE
  5
3BF7
330
3A17
100
AcDbEntity
  8
0
 62
     0
 48
10.0
100
AcDbLine
 10
100.4184967498322
 20
165.6321582270444
 30
0.0
 11
100.4184967498322
 21
165.6321582270444
 31
0.0
  0
LINE
  5
3BF8
330
3A17
100
AcDbEntity
  8
0
 62
     0
 48
10.0
100
AcDbLine
 10
100.8401924727387
 20
165.3635084228709
 30
0.0
 11
100.8401924727387
 21
165.3635084228709
 31
0.0
  0
LINE
  5
3BF9
330
3A17
100
AcDbEntity
  8
0
 62
     0
 48
10.0
100
AcDbLine
 10
102.1558831282068
 20
164.5253210338499
 30
0.0
 11
102.1558831282068
 21
164.5253210338499
 31
0.0
  0
LINE
  5
3BFA
330
3A17
100
AcDbEntity
  8
0
 62
     0
 48
10.0
100
AcDbLine
 10
99.35085187748747
 20
165.6772679705132
 30
0.0
 11
99.35085187748747
 21
165.6772679705132
 31
0.0
  0
LINE
  5
3BFB
330
3A17
100
AcDbEntity
  8
0
 62
     0
 48
10.0
100
AcDbLine
 10
99.77254760039393
 20
165.4086181663398
 30
0.0
 11
99.77254760039393
 21
165.4086181663398
 31
0.0
  0
LINE
  5
3BFC
330
3A17
100
AcDbEntity
  8
0
 62
     0
 48
10.0
100
AcDbLine
 10
101.088238255862
 20
164.5704307773187
 30
0.0
 11
101.088238255862
 21
164.5704307773187
 31
0.0
  0
LINE
  5
3BFD
330
3A17
100
AcDbEntity
  8
0
 62
     0
 48
10.0
100
AcDbLine
 10
102.8340585486946
 20
163.4582205880408
 30
0.0
 11
102.8340585486946
 21
163.4582205880408
 31
0.0
  0
LINE
  5
3BFE
330
3A17
100
AcDbEntity
  8
0
 62
     0
 48
10.0
100
AcDbLine
 10
103.2557542716011
 20
163.1895707838674
 30
0.0
 11
103.2557542716011
 21
163.1895707838674
 31
0.0
  0
LINE
  5
3BFF
330
3A17
100
AcDbEntity
  8
0
 62
     0
 48
10.0
100
AcDbLine
 10
98.28320700514268
 20
165.7223777139819
 30
0.0
 11
98.28320700514268
 21
165.7223777139819
 31
0.0
  0
LINE
  5
3C00
330
3A17
100
AcDbEntity
  8
0
 62
     0
 48
10.0
100
AcDbLine
 10
98.70490272804914
 20
165.4537279098085
 30
0.0
 11
98.70490272804914
 21
165.4537279098085
 31
0.0
  0
LINE
  5
3C01
330
3A17
100
AcDbEntity
  8
0
 62
     0
 48
10.0
100
AcDbLine
 10
100.0205933835172
 20
164.6155405207874
 30
0.0
 11
100.0205933835172
 21
164.6155405207874
 31
0.0
  0
LINE
  5
3C02
330
3A17
100
AcDbEntity
  8
0
 62
     0
 48
10.0
100
AcDbLine
 10
101.7664136763499
 20
163.5033303315095
 30
0.0
 11
101.7664136763499
 21
163.5033303315095
 31
0.0
  0
LINE
  5
3C03
330
3A17
100
AcDbEntity
  8
0
 62
     0
 48
10.0
100
AcDbLine
 10
102.1881093992563
 20
163.2346805273361
 30
0.0
 11
102.1881093992563
 21
163.2346805273361
 31
0.0
  0
LINE
  5
3C04
330
3A17
100
AcDbEntity
  8
0
 62
     0
 48
10.0
100
AcDbLine
 10
103.5038000547244
 20
162.396493138315
 30
0.0
 11
103.5038000547244
 21
162.396493138315
 31
0.0
  0
LINE
  5
3C05
330
3A17
100
AcDbEntity
  8
0
 62
     0
 48
10.0
100
AcDbLine
 10
98.95294851117235
 20
164.6606502642562
 30
0.0
 11
98.95294851117235
 21
164.6606502642562
 31
0.0
  0
LINE
  5
3C06
330
3A17
100
AcDbEntity
  8
0
 62
     0
 48
10.0
100
AcDbLine
 10
100.698768804005
 20
163.5484400749783
 30
0.0
 11
100.698768804005
 21
163.5484400749783
 31
0.0
  0
LINE
  5
3C07
330
3A17
100
AcDbEntity
  8
0
 62
     0
 48
10.0
100
AcDbLine
 10
101.1204645269114
 20
163.2797902708049
 30
0.0
 11
101.1204645269114
 21
163.2797902708049
 31
0.0
  0
LINE
  5
3C08
330
3A17
100
AcDbEntity
  8
0
 62
     0
 48
10.0
100
AcDbLine
 10
102.4361551823795
 20
162.4416028817838
 30
0.0
 11
102.4361551823795
 21
162.4416028817838
 31
0.0
  0
LINE
  5
3C09
330
3A17
100
AcDbEntity
  8
0
 62
     0
 48
10.0
100
AcDbLine
 10
97.88530363882754
 20
164.705760007725
 30
0.0
 11
97.88530363882754
 21
164.705760007725
 31
0.0
  0
LINE
  5
3C0A
330
3A17
100
AcDbEntity
  8
0
 62
     0
 48
10.0
100
AcDbLine
 10
99.63112393166021
 20
163.593549818447
 30
0.0
 11
99.63112393166021
 21
163.593549818447
 31
0.0
  0
LINE
  5
3C0B
330
3A17
100
AcDbEntity
  8
0
 62
     0
 48
10.0
100
AcDbLine
 10
100.0528196545666
 20
163.3249000142736
 30
0.0
 11
100.0528196545666
 21
163.3249000142736
 31
0.0
  0
LINE
  5
3C0C
330
3A17
100
AcDbEntity
  8
0
 62
     0
 48
10.0
100
AcDbLine
 10
101.3685103100347
 20
162.4867126252526
 30
0.0
 11
101.3685103100347
 21
162.4867126252526
 31
0.0
  0
LINE
  5
3C0D
330
3A17
100
AcDbEntity
  8
0
 62
     0
 48
10.0
100
AcDbLine
 10
98.56347905931544
 20
163.6386595619158
 30
0.0
 11
98.56347905931544
 21
163.6386595619158
 31
0.0
  0
LINE
  5
3C0E
330
3A17
100
AcDbEntity
  8
0
 62
     0
 48
10.0
100
AcDbLine
 10
98.98517478222188
 20
163.3700097577424
 30
0.0
 11
98.98517478222188
 21
163.3700097577424
 31
0.0
  0
LINE
  5
3C0F
330
3A17
100
AcDbEntity
  8
0
 62
     0
 48
10.0
100
AcDbLine
 10
100.3008654376899
 20
162.5318223687214
 30
0.0
 11
100.3008654376899
 21
162.5318223687214
 31
0.0
  0
LINE
  5
3C10
330
3A17
100
AcDbEntity
  8
0
 62
     0
 48
10.0
100
AcDbLine
 10
102.0466857305226
 20
161.4196121794434
 30
0.0
 11
102.0466857305226
 21
161.4196121794434
 31
0.0
  0
LINE
  5
3C11
330
3A17
100
AcDbEntity
  8
0
 62
     0
 48
10.0
100
AcDbLine
 10
97.91752990987703
 20
163.4151195012111
 30
0.0
 11
97.91752990987703
 21
163.4151195012111
 31
0.0
  0
LINE
  5
3C12
330
3A17
100
AcDbEntity
  8
0
 62
     0
 48
10.0
100
AcDbLine
 10
99.23322056534514
 20
162.5769321121901
 30
0.0
 11
99.23322056534514
 21
162.5769321121901
 31
0.0
  0
LINE
  5
3C13
330
3A17
100
AcDbEntity
  8
0
 62
     0
 48
10.0
100
AcDbLine
 10
100.9790408581778
 20
161.4647219229122
 30
0.0
 11
100.9790408581778
 21
161.4647219229122
 31
0.0
  0
LINE
  5
3C14
330
3A17
100
AcDbEntity
  8
0
 62
     0
 48
10.0
100
AcDbLine
 10
98.16557569300028
 20
162.6220418556589
 30
0.0
 11
98.16557569300028
 21
162.6220418556589
 31
0.0
  0
LINE
  5
3C15
330
3A17
100
AcDbEntity
  8
0
 62
     0
 48
10.0
100
AcDbLine
 10
99.91139598583295
 20
161.509831666381
 30
0.0
 11
99.91139598583295
 21
161.509831666381
 31
0.0
  0
LINE
  5
3C16
330
3A17
100
AcDbEntity
  8
0
 62
     0
 48
10.0
100
AcDbLine
 10
98.84375111348818
 20
161.5549414098497
 30
0.0
 11
98.84375111348818
 21
161.5549414098497
 31
0.0
  0
LINE
  5
3C17
330
3A17
100
AcDbEntity
  8
0
 62
     0
 48
10.0
100
AcDbLine
 10
97.77610624114331
 20
161.6000511533184
 30
0.0
 11
97.77610624114331
 21
161.6000511533184
 31
0.0
  0
LINE
  5
3C18
330
3A17
100
AcDbEntity
  8
0
 62
     0
 48
10.0
100
AcDbLine
 10
98.84949293201328
 20
168.9728044703517
 30
0.0
 11
98.84949293201328
 21
168.9728044703517
 31
0.0
  0
LINE
  5
3C19
330
3A17
100
AcDbEntity
  8
0
 62
     0
 48
10.0
100
AcDbLine
 10
99.32872320093986
 20
168.5336708354015
 30
0.0
 11
99.32872320093986
 21
168.5336708354015
 31
0.0
  0
LINE
  5
3C1A
330
3A17
100
AcDbEntity
  8
0
 62
     0
 48
10.0
100
AcDbLine
 10
100.0925425218751
 20
167.8337593803117
 30
0.0
 11
100.0925425218751
 21
167.8337593803117
 31
0.0
  0
LINE
  5
3C1B
330
3A17
100
AcDbEntity
  8
0
 62
     0
 48
10.0
100
AcDbLine
 10
101.176340206986
 20
166.8406417751166
 30
0.0
 11
101.176340206986
 21
166.8406417751166
 31
0.0
  0
LINE
  5
3C1C
330
3A17
100
AcDbEntity
  8
0
 62
     0
 48
10.0
100
AcDbLine
 10
101.6555704759126
 20
166.4015081401664
 30
0.0
 11
101.6555704759126
 21
166.4015081401664
 31
0.0
  0
LINE
  5
3C1D
330
3A17
100
AcDbEntity
  8
0
 62
     0
 48
10.0
100
AcDbLine
 10
102.4193897968478
 20
165.7015966850766
 30
0.0
 11
102.4193897968478
 21
165.7015966850766
 31
0.0
  0
LINE
  5
3C1E
330
3A17
100
AcDbEntity
  8
0
 62
     0
 48
10.0
100
AcDbLine
 10
103.5031874819587
 20
164.7084790798816
 30
0.0
 11
103.5031874819587
 21
164.7084790798816
 31
0.0
  0
LINE
  5
3C1F
330
3A17
100
AcDbEntity
  8
0
 62
     0
 48
10.0
100
AcDbLine
 10
98.93206758558715
 20
170.1661320402113
 30
0.0
 11
98.93206758558715
 21
170.1661320402113
 31
0.0
  0
LINE
  5
3C20
330
3A17
100
AcDbEntity
  8
0
 62
     0
 48
10.0
100
AcDbLine
 10
100.015865270698
 20
169.1730144350163
 30
0.0
 11
100.015865270698
 21
169.1730144350163
 31
0.0
  0
LINE
  5
3C21
330
3A17
100
AcDbEntity
  8
0
 62
     0
 48
10.0
100
AcDbLine
 10
100.4950955396246
 20
168.7338808000661
 30
0.0
 11
100.4950955396246
 21
168.7338808000661
 31
0.0
  0
LINE
  5
3C22
330
3A17
100
AcDbEntity
  8
0
 62
     0
 48
10.0
100
AcDbLine
 10
101.2589148605598
 20
168.0339693449762
 30
0.0
 11
101.2589148605598
 21
168.0339693449762
 31
0.0
  0
LINE
  5
3C23
330
3A17
100
AcDbEntity
  8
0
 62
     0
 48
10.0
100
AcDbLine
 10
102.3427125456707
 20
167.0408517397812
 30
0.0
 11
102.3427125456707
 21
167.0408517397812
 31
0.0
  0
LINE
  5
3C24
330
3A17
100
AcDbEntity
  8
0
 62
     0
 48
10.0
100
AcDbLine
 10
102.8219428145973
 20
166.6017181048311
 30
0.0
 11
102.8219428145973
 21
166.6017181048311
 31
0.0
  0
LINE
  5
3C25
330
3A17
100
AcDbEntity
  8
0
 62
     0
 48
10.0
100
AcDbLine
 10
98.85539033441011
 20
171.5053870949159
 30
0.0
 11
98.85539033441011
 21
171.5053870949159
 31
0.0
  0
LINE
  5
3C26
330
3A17
100
AcDbEntity
  8
0
 62
     0
 48
10.0
100
AcDbLine
 10
99.33462060333669
 20
171.0662534599658
 30
0.0
 11
99.33462060333669
 21
171.0662534599658
 31
0.0
  0
LINE
  5
3C27
330
3A17
100
AcDbEntity
  8
0
 62
     0
 48
10.0
100
AcDbLine
 10
100.0984399242719
 20
170.366342004876
 30
0.0
 11
100.0984399242719
 21
170.366342004876
 31
0.0
  0
LINE
  5
3C28
330
3A17
100
AcDbEntity
  8
0
 62
     0
 48
10.0
100
AcDbLine
 10
101.1822376093828
 20
169.3732243996809
 30
0.0
 11
101.1822376093828
 21
169.3732243996809
 31
0.0
  0
LINE
  5
3C29
330
3A17
100
AcDbEntity
  8
0
 62
     0
 48
10.0
100
AcDbLine
 10
101.6614678783094
 20
168.9340907647307
 30
0.0
 11
101.6614678783094
 21
168.9340907647307
 31
0.0
  0
LINE
  5
3C2A
330
3A17
100
AcDbEntity
  8
0
 62
     0
 48
10.0
100
AcDbLine
 10
102.4252871992447
 20
168.2341793096409
 30
0.0
 11
102.4252871992447
 21
168.2341793096409
 31
0.0
  0
LINE
  5
3C2B
330
3A17
100
AcDbEntity
  8
0
 62
     0
 48
10.0
100
AcDbLine
 10
98.93796498798401
 20
172.6987146647756
 30
0.0
 11
98.93796498798401
 21
172.6987146647756
 31
0.0
  0
LINE
  5
3C2C
330
3A17
100
AcDbEntity
  8
0
 62
     0
 48
10.0
100
AcDbLine
 10
100.0217626730948
 20
171.7055970595806
 30
0.0
 11
100.0217626730948
 21
171.7055970595806
 31
0.0
  0
LINE
  5
3C2D
330
3A17
100
AcDbEntity
  8
0
 62
     0
 48
10.0
100
AcDbLine
 10
100.5009929420214
 20
171.2664634246304
 30
0.0
 11
100.5009929420214
 21
171.2664634246304
 31
0.0
  0
LINE
  5
3C2E
330
3A17
100
AcDbEntity
  8
0
 62
     0
 48
10.0
100
AcDbLine
 10
101.2648122629567
 20
170.5665519695406
 30
0.0
 11
101.2648122629567
 21
170.5665519695406
 31
0.0
  0
LINE
  5
3C2F
330
3A17
100
AcDbEntity
  8
0
 62
     0
 48
10.0
100
AcDbLine
 10
102.3486099480675
 20
169.5734343643455
 30
0.0
 11
102.3486099480675
 21
169.5734343643455
 31
0.0
  0
LINE
  5
3C30
330
3A17
100
AcDbEntity
  8
0
 62
     0
 48
10.0
100
AcDbLine
 10
102.8278402169941
 20
169.1343007293954
 30
0.0
 11
102.8278402169941
 21
169.1343007293954
 31
0.0
  0
LINE
  5
3C31
330
3A17
100
AcDbEntity
  8
0
 62
     0
 48
10.0
100
AcDbLine
 10
100.1043373266687
 20
172.8989246294402
 30
0.0
 11
100.1043373266687
 21
172.8989246294402
 31
0.0
  0
LINE
  5
3C32
330
3A17
100
AcDbEntity
  8
0
 62
     0
 48
10.0
100
AcDbLine
 10
101.1881350117796
 20
171.9058070242452
 30
0.0
 11
101.1881350117796
 21
171.9058070242452
 31
0.0
  0
LINE
  5
3C33
330
3A17
100
AcDbEntity
  8
0
 62
     0
 48
10.0
100
AcDbLine
 10
101.6673652807062
 20
171.4666733892951
 30
0.0
 11
101.6673652807062
 21
171.4666733892951
 31
0.0
  0
LINE
  5
3C34
330
3A17
100
AcDbEntity
  8
0
 62
     0
 48
10.0
100
AcDbLine
 10
102.4311846016414
 20
170.7667619342052
 30
0.0
 11
102.4311846016414
 21
170.7667619342052
 31
0.0
  0
LINE
  5
3C35
330
3A17
100
AcDbEntity
  8
0
 62
     0
 48
10.0
100
AcDbLine
 10
101.2707096653535
 20
173.0991345941049
 30
0.0
 11
101.2707096653535
 21
173.0991345941049
 31
0.0
  0
LINE
  5
3C36
330
3A17
100
AcDbEntity
  8
0
 62
     0
 48
10.0
100
AcDbLine
 10
102.3545073504643
 20
172.1060169889099
 30
0.0
 11
102.3545073504643
 21
172.1060169889099
 31
0.0
  0
LINE
  5
3C37
330
3A17
100
AcDbEntity
  8
0
 62
     0
 48
10.0
100
AcDbLine
 10
102.8337376193909
 20
171.6668833539597
 30
0.0
 11
102.8337376193909
 21
171.6668833539597
 31
0.0
  0
LINE
  5
3C38
330
3A17
100
AcDbEntity
  8
0
 62
     0
 48
10.0
100
AcDbLine
 10
102.4370820040383
 20
173.2993445587695
 30
0.0
 11
102.4370820040383
 21
173.2993445587695
 31
0.0
  0
LINE
  5
3C39
330
3A17
100
AcDbEntity
  8
0
 62
     0
 48
10.0
100
AcDbLine
 10
98.92617018319038
 20
167.633549415647
 30
0.0
 11
98.92617018319038
 21
167.633549415647
 31
0.0
  0
LINE
  5
3C3A
330
3A17
100
AcDbEntity
  8
0
 62
     0
 48
10.0
100
AcDbLine
 10
100.0099678683012
 20
166.640431810452
 30
0.0
 11
100.0099678683012
 21
166.640431810452
 31
0.0
  0
LINE
  5
3C3B
330
3A17
100
AcDbEntity
  8
0
 62
     0
 48
10.0
100
AcDbLine
 10
100.4891981372278
 20
166.2012981755018
 30
0.0
 11
100.4891981372278
 21
166.2012981755018
 31
0.0
  0
LINE
  5
3C3C
330
3A17
100
AcDbEntity
  8
0
 62
     0
 48
10.0
100
AcDbLine
 10
101.2530174581631
 20
165.501386720412
 30
0.0
 11
101.2530174581631
 21
165.501386720412
 31
0.0
  0
LINE
  5
3C3D
330
3A17
100
AcDbEntity
  8
0
 62
     0
 48
10.0
100
AcDbLine
 10
102.336815143274
 20
164.508269115217
 30
0.0
 11
102.336815143274
 21
164.508269115217
 31
0.0
  0
LINE
  5
3C3E
330
3A17
100
AcDbEntity
  8
0
 62
     0
 48
10.0
100
AcDbLine
 10
102.8160454122005
 20
164.0691354802668
 30
0.0
 11
102.8160454122005
 21
164.0691354802668
 31
0.0
  0
LINE
  5
3C3F
330
3A17
100
AcDbEntity
  8
0
 62
     0
 48
10.0
100
AcDbLine
 10
103.5798647331358
 20
163.369224025177
 30
0.0
 11
103.5798647331358
 21
163.369224025177
 31
0.0
  0
LINE
  5
3C40
330
3A17
100
AcDbEntity
  8
0
 62
     0
 48
10.0
100
AcDbLine
 10
98.84359552961649
 20
166.4402218457874
 30
0.0
 11
98.84359552961649
 21
166.4402218457874
 31
0.0
  0
LINE
  5
3C41
330
3A17
100
AcDbEntity
  8
0
 62
     0
 48
10.0
100
AcDbLine
 10
99.32282579854309
 20
166.0010882108372
 30
0.0
 11
99.32282579854309
 21
166.0010882108372
 31
0.0
  0
LINE
  5
3C42
330
3A17
100
AcDbEntity
  8
0
 62
     0
 48
10.0
100
AcDbLine
 10
100.0866451194783
 20
165.3011767557474
 30
0.0
 11
100.0866451194783
 21
165.3011767557474
 31
0.0
  0
LINE
  5
3C43
330
3A17
100
AcDbEntity
  8
0
 62
     0
 48
10.0
100
AcDbLine
 10
101.1704428045892
 20
164.3080591505523
 30
0.0
 11
101.1704428045892
 21
164.3080591505523
 31
0.0
  0
LINE
  5
3C44
330
3A17
100
AcDbEntity
  8
0
 62
     0
 48
10.0
100
AcDbLine
 10
101.6496730735158
 20
163.8689255156022
 30
0.0
 11
101.6496730735158
 21
163.8689255156022
 31
0.0
  0
LINE
  5
3C45
330
3A17
100
AcDbEntity
  8
0
 62
     0
 48
10.0
100
AcDbLine
 10
102.4134923944511
 20
163.1690140605124
 30
0.0
 11
102.4134923944511
 21
163.1690140605124
 31
0.0
  0
LINE
  5
3C46
330
3A17
100
AcDbEntity
  8
0
 62
     0
 48
10.0
100
AcDbLine
 10
103.4972900795619
 20
162.1758964553174
 30
0.0
 11
103.4972900795619
 21
162.1758964553174
 31
0.0
  0
LINE
  5
3C47
330
3A17
100
AcDbEntity
  8
0
 62
     0
 48
10.0
100
AcDbLine
 10
98.15645345985831
 20
165.8008782461725
 30
0.0
 11
98.15645345985831
 21
165.8008782461725
 31
0.0
  0
LINE
  5
3C48
330
3A17
100
AcDbEntity
  8
0
 62
     0
 48
10.0
100
AcDbLine
 10
98.9202727807936
 20
165.1009667910827
 30
0.0
 11
98.9202727807936
 21
165.1009667910827
 31
0.0
  0
LINE
  5
3C49
330
3A17
100
AcDbEntity
  8
0
 62
     0
 48
10.0
100
AcDbLine
 10
100.0040704659044
 20
164.1078491858877
 30
0.0
 11
100.0040704659044
 21
164.1078491858877
 31
0.0
  0
LINE
  5
3C4A
330
3A17
100
AcDbEntity
  8
0
 62
     0
 48
10.0
100
AcDbLine
 10
100.483300734831
 20
163.6687155509375
 30
0.0
 11
100.483300734831
 21
163.6687155509375
 31
0.0
  0
LINE
  5
3C4B
330
3A17
100
AcDbEntity
  8
0
 62
     0
 48
10.0
100
AcDbLine
 10
101.2471200557663
 20
162.9688040958477
 30
0.0
 11
101.2471200557663
 21
162.9688040958477
 31
0.0
  0
LINE
  5
3C4C
330
3A17
100
AcDbEntity
  8
0
 62
     0
 48
10.0
100
AcDbLine
 10
102.3309177408772
 20
161.9756864906527
 30
0.0
 11
102.3309177408772
 21
161.9756864906527
 31
0.0
  0
LINE
  5
3C4D
330
3A17
100
AcDbEntity
  8
0
 62
     0
 48
10.0
100
AcDbLine
 10
102.8101480098037
 20
161.5365528557025
 30
0.0
 11
102.8101480098037
 21
161.5365528557025
 31
0.0
  0
LINE
  5
3C4E
330
3A17
100
AcDbEntity
  8
0
 62
     0
 48
10.0
100
AcDbLine
 10
98.8376981272197
 20
163.907639221223
 30
0.0
 11
98.8376981272197
 21
163.907639221223
 31
0.0
  0
LINE
  5
3C4F
330
3A17
100
AcDbEntity
  8
0
 62
     0
 48
10.0
100
AcDbLine
 10
99.31692839614628
 20
163.4685055862729
 30
0.0
 11
99.31692839614628
 21
163.4685055862729
 31
0.0
  0
LINE
  5
3C50
330
3A17
100
AcDbEntity
  8
0
 62
     0
 48
10.0
100
AcDbLine
 10
100.0807477170815
 20
162.7685941311831
 30
0.0
 11
100.0807477170815
 21
162.7685941311831
 31
0.0
  0
LINE
  5
3C51
330
3A17
100
AcDbEntity
  8
0
 62
     0
 48
10.0
100
AcDbLine
 10
101.1645454021924
 20
161.775476525988
 30
0.0
 11
101.1645454021924
 21
161.775476525988
 31
0.0
  0
LINE
  5
3C52
330
3A17
100
AcDbEntity
  8
0
 62
     0
 48
10.0
100
AcDbLine
 10
98.15055605746151
 20
163.2682956216082
 30
0.0
 11
98.15055605746151
 21
163.2682956216082
 31
0.0
  0
LINE
  5
3C53
330
3A17
100
AcDbEntity
  8
0
 62
     0
 48
10.0
100
AcDbLine
 10
98.91437537839678
 20
162.5683841665184
 30
0.0
 11
98.91437537839678
 21
162.5683841665184
 31
0.0
  0
LINE
  5
3C54
330
3A17
100
AcDbEntity
  8
0
 62
     0
 48
10.0
100
AcDbLine
 10
99.99817306350767
 20
161.5752665613234
 30
0.0
 11
99.99817306350767
 21
161.5752665613234
 31
0.0
  0
LINE
  5
3C55
330
3A17
100
AcDbEntity
  8
0
 62
     0
 48
10.0
100
AcDbLine
 10
97.74800303971204
 20
162.3681742018538
 30
0.0
 11
97.74800303971204
 21
162.3681742018538
 31
0.0
  0
ENDBLK
  5
3C57
330
3A17
100
AcDbEntity
  8
0
 48
10.0
100
AcDbBlockEnd
  0
ENDSEC
  0
SECTION
  2
ENTITIES
  0
MTEXT
  5
1D2
330
2
100
AcDbEntity
  8
BEM
 48
10.0
100
AcDbMText
 10
613.0433420937672
 20
186.1266045212951
 30
0.0
 40
10.0
 41
0.0
 71
     4
 72
     1
  1
\A1;
1001
ACAD
1000
MTEXTBEGIN
1070
    73
1070
     1
1070
    44
1040
1.0
1070
    74
1070
     0
1000
MTEXTEND
  0
MTEXT
  5
1D5
330
2
100
AcDbEntity
  8
BEM
 48
10.0
100
AcDbMText
 10
457.9302800175508
 20
202.179276141615
 30
0.0
 40
10.0
 41
0.0
 71
     6
 72
     1
  1
\A1;
1001
ACAD
1000
MTEXTBEGIN
1070
    73
1070
     1
1070
    44
1040
1.0
1070
    74
1070
     0
1000
MTEXTEND
  0
MTEXT
  5
1255
330
2
100
AcDbEntity
  8
BEM
 48
10.0
100
AcDbMText
 10
876.5842231496765
 20
648.9051263995452
 30
0.0
 40
10.0
 41
0.0
 71
     4
 72
     1
  1
\A1;
1001
ACAD
1000
MTEXTBEGIN
1070
    73
1070
     1
1070
    44
1040
1.0
1070
    74
1070
     0
1000
MTEXTEND
  0
LINE
  5
15AB
330
2
100
AcDbEntity
  8
0
100
AcDbLine
 10
609.3483415189385
 20
405.7526491201529
 30
0.0
 11
749.77983900146
 21
405.7526491201529
 31
0.0
1001
ACAD
1000
ASC_BOUNDS
1002
{
1070
    19
1002
}
  0
LINE
  5
15AC
330
2
100
AcDbEntity
  8
0
100
AcDbLine
 10
607.2798390014599
 20
275.7526491201529
 30
0.0
 11
689.77983900146
 21
275.7526491201529
 31
0.0
1001
ACAD
1000
ASC_BOUNDS
1002
{
1070
    19
1002
}
  0
LINE
  5
15AD
330
2
100
AcDbEntity
  8
0
100
AcDbLine
 10
669.2798390014599
 20
265.9073496585321
 30
0.0
 11
624.2798390014599
 21
265.9073496585321
 31
0.0
  0
LINE
  5
15AE
330
2
100
AcDbEntity
  8
0
100
AcDbLine
 10
669.2798390014599
 20
275.7526491201529
 30
0.0
 11
624.2798390014599
 21
275.7526491201526
 31
0.0
1001
ACAD
1000
ASC_BOUNDS
1002
{
1070
    19
1002
}
  0
LINE
  5
15AF
330
2
100
AcDbEntity
  8
MITTE
 48
15.0
100
AcDbLine
 10
570.0376105419431
 20
344.7526491201529
 30
0.0
 11
873.5277220001885
 21
344.7526491201529
 31
0.0
  0
ARC
  5
15B0
330
2
100
AcDbEntity
  8
0
100
AcDbCircle
 10
628.9714832365434
 20
252.8009171784869
 30
0.0
 40
8.048268058334087
100
AcDbArc
 50
234.342521810186
 51
305.6574781898192
  0
LINE
  5
15B1
330
2
100
AcDbEntity
  8
0
100
AcDbLine
 10
624.2798390014599
 20
246.2615675846659
 30
0.0
 11
625.788757465973
 21
244.7526491201529
 31
0.0
1001
ACAD
1000
ASC_BOUNDS
1002
{
1070
    19
1002
}
  0
ARC
  5
15B2
330
2
100
AcDbEntity
  8
0
100
AcDbCircle
 10
628.9714832365434
 20
257.8590816001981
 30
0.0
 40
8.048268058334087
100
AcDbArc
 50
54.34252181018074
 51
125.6574781898139
  0
LINE
  5
15B3
330
2
100
AcDbEntity
  8
0
100
AcDbLine
 10
624.2798390014599
 20
264.3984311940191
 30
0.0
 11
625.788757465973
 21
265.9073496585321
 31
0.0
1001
ACAD
1000
ASC_BOUNDS
1002
{
1070
    19
1002
}
  0
LINE
  5
15B5
330
2
100
AcDbEntity
  8
LINIE
 48
10.0
100
AcDbLine
 10
606.4570942476843
 20
343.5958583268907
 30
0.0
 11
606.4570942476843
 21
285.8916110648372
 31
0.0
  0
LINE
  5
15B6
330
2
100
AcDbEntity
  8
0
100
AcDbLine
 10
477.8798390014599
 20
360.3089983062568
 30
0.0
 11
477.8798390014603
 21
291.3089983062568
 31
0.0
1001
ACAD
1000
ASC_BOUNDS
1002
{
1070
    19
1002
}
  0
LINE
  5
15B8
330
2
100
AcDbEntity
  8
LINIE
 48
10.0
100
AcDbLine
 10
549.8798390014599
 20
415.3181135226618
 30
0.0
 11
549.8798390014601
 21
268.3648866830926
 31
0.0
  0
LINE
  5
15B9
330
2
100
AcDbEntity
  8
LINIE
 48
10.0
100
AcDbLine
 10
519.8798390014601
 20
275.3089983062568
 30
0.0
 11
519.8798390014601
 21
378.9127744121351
 31
0.0
  0
LINE
  5
15BA
330
2
100
AcDbEntity
  8
0
100
AcDbLine
 10
576.3798390014608
 20
421.3089983062568
 30
0.0
 11
576.3798390014601
 21
262.3089983062566
 31
0.0
1001
ACAD
1000
ASC_BOUNDS
1002
{
1070
    19
1002
}
  0
LINE
  5
15BB
330
2
100
AcDbEntity
  8
0
100
AcDbLine
 10
582.7798390014602
 20
421.3089983062568
 30
0.0
 11
582.7798390014595
 21
262.3089983062566
 31
0.0
1001
ACAD
1000
ASC_BOUNDS
1002
{
1070
    19
1002
}
  0
LINE
  5
15BC
330
2
100
AcDbEntity
  8
0
100
AcDbLine
 10
432.8798390014601
 20
453.3089983062568
 30
0.0
 11
432.8798390014596
 21
277.3089983062563
 31
0.0
1001
ACAD
1000
ASC_BOUNDS
1002
{
1070
    19
1002
}
  0
LINE
  5
15BD
330
2
100
AcDbEntity
  8
0
100
AcDbLine
 10
419.3798390014599
 20
455.3089983062569
 30
0.0
 11
419.3798390014601
 21
275.3089983062568
 31
0.0
1001
ACAD
1000
ASC_BOUNDS
1002
{
1070
    19
1002
}
  0
LINE
  5
15BE
330
2
100
AcDbEntity
  8
0
100
AcDbLine
 10
430.8798390014601
 20
455.3089983062569
 30
0.0
 11
430.8798390014599
 21
275.3089983062568
 31
0.0
  0
ARC
  5
15BF
330
2
100
AcDbEntity
  8
0
100
AcDbCircle
 10
224.2571958453836
 20
335.3089983062568
 30
0.0
 40
73.0
100
AcDbArc
 50
326.6800806293913
 51
3.593995493094977
  0
LINE
  5
15C0
330
2
100
AcDbEntity
  8
0
100
AcDbLine
 10
285.2571958453836
 20
344.7526491201529
 30
0.0
 11
285.2571958453836
 21
277.2526491201529
 31
0.0
  0
LINE
  5
15C1
330
2
100
AcDbEntity
  8
0
100
AcDbLine
 10
285.2571958453836
 20
344.7526491201533
 30
0.0
 11
285.2571958453836
 21
277.2526491201529
 31
0.0
  0
HATCH
  5
15C2
330
2
100
AcDbEntity
  8
LINIE
 48
10.0
100
AcDbHatch
 10
0.0
 20
0.0
 30
0.0
210
0.0
220
0.0
230
1.0
  2
AR-CONC
 70
     0
 71
     0
 91
        4
 92
        7
 72
     1
 73
     1
 93
        6
 10
275.7411028382214
 20
309.5026491201529
 42
0.0
 10
274.0411038880432
 20
309.5026491201529
 42
-0.243307867483704
 10
224.2571958453835
 20
283.7526491201529
 42
0.0
 10
224.2571958453835
 20
274.7526491201529
 42
0.0
 10
244.5353213823012
 20
274.7526491201529
 42
0.1804963181033816
 10
251.0861671480717
 20
277.1970935645973
 42
0.1026679893051984
 97
        0
 92
        7
 72
     1
 73
     1
 93
        6
 10
224.2571958453835
 20
283.7526491201529
 42
-0.2433078674837039
 10
174.4732878027237
 20
309.5026491201529
 42
0.0
 10
172.7732888525456
 20
309.5026491201529
 42
0.1026679893051985
 10
197.4282245426952
 20
277.1970935645972
 42
0.1804963181033798
 10
203.9790703084658
 20
274.7526491201529
 42
0.0
 10
224.2571958453835
 20
274.7526491201529
 42
0.0
 97
        0
 92
        7
 72
     1
 73
     1
 93
        6
 10
224.2571958453835
 20
274.7526491201529
 42
0.0
 10
199.2571958453835
 20
274.7526491201529
 42
-0.4142135623730951
 10
201.7571958453835
 20
272.2526491201529
 42
0.0
 10
201.7571958453835
 20
264.2526491201528
 42
0.0503820444849776
 10
201.8077061026005
 20
263.752649120152
 42
0.0
 10
224.2571958453835
 20
263.752649120152
 42
0.0
 97
        0
 92
        7
 72
     1
 73
     1
 93
        6
 10
246.7571958453835
 20
272.2526491201529
 42
-0.4142135623730951
 10
249.2571958453835
 20
274.7526491201529
 42
0.0
 10
224.2571958453835
 20
274.7526491201529
 42
0.0
 10
224.2571958453835
 20
263.752649120152
 42
0.0
 10
246.7066855881665
 20
263.752649120152
 42
0.0503820444849763
 10
246.7571958453835
 20
264.2526491201528
 42
0.0
 97
        0
 75
     0
 76
     1
 52
0.0
 41
1.0
 77
     0
 78
    13
 53
50.0
 43
263.6254542563266
 44
19.04293939839951
 45
7.172601826007534
 46
-0.6275213498259511
 79
     2
 49
0.75
 49
-8.25
 53
355.0
 43
263.6254542563266
 44
19.04293939839951
 45
-1.38751333613
 46
7.521921337000118
 79
     2
 49
0.6
 49
-6.599999999999999
 53
100.4513999999999
 43
264.2231710563265
 44
18.99064599839951
 45
5.785093817140215
 46
6.894395420609535
 79
     2
 49
0.6374018999999986
 49
-7.011421119999987
 53
46.1842
 43
263.6254542563266
 44
21.04293939839951
 45
10.67241048625644
 46
-1.65519014329018
 79
     2
 49
1.125
 49
-12.375
 53
96.63559999999998
 43
264.5148217063266
 44
20.90500632839948
 45
9.346627055487033
 46
9.741178709004417
 79
     2
 49
0.9561028799999983
 49
-10.51712999999997
 53
351.1842
 43
263.6254542563266
 44
21.04293939839951
 45
9.346619451336271
 46
9.741186009253246
 79
     2
 49
0.9
 49
-9.9
 53
21.0
 43
264.6254542563266
 44
20.54293939839951
 45
5.969070521184616
 46
-4.026188906653388
 79
     2
 49
0.75
 49
-8.25
 53
326.0
 43
264.6254542563266
 44
20.54293939839951
 45
2.433153319215817
 46
7.25150045046853
 79
     2
 49
0.6
 49
-6.599999999999999
 53
71.45140000000001
 43
265.1228765863265
 44
20.20742333839947
 45
8.402226285814899
 46
3.225304967099523
 79
     2
 49
0.6374019000000001
 49
-7.011421119999999
 53
37.5
 43
263.6254542563266
 44
19.04293939839951
 45
0.1215985531729067
 46
3.328938538313114
 79
     6
 49
0.0
 49
-6.519999999999999
 49
0.0
 49
-6.7
 49
0.0
 49
-6.625
 53
7.499999999999999
 43
263.6254542563266
 44
19.04293939839951
 45
2.630695374421486
 46
3.944117118823602
 79
     6
 49
0.0
 49
-3.819999999999999
 49
0.0
 49
-6.37
 49
0.0
 49
-2.524999999999999
 53
327.4999999999999
 43
261.3954542563266
 44
19.04293939839951
 45
5.33822436172409
 46
-0.225548717343798
 79
     6
 49
0.0
 49
-2.5
 49
0.0
 49
-7.799999999999999
 49
0.0
 49
-10.34999999999999
 53
317.5
 43
260.3954542563266
 44
19.04293939839951
 45
5.831861693423862
 46
1.001049823323176
 79
     6
 49
0.0
 49
-3.25
 49
0.0
 49
-5.179999999999999
 49
0.0
 49
-7.349999999999999
 47
0.2899962470445532
 98
        4
 10
244.7284595017387
 20
281.5290509533124
 10
213.6882895576474
 20
281.2390540089354
 10
218.3298106539893
 20
269.6392055218184
 10
236.8958921006557
 20
266.1592505572839
  0
ARC
  5
15C3
330
2
100
AcDbEntity
  8
0
100
AcDbCircle
 10
185.5777094903669
 20
352.7526491201529
 30
0.0
 40
100.0
100
AcDbArc
 50
310.9260633096079
 51
355.4114342642148
1001
ACAD
1000
ASC_BOUNDS
1002
{
1070
    19
1005
0
1002
}
  0
CIRCLE
  5
15C4
330
2
100
AcDbEntity
  8
0
100
AcDbCircle
 10
224.2571958453836
 20
344.7526491201529
 30
0.0
 40
47.5
  0
CIRCLE
  5
15C5
330
2
100
AcDbEntity
  8
0
100
AcDbCircle
 10
224.2571958453836
 20
344.7526491201529
 30
0.0
 40
45.49999999999999
  0
CIRCLE
  5
15C6
330
2
100
AcDbEntity
  8
MITTE
 48
20.0
100
AcDbCircle
 10
224.2571958453836
 20
344.7526491201529
 30
0.0
 40
55.0
  0
LINE
  5
15C7
330
2
100
AcDbEntity
  8
0
100
AcDbLine
 10
163.2571958453836
 20
344.7526491201529
 30
0.0
 11
163.2571958453836
 21
277.2526491201529
 31
0.0
  0
LINE
  5
15C8
330
2
100
AcDbEntity
  8
0
100
AcDbLine
 10
163.2571958453836
 20
344.7526491201533
 30
0.0
 11
163.2571958453836
 21
277.2526491201529
 31
0.0
  0
LINE
  5
15C9
330
2
100
AcDbEntity
  8
0
100
AcDbLine
 10
154.4525772446168
 20
394.4656113198584
 30
0.0
 11
135.4525772446168
 21
290.4656113198584
 31
0.0
  0
ARC
  5
15CA
330
2
100
AcDbEntity
  8
0
100
AcDbCircle
 10
224.2571958453836
 20
344.7526491201529
 30
0.0
 40
61.0
100
AcDbArc
 50
203.3712029743129
 51
336.6287970256871
  0
ARC
  5
15CB
330
2
100
AcDbEntity
  8
0
100
AcDbCircle
 10
262.9366822004003
 20
352.7526491201529
 30
0.0
 40
100.0
100
AcDbArc
 50
184.5885657357851
 51
229.073936690392
1001
ACAD
1000
ASC_BOUNDS
1002
{
1070
    19
1005
0
1002
}
  0
ARC
  5
15CC
330
2
100
AcDbEntity
  8
0
100
AcDbCircle
 10
224.2571958453836
 20
365.3089983062568
 30
0.0
 40
90.0
100
AcDbArc
 50
317.170826285422
 51
204.4415405741426
  0
LINE
  5
15D0
330
2
100
AcDbEntity
  8
MITTE
 48
20.0
100
AcDbLine
 10
224.2571958453836
 20
461.9386069742596
 30
0.0
 11
224.2571958453836
 21
239.5821413957191
 31
0.0
  0
LINE
  5
15D2
330
2
100
AcDbEntity
  8
0
100
AcDbLine
 10
165.7571958453836
 20
274.7526491201529
 30
0.0
 11
282.7571958453836
 21
274.7526491201529
 31
0.0
1001
ACAD
1000
ASC_BOUNDS
1002
{
1070
    19
1005
0
1002
}
  0
LINE
  5
15D3
330
2
100
AcDbEntity
  8
0
100
AcDbLine
 10
163.7571958453836
 20
265.9073496585324
 30
0.0
 11
201.7571958453836
 21
265.9073496585321
 31
0.0
  0
ARC
  5
15D4
330
2
100
AcDbEntity
  8
0
100
AcDbCircle
 10
176.0071958453836
 20
242.2573496585323
 30
0.0
 40
23.65
100
AcDbArc
 50
70.14839776841608
 51
109.8516022315839
  0
LINE
  5
15D5
330
2
100
AcDbEntity
  8
0
100
AcDbLine
 10
208.7571958453836
 20
274.7526491201529
 30
0.0
 11
163.7571958453836
 21
274.7526491201529
 31
0.0
1001
ACAD
1000
ASC_BOUNDS
1002
{
1070
    19
1002
}
  0
LINE
  5
15D6
330
2
100
AcDbEntity
  8
0
100
AcDbLine
 10
205.7571958453836
 20
244.7526491201529
 30
0.0
 11
166.7571958453836
 21
244.7526491201529
 31
0.0
1001
ACAD
1000
ASC_BOUNDS
1002
{
1070
    19
1005
0
1002
}
  0
ARC
  5
15D7
330
2
100
AcDbEntity
  8
0
100
AcDbCircle
 10
176.0071958453836
 20
268.4026491201529
 30
0.0
 40
23.65
100
AcDbArc
 50
250.148397768416
 51
289.8516022315839
  0
TEXT
  5
15D9
330
2
100
AcDbEntity
  8
0
100
AcDbText
 10
151.1856753660176
 20
250.4110452442294
 30
0.0
 40
10.0
  1
L
100
AcDbText
  0
LINE
  5
15DA
330
2
100
AcDbEntity
  8
0
100
AcDbLine
 10
167.9760066432791
 20
246.1580430323842
 30
0.0
 11
167.9760066432791
 21
264.501955746301
 31
0.0
  0
LINE
  5
15DB
330
2
100
AcDbEntity
  8
0
100
AcDbLine
 10
165.7571958453836
 20
245.7526491201529
 30
0.0
 11
165.7571958453836
 21
264.7526491201531
 31
0.0
1001
ACAD
1000
ASC_BOUNDS
1002
{
1070
    19
1002
}
  0
LINE
  5
15DC
330
2
100
AcDbEntity
  8
0
100
AcDbLine
 10
165.7571958453836
 20
245.7526491201529
 30
0.0
 11
167.9760066432791
 21
246.1580430323842
 31
0.0
  0
LINE
  5
15DD
330
2
100
AcDbEntity
  8
0
100
AcDbLine
 10
165.7571958453836
 20
245.7526491201529
 30
0.0
 11
166.7571958453836
 21
244.7526491201529
 31
0.0
1001
ACAD
1000
ASC_BOUNDS
1002
{
1070
    19
1002
}
  0
ARC
  5
15DE
330
2
100
AcDbEntity
  8
0
100
AcDbCircle
 10
165.7571958453836
 20
277.2526491201529
 30
0.0
 40
2.5
100
AcDbArc
 50
180.0
 51
270.0
  0
ARC
  5
15DF
330
2
100
AcDbEntity
  8
0
100
AcDbCircle
 10
165.7571958453836
 20
277.2526491201529
 30
0.0
 40
2.5
100
AcDbArc
 50
180.0
 51
270.0
  0
LINE
  5
15E0
330
2
100
AcDbEntity
  8
0
100
AcDbLine
 10
163.7571958453836
 20
270.3200844806037
 30
0.0
 11
143.5437873330865
 21
276.8980124934182
 31
0.0
  0
ARC
  5
15E1
330
2
100
AcDbEntity
  8
0
100
AcDbCircle
 10
147.2571958453836
 20
288.3089983062568
 30
0.0
 40
12.0
100
AcDbArc
 50
169.6466799560699
 51
251.9738691867117
  0
LINE
  5
15E2
330
2
100
AcDbEntity
  8
0
100
AcDbLine
 10
165.7571958453836
 20
264.7526491201531
 30
0.0
 11
167.9760066432791
 21
264.501955746301
 31
0.0
  0
LINE
  5
15E3
330
2
100
AcDbEntity
  8
0
100
AcDbLine
 10
165.7571958453836
 20
264.7526491201531
 30
0.0
 11
163.7571958453836
 21
265.9073496585324
 31
0.0
1001
ACAD
1000
ASC_BOUNDS
1002
{
1070
    19
1002
}
  0
LINE
  5
15E4
330
2
100
AcDbEntity
  8
0
100
AcDbLine
 10
163.7571958453836
 20
265.9073496585324
 30
0.0
 11
163.7571958453836
 21
274.7526491201529
 31
0.0
1001
ACAD
1000
ASC_BOUNDS
1002
{
1070
    19
1002
}
  0
ARC
  5
15E5
330
2
100
AcDbEntity
  8
LINIE
 48
10.0
100
AcDbCircle
 10
147.2571958453836
 20
288.3089983062568
 30
0.0
 40
4.0
100
AcDbArc
 50
81.14562423575746
 51
16.65070178048524
  0
CIRCLE
  5
15E6
330
2
100
AcDbEntity
  8
0
100
AcDbCircle
 10
147.2571958453836
 20
288.3089983062568
 30
0.0
 40
3.3235
  0
LINE
  5
15E7
330
2
100
AcDbEntity
  8
MITTE
 48
10.0
100
AcDbLine
 10
151.9941387469425
 20
288.3089983062568
 30
0.0
 11
141.0349637536469
 21
288.3089983062568
 31
0.0
  0
LINE
  5
15E8
330
2
100
AcDbEntity
  8
MITTE
 48
10.0
100
AcDbLine
 10
147.2571958453836
 20
294.3549405490951
 30
0.0
 11
147.2571958453836
 21
282.4845777452574
 31
0.0
  0
LINE
  5
15EC
330
2
100
AcDbEntity
  8
0
100
AcDbLine
 10
284.7571958453836
 20
274.7526491201529
 30
0.0
 11
239.7571958453836
 21
274.7526491201529
 31
0.0
1001
ACAD
1000
ASC_BOUNDS
1002
{
1070
    19
1002
}
  0
LINE
  5
15ED
330
2
100
AcDbEntity
  8
0
100
AcDbLine
 10
246.7571958453836
 20
265.9073496585324
 30
0.0
 11
284.7571958453836
 21
265.9073496585321
 31
0.0
  0
ARC
  5
15EE
330
2
100
AcDbEntity
  8
0
100
AcDbCircle
 10
272.5071958453836
 20
242.2573496585323
 30
0.0
 40
23.65
100
AcDbArc
 50
70.14839776841608
 51
109.8516022315839
  0
LINE
  5
15EF
330
2
100
AcDbEntity
  8
0
100
AcDbLine
 10
281.7571958453836
 20
244.7526491201529
 30
0.0
 11
242.7571958453836
 21
244.7526491201529
 31
0.0
1001
ACAD
1000
ASC_BOUNDS
1002
{
1070
    19
1005
0
1002
}
  0
ARC
  5
15F0
330
2
100
AcDbEntity
  8
0
100
AcDbCircle
 10
272.5071958453836
 20
268.4026491201529
 30
0.0
 40
23.65
100
AcDbArc
 50
250.148397768416
 51
289.8516022315839
  0
LINE
  5
15F1
330
2
100
AcDbEntity
  8
MITTE
 48
7.0
100
AcDbLine
 10
186.2571958453836
 20
241.6948885125466
 30
0.0
 11
186.2571958453836
 21
278.0859233506437
 31
0.0
  0
LINE
  5
15F2
330
2
100
AcDbEntity
  8
MITTE
 48
7.0
100
AcDbLine
 10
262.2571958453836
 20
241.6948885125466
 30
0.0
 11
262.2571958453836
 21
278.0859233506437
 31
0.0
  0
LINE
  5
15F3
330
2
100
AcDbEntity
  8
0
100
AcDbLine
 10
184.0383850474881
 20
246.1580430323842
 30
0.0
 11
184.0383850474881
 21
264.501955746301
 31
0.0
  0
LINE
  5
15F4
330
2
100
AcDbEntity
  8
0
100
AcDbLine
 10
188.476006643279
 20
246.1580430323842
 30
0.0
 11
188.476006643279
 21
264.501955746301
 31
0.0
  0
LINE
  5
15F5
330
2
100
AcDbEntity
  8
0
100
AcDbLine
 10
206.7571958453836
 20
245.7526491201529
 30
0.0
 11
206.7571958453836
 21
263.752649120152
 31
0.0
1001
ACAD
1000
ASC_BOUNDS
1002
{
1070
    19
1002
}
  0
LINE
  5
15F6
330
2
100
AcDbEntity
  8
0
100
AcDbLine
 10
204.5383850474881
 20
246.1580430323842
 30
0.0
 11
204.5383850474881
 21
263.752649120152
 31
0.0
  0
LINE
  5
15F7
330
2
100
AcDbEntity
  8
0
100
AcDbLine
 10
264.4760066432791
 20
246.1580430323842
 30
0.0
 11
264.4760066432791
 21
264.501955746301
 31
0.0
  0
LINE
  5
15F8
330
2
100
AcDbEntity
  8
0
100
AcDbLine
 10
241.7571958453836
 20
245.7526491201529
 30
0.0
 11
241.7571958453836
 21
263.752649120152
 31
0.0
1001
ACAD
1000
ASC_BOUNDS
1002
{
1070
    19
1002
}
  0
LINE
  5
15F9
330
2
100
AcDbEntity
  8
0
100
AcDbLine
 10
243.976006643279
 20
246.1580430323842
 30
0.0
 11
243.976006643279
 21
263.752649120152
 31
0.0
  0
LINE
  5
15FA
330
2
100
AcDbEntity
  8
0
100
AcDbLine
 10
260.0383850474881
 20
246.1580430323842
 30
0.0
 11
260.0383850474881
 21
264.501955746301
 31
0.0
  0
ARC
  5
15FC
330
2
100
AcDbEntity
  8
0
100
AcDbCircle
 10
196.5071958453836
 20
268.4026491201529
 30
0.0
 40
23.65
100
AcDbArc
 50
250.148397768416
 51
289.8516022315839
  0
LINE
  5
15FD
330
2
100
AcDbEntity
  8
0
100
AcDbLine
 10
184.0383850474881
 20
246.1580430323842
 30
0.0
 11
188.476006643279
 21
246.1580430323842
 31
0.0
  0
LINE
  5
15FE
330
2
100
AcDbEntity
  8
0
100
AcDbLine
 10
204.5383850474881
 20
246.1580430323842
 30
0.0
 11
206.7571958453836
 21
245.7526491201529
 31
0.0
  0
LINE
  5
15FF
330
2
100
AcDbEntity
  8
0
100
AcDbLine
 10
206.7571958453836
 20
245.7526491201529
 30
0.0
 11
205.7571958453836
 21
244.7526491201529
 31
0.0
1001
ACAD
1000
ASC_BOUNDS
1002
{
1070
    19
1002
}
  0
ARC
  5
1600
330
2
100
AcDbEntity
  8
0
100
AcDbCircle
 10
252.0071958453836
 20
268.4026491201529
 30
0.0
 40
23.65
100
AcDbArc
 50
250.148397768416
 51
289.8516022315839
  0
LINE
  5
1601
330
2
100
AcDbEntity
  8
0
100
AcDbLine
 10
241.7571958453836
 20
245.7526491201529
 30
0.0
 11
243.976006643279
 21
246.1580430323842
 31
0.0
  0
LINE
  5
1602
330
2
100
AcDbEntity
  8
0
100
AcDbLine
 10
241.7571958453836
 20
245.7526491201529
 30
0.0
 11
242.7571958453836
 21
244.7526491201529
 31
0.0
1001
ACAD
1000
ASC_BOUNDS
1002
{
1070
    19
1002
}
  0
LINE
  5
1603
330
2
100
AcDbEntity
  8
0
100
AcDbLine
 10
260.0383850474881
 20
246.1580430323842
 30
0.0
 11
264.4760066432791
 21
246.1580430323842
 31
0.0
  0
LINE
  5
1604
330
2
100
AcDbEntity
  8
0
100
AcDbLine
 10
201.8077061026005
 20
263.752649120152
 30
0.0
 11
246.7066855881666
 21
263.752649120152
 31
0.0
  0
LINE
  5
1605
330
2
100
AcDbEntity
  8
0
100
AcDbLine
 10
197.8111502648066
 20
274.7526491201529
 30
0.0
 11
251.4690928701834
 21
274.7526491201529
 31
0.0
  0
LINE
  5
1606
330
2
100
AcDbEntity
  8
0
100
AcDbLine
 10
224.2571958453836
 20
262.3089983062568
 30
0.0
 11
206.7571958453836
 21
262.3089983062568
 31
0.0
  0
ARC
  5
1607
330
2
100
AcDbEntity
  8
0
100
AcDbCircle
 10
203.9790703084658
 20
284.7526491201529
 30
0.0
 40
10.0
100
AcDbArc
 50
229.073936690392
 51
270.0
1001
ACAD
1000
ASC_BOUNDS
1002
{
1070
    19
1005
0
1002
}
  0
ARC
  5
1608
330
2
100
AcDbEntity
  8
0
100
AcDbCircle
 10
196.5071958453836
 20
242.2573496585323
 30
0.0
 40
23.65
100
AcDbArc
 50
77.17421556954024
 51
109.8516022315839
  0
LINE
  5
1609
330
2
100
AcDbEntity
  8
0
100
AcDbLine
 10
184.0383850474881
 20
264.501955746301
 30
0.0
 11
188.476006643279
 21
264.501955746301
 31
0.0
  0
ARC
  5
160A
330
2
100
AcDbEntity
  8
0
100
AcDbCircle
 10
204.2571958453836
 20
264.2526491201528
 30
0.0
 40
2.5
100
AcDbArc
 50
180.0
 51
191.5369590328385
  0
ARC
  5
160B
330
2
100
AcDbEntity
  8
0
100
AcDbCircle
 10
199.2571958453836
 20
272.2526491201529
 30
0.0
 40
2.5
100
AcDbArc
 50
0.0
 51
90.0
  0
LINE
  5
160C
330
2
100
AcDbEntity
  8
0
100
AcDbLine
 10
201.7571958453836
 20
272.2526491201529
 30
0.0
 11
201.7571958453836
 21
264.2526491201528
 31
0.0
  0
ARC
  5
160D
330
2
100
AcDbEntity
  8
0
100
AcDbCircle
 10
244.5353213823013
 20
284.7526491201529
 30
0.0
 40
10.0
100
AcDbArc
 50
270.0
 51
310.9260633096079
1001
ACAD
1000
ASC_BOUNDS
1002
{
1070
    19
1005
0
1002
}
  0
ARC
  5
160E
330
2
100
AcDbEntity
  8
0
100
AcDbCircle
 10
224.2571958453836
 20
335.3089983062568
 30
0.0
 40
73.0
100
AcDbArc
 50
270.0
 51
281.4136777865642
  0
ARC
  5
160F
330
2
100
AcDbEntity
  8
0
100
AcDbCircle
 10
244.2571958453836
 20
264.2526491201528
 30
0.0
 40
2.5
100
AcDbArc
 50
348.4630409671614
 51
0.0
  0
ARC
  5
1610
330
2
100
AcDbEntity
  8
0
100
AcDbCircle
 10
252.0071958453836
 20
242.2573496585323
 30
0.0
 40
23.65
100
AcDbArc
 50
70.14839776841608
 51
102.8257844304597
  0
ARC
  5
1611
330
2
100
AcDbEntity
  8
0
100
AcDbCircle
 10
249.2571958453836
 20
272.2526491201529
 30
0.0
 40
2.5
100
AcDbArc
 50
90.0
 51
180.0
  0
LINE
  5
1612
330
2
100
AcDbEntity
  8
0
100
AcDbLine
 10
246.7571958453836
 20
272.2526491201529
 30
0.0
 11
246.7571958453836
 21
264.2526491201528
 31
0.0
  0
LINE
  5
1613
330
2
100
AcDbEntity
  8
0
100
AcDbLine
 10
260.0383850474881
 20
264.501955746301
 30
0.0
 11
264.4760066432791
 21
264.501955746301
 31
0.0
  0
CIRCLE
  5
1614
330
2
100
AcDbEntity
  8
0
100
AcDbCircle
 10
224.2571958453836
 20
289.7526491201529
 30
0.0
 40
5.0
  0
TEXT
  5
1615
330
2
100
AcDbEntity
  8
0
100
AcDbText
 10
289.3818968112236
 20
250.0053353705845
 30
0.0
 40
10.0
  1
R
100
AcDbText
  0
LINE
  5
1616
330
2
100
AcDbEntity
  8
0
100
AcDbLine
 10
282.7571958453836
 20
245.7526491201529
 30
0.0
 11
282.7571958453836
 21
264.7526491201531
 31
0.0
1001
ACAD
1000
ASC_BOUNDS
1002
{
1070
    19
1002
}
  0
LINE
  5
1617
330
2
100
AcDbEntity
  8
0
100
AcDbLine
 10
280.5383850474882
 20
246.1580430323842
 30
0.0
 11
280.5383850474882
 21
264.501955746301
 31
0.0
  0
LINE
  5
1618
330
2
100
AcDbEntity
  8
0
100
AcDbLine
 10
280.5383850474882
 20
246.1580430323842
 30
0.0
 11
282.7571958453836
 21
245.7526491201529
 31
0.0
  0
LINE
  5
1619
330
2
100
AcDbEntity
  8
0
100
AcDbLine
 10
282.7571958453836
 20
245.7526491201529
 30
0.0
 11
281.7571958453836
 21
244.7526491201529
 31
0.0
1001
ACAD
1000
ASC_BOUNDS
1002
{
1070
    19
1002
}
  0
ARC
  5
161A
330
2
100
AcDbEntity
  8
0
100
AcDbCircle
 10
282.7571958453836
 20
277.2526491201529
 30
0.0
 40
2.5
100
AcDbArc
 50
270.0
 51
0.0
  0
ARC
  5
161B
330
2
100
AcDbEntity
  8
0
100
AcDbCircle
 10
282.7571958453836
 20
277.2526491201529
 30
0.0
 40
2.5
100
AcDbArc
 50
270.0
 51
0.0
  0
LINE
  5
161C
330
2
100
AcDbEntity
  8
0
100
AcDbLine
 10
282.7571958453836
 20
264.7526491201531
 30
0.0
 11
280.5383850474882
 21
264.501955746301
 31
0.0
  0
LINE
  5
161D
330
2
100
AcDbEntity
  8
0
100
AcDbLine
 10
282.7571958453836
 20
264.7526491201531
 30
0.0
 11
284.7571958453836
 21
265.9073496585321
 31
0.0
1001
ACAD
1000
ASC_BOUNDS
1002
{
1070
    19
1002
}
  0
LINE
  5
161E
330
2
100
AcDbEntity
  8
0
100
AcDbLine
 10
284.7571958453836
 20
265.9073496585321
 30
0.0
 11
284.7571958453836
 21
274.7526491201529
 31
0.0
1001
ACAD
1000
ASC_BOUNDS
1002
{
1070
    19
1002
}
  0
LINE
  5
1620
330
2
100
AcDbEntity
  8
0
100
AcDbLine
 10
432.8798390014599
 20
277.3089983062568
 30
0.0
 11
430.8798390014599
 21
275.3089983062568
 31
0.0
  0
LINE
  5
1622
330
2
100
AcDbEntity
  8
0
100
AcDbLine
 10
419.3798390014603
 20
275.3089983062568
 30
0.0
 11
430.8798390014599
 21
275.3089983062568
 31
0.0
  0
LINE
  5
1623
330
2
100
AcDbEntity
  8
0
100
AcDbLine
 10
525.8798390014598
 20
263.3089983062568
 30
0.0
 11
547.8798390014599
 21
263.3089983062568
 31
0.0
1001
ACAD
1000
ASC_BOUNDS
1002
{
1070
    19
1002
}
  0
ARC
  5
1624
330
2
100
AcDbEntity
  8
0
100
AcDbCircle
 10
483.8798390014603
 20
291.3089983062568
 30
0.0
 40
6.0
100
AcDbArc
 50
180.0
 51
270.0
1001
ACAD
1000
ASC_BOUNDS
1002
{
1070
    19
1002
}
  0
LINE
  5
1625
330
2
100
AcDbEntity
  8
0
100
AcDbLine
 10
479.4077030464607
 20
287.3089983062568
 30
0.0
 11
432.8798390014601
 21
287.3089983062568
 31
0.0
  0
ARC
  5
1626
330
2
100
AcDbEntity
  8
0
100
AcDbCircle
 10
509.8798390014601
 20
275.3089983062568
 30
0.0
 40
10.0
100
AcDbArc
 50
0.0
 51
90.0
1001
ACAD
1000
ASC_BOUNDS
1002
{
1070
    19
1002
}
  0
LINE
  5
1627
330
2
100
AcDbEntity
  8
0
100
AcDbLine
 10
496.8798390014604
 20
285.3089983062568
 30
0.0
 11
522.0776443659255
 21
264.6675205293506
 31
0.0
  0
ARC
  5
1628
330
2
100
AcDbEntity
  8
0
100
AcDbCircle
 10
525.8798390014598
 20
269.3089983062568
 30
0.0
 40
6.0
100
AcDbArc
 50
180.0
 51
270.0
1001
ACAD
1000
ASC_BOUNDS
1002
{
1070
    19
1002
}
  0
LINE
  5
1629
330
2
100
AcDbEntity
  8
0
100
AcDbLine
 10
519.8798390014599
 20
275.3089983062568
 30
0.0
 11
519.8798390014599
 21
269.3089983062568
 31
0.0
1001
ACAD
1000
ASC_BOUNDS
1002
{
1070
    19
1002
}
  0
LINE
  5
162A
330
2
100
AcDbEntity
  8
0
100
AcDbLine
 10
483.8798390014601
 20
285.3089983062568
 30
0.0
 11
509.8798390014601
 21
285.3089983062568
 31
0.0
1001
ACAD
1000
ASC_BOUNDS
1002
{
1070
    19
1002
}
  0
LINE
  5
162B
330
2
100
AcDbEntity
  8
0
100
AcDbLine
 10
624.2798390014599
 20
246.2615675846659
 30
0.0
 11
624.2798390014599
 21
264.3984311940191
 31
0.0
  0
LINE
  5
162C
330
2
100
AcDbEntity
  8
0
100
AcDbLine
 10
549.8798390014599
 20
262.3089983062568
 30
0.0
 11
582.7798390014599
 21
262.3089983062566
 31
0.0
1001
ACAD
1000
ASC_BOUNDS
1002
{
1070
    19
1002
}
  0
ARC
  5
162D
330
2
100
AcDbEntity
  8
0
100
AcDbCircle
 10
547.8798390014599
 20
260.8089983062568
 30
0.0
 40
2.5
100
AcDbArc
 50
36.86989764584662
 51
90.0
1001
ACAD
1000
ASC_BOUNDS
1002
{
1070
    19
1002
}
  0
ARC
  5
162E
330
2
100
AcDbEntity
  8
0
100
AcDbCircle
 10
626.7798390014602
 20
278.7526491201528
 30
0.0
 40
4.0
100
AcDbArc
 50
180.0
 51
228.5903778907302
1001
ACAD
1000
ASC_BOUNDS
1002
{
1070
    19
1002
}
  0
ARC
  5
162F
330
2
100
AcDbEntity
  8
0
100
AcDbCircle
 10
609.27983900146
 20
277.2526491201529
 30
0.0
 40
2.5
100
AcDbArc
 50
180.0
 51
216.8698976458466
  0
LINE
  5
1630
330
2
100
AcDbEntity
  8
0
100
AcDbLine
 10
624.2798390014599
 20
265.9073496585321
 30
0.0
 11
624.2798390014599
 21
275.7526491201529
 31
0.0
1001
ACAD
1000
ASC_BOUNDS
1002
{
1070
    19
1002
}
  0
LINE
  5
1631
330
2
100
AcDbEntity
  8
LINIE
 48
10.0
100
AcDbLine
 10
584.1528597929973
 20
283.7526491201529
 30
0.0
 11
607.1078952196139
 21
283.7526491201529
 31
0.0
  0
ARC
  5
1632
330
2
100
AcDbEntity
  8
0
100
AcDbCircle
 10
596.1195849636156
 20
288.7526491201528
 30
0.0
 40
10.0
100
AcDbArc
 50
270.0
 51
311.4096221092708
1001
ACAD
1000
ASC_BOUNDS
1002
{
1070
    19
1002
}
  0
LINE
  5
1633
330
2
100
AcDbEntity
  8
0
100
AcDbLine
 10
582.7798390014599
 20
278.7526491201528
 30
0.0
 11
596.1195849636156
 21
278.7526491201528
 31
0.0
1001
ACAD
1000
ASC_BOUNDS
1002
{
1070
    19
1002
}
  0
LINE
  5
1634
330
2
100
AcDbEntity
  8
0
100
AcDbLine
 10
582.7798390014599
 20
278.7526491201528
 30
0.0
 11
582.7798390014599
 21
278.7526491201528
 31
0.0
1001
ACAD
1000
ASC_BOUNDS
1002
{
1070
    19
1005
0
1002
}
  0
LINE
  5
1635
330
2
100
AcDbEntity
  8
0
100
AcDbLine
 10
609.3483415189385
 20
283.7526491201529
 30
0.0
 11
618.77983900146
 21
283.7526491201529
 31
0.0
1001
ACAD
1000
ASC_BOUNDS
1002
{
1070
    19
1002
}
  0
ARC
  5
1636
330
2
100
AcDbEntity
  8
0
100
AcDbCircle
 10
609.3483415189385
 20
273.7526491201529
 30
0.0
 40
10.0
100
AcDbArc
 50
90.0
 51
131.4096221092708
1001
ACAD
1000
ASC_BOUNDS
1002
{
1070
    19
1002
}
  0
LINE
  5
1637
330
2
100
AcDbEntity
  8
0
100
AcDbLine
 10
606.7798390014599
 20
277.2526491201529
 30
0.0
 11
606.7798390014599
 21
283.4171612556776
 31
0.0
  0
LINE
  5
1638
330
2
100
AcDbEntity
  8
0
100
AcDbLine
 10
622.7798390014602
 20
278.7526491201528
 30
0.0
 11
622.77983900146
 21
279.7526491201529
 31
0.0
1001
ACAD
1000
ASC_BOUNDS
1002
{
1070
    19
1002
}
  0
ARC
  5
1639
330
2
100
AcDbEntity
  8
0
100
AcDbCircle
 10
618.77983900146
 20
279.7526491201529
 30
0.0
 40
4.0
100
AcDbArc
 50
0.0
 51
90.0
1001
ACAD
1000
ASC_BOUNDS
1002
{
1070
    19
1002
}
  0
LINE
  5
163C
330
2
100
AcDbEntity
  8
MITTE
 48
20.0
100
AcDbLine
 10
260.0613397821839
 20
365.3089983062568
 30
0.0
 11
130.5301196557316
 21
365.3089983062568
 31
0.0
  0
LINE
  5
163D
330
2
100
AcDbEntity
  8
MITTE
 48
10.0
100
AcDbLine
 10
179.3655080953703
 20
410.2006860562692
 30
0.0
 11
165.3817852988531
 21
424.1844088527866
 31
0.0
  0
ARC
  5
163E
330
2
100
AcDbEntity
  8
MITTE
 48
15.0
100
AcDbCircle
 10
224.2571958453836
 20
365.3089983062568
 30
0.0
 40
72.5
100
AcDbArc
 50
126.5931189888045
 51
144.1811683713774
  0
ARC
  5
163F
330
2
100
AcDbEntity
  8
LINIE
 48
10.0
100
AcDbCircle
 10
166.2571958453836
 20
392.3089983062568
 30
0.0
 40
4.0
100
AcDbArc
 50
81.14562423575746
 51
16.65070178048524
  0
ARC
  5
1640
330
2
100
AcDbEntity
  8
0
100
AcDbCircle
 10
224.2571958453836
 20
344.7526491201529
 30
0.0
 40
61.0
100
AcDbArc
 50
0.0
 51
180.0
1001
ACAD
1000
ASC_BOUNDS
1002
{
1070
    19
1005
0
1002
}
  0
ARC
  5
1641
330
2
100
AcDbEntity
  8
0
100
AcDbCircle
 10
224.2571958453836
 20
365.3089983062568
 30
0.0
 40
89.0
100
AcDbArc
 50
105.2685646988438
 51
164.7314353011529
  0
LINE
  5
1642
330
2
100
AcDbEntity
  8
0
100
AcDbLine
 10
162.451600575795
 20
403.6895714308443
 30
0.0
 11
206.4977512539703
 21
418.4183395543323
 31
0.0
  0
CIRCLE
  5
1643
330
2
100
AcDbEntity
  8
0
100
AcDbCircle
 10
172.9919542093589
 20
416.5742399422815
 30
0.0
 40
5.75
  0
LINE
  5
1644
330
2
100
AcDbEntity
  8
MITTE
 48
20.0
100
AcDbLine
 10
155.2306930915269
 20
344.7526491201529
 30
0.0
 11
291.7754746140726
 21
344.7526491201529
 31
0.0
  0
CIRCLE
  5
1645
330
2
100
AcDbEntity
  8
0
100
AcDbCircle
 10
166.2571958453836
 20
392.3089983062568
 30
0.0
 40
3.3235
  0
LINE
  5
1646
330
2
100
AcDbEntity
  8
MITTE
 48
10.0
100
AcDbLine
 10
170.8893729914489
 20
392.3089983062568
 30
0.0
 11
160.1682824188842
 21
392.3089983062568
 31
0.0
  0
ARC
  5
1647
330
2
100
AcDbEntity
  8
0
100
AcDbCircle
 10
166.2571958453836
 20
392.3089983062568
 30
0.0
 40
12.0
100
AcDbArc
 50
108.4896255071092
 51
169.6466799560699
  0
LINE
  5
1648
330
2
100
AcDbEntity
  8
MITTE
 48
10.0
100
AcDbLine
 10
166.2571958453836
 20
399.4610864209839
 30
0.0
 11
166.2571958453836
 21
386.7343421149417
 31
0.0
  0
ARC
  5
1649
330
2
100
AcDbEntity
  8
0
100
AcDbCircle
 10
166.4377659717629
 20
344.9618474837645
 30
0.0
 40
8.0
100
AcDbArc
 50
109.6254537415499
 51
181.4984437231801
  0
ARC
  5
164A
330
2
100
AcDbEntity
  8
0
100
AcDbCircle
 10
224.2571958453836
 20
365.3089983062568
 30
0.0
 40
88.0
100
AcDbArc
 50
164.5202251796857
 51
202.5209141936021
  0
ARC
  5
164B
330
2
100
AcDbEntity
  8
0
100
AcDbCircle
 10
224.2571958453836
 20
344.7526491201531
 30
0.0
 40
65.81669415865359
100
AcDbArc
 50
179.5853943548262
 51
202.0561142201631
  0
CIRCLE
  5
164C
330
2
100
AcDbEntity
  8
0
100
AcDbCircle
 10
162.2571958453836
 20
375.3089983062568
 30
0.0
 40
1.95
  0
LINE
  5
164D
330
2
100
AcDbEntity
  8
MITTE
 48
5.0
100
AcDbLine
 10
162.2571958453836
 20
379.6031253730166
 30
0.0
 11
162.2571958453836
 21
370.9842919197237
 31
0.0
  0
ARC
  5
164E
330
2
100
AcDbEntity
  8
0
100
AcDbCircle
 10
135.8688481970652
 20
453.6973459545752
 30
0.0
 40
65.0
100
AcDbArc
 50
272.2305728409492
 51
286.071147667213
  0
LINE
  5
164F
330
2
100
AcDbEntity
  8
MITTE
 48
5.0
100
AcDbLine
 10
166.967855502397
 20
375.3089983062568
 30
0.0
 11
158.3063290993222
 21
375.3089983062568
 31
0.0
  0
CIRCLE
  5
1650
330
2
100
AcDbEntity
  8
0
100
AcDbCircle
 10
224.2571958453836
 20
399.7526491201529
 30
0.0
 40
5.0
  0
ARC
  5
1651
330
2
100
AcDbEntity
  8
0
100
AcDbCircle
 10
224.2571958453836
 20
365.3089983062568
 30
0.0
 40
48.0
100
AcDbArc
 50
30.25955070532045
 51
149.7404492946795
  0
LINE
  5
1652
330
2
100
AcDbEntity
  8
0
100
AcDbLine
 10
292.7606773899169
 20
392.9725667000439
 30
0.0
 11
249.9401097198738
 21
415.0723174772638
 31
0.0
  0
ARC
  5
1653
330
2
100
AcDbEntity
  8
0
100
AcDbCircle
 10
224.2571958453836
 20
365.3089983062568
 30
0.0
 40
89.0
100
AcDbArc
 50
15.26856469884703
 51
74.73143530115611
  0
CIRCLE
  5
1654
330
2
100
AcDbEntity
  8
0
100
AcDbCircle
 10
176.6257986372393
 20
317.2526491201526
 30
0.0
 40
5.0
  0
CIRCLE
  5
1655
330
2
100
AcDbEntity
  8
0
100
AcDbCircle
 10
176.6257986372393
 20
372.2526491201529
 30
0.0
 40
5.0
  0
LINE
  5
1656
330
2
100
AcDbEntity
  8
0
100
AcDbLine
 10
309.7424772196218
 20
356.8237169320182
 30
0.0
 11
299.7319656848694
 21
346.8132053972658
 31
0.0
  0
ARC
  5
1657
330
2
100
AcDbEntity
  8
0
100
AcDbCircle
 10
282.0766257190043
 20
344.9618474837645
 30
0.0
 40
8.0
100
AcDbArc
 50
293.4264341163753
 51
70.37454625845007
  0
ARC
  5
1658
330
2
100
AcDbEntity
  8
0
100
AcDbCircle
 10
224.2571958453836
 20
365.3089983062568
 30
0.0
 40
88.0
100
AcDbArc
 50
321.1089922459269
 51
356.6614237975709
  0
CIRCLE
  5
1659
330
2
100
AcDbEntity
  8
0
100
AcDbCircle
 10
271.8885930535279
 20
317.2526491201529
 30
0.0
 40
5.0
  0
ARC
  5
165A
330
2
100
AcDbEntity
  8
0
100
AcDbCircle
 10
306.0959267155485
 20
340.4492443665867
 30
0.0
 40
9.0
100
AcDbArc
 50
135.0
 51
183.593995493095
  0
LINE
  5
165B
330
2
100
AcDbEntity
  8
MITTE
 48
20.0
100
AcDbLine
 10
317.3378760461923
 20
365.3089983062568
 30
0.0
 11
271.3128310170559
 21
365.3089983062568
 31
0.0
  0
ARC
  5
165C
330
2
100
AcDbEntity
  8
0
100
AcDbCircle
 10
301.2571958453836
 20
365.3089983062568
 30
0.0
 40
12.0
100
AcDbArc
 50
315.0
 51
39.47245984834161
  0
ARC
  5
165D
330
2
100
AcDbEntity
  8
0
100
AcDbCircle
 10
224.2571958453836
 20
365.3089983062568
 30
0.0
 40
88.0
100
AcDbArc
 50
3.338576202428982
 51
15.47977482031425
  0
LINE
  5
165E
330
2
100
AcDbEntity
  8
0
100
AcDbLine
 10
310.5203586727879
 20
372.93748534059
 30
0.0
 11
296.5203586727884
 21
389.93748534059
 31
0.0
  0
CIRCLE
  5
165F
330
2
100
AcDbEntity
  8
0
100
AcDbCircle
 10
271.8885930535279
 20
372.2526491201529
 30
0.0
 40
5.0
  0
LINE
  5
1660
330
2
100
AcDbEntity
  8
MITTE
 48
10.0
100
AcDbLine
 10
301.2571958453836
 20
375.0563441680701
 30
0.0
 11
301.2571958453836
 21
357.2730426754669
 31
0.0
  0
ARC
  5
1661
330
2
100
AcDbEntity
  8
LINIE
 48
10.0
100
AcDbCircle
 10
301.2571958453836
 20
365.3089983062568
 30
0.0
 40
4.0
100
AcDbArc
 50
81.14562423575746
 51
16.65070178048524
  0
CIRCLE
  5
1662
330
2
100
AcDbEntity
  8
0
100
AcDbCircle
 10
301.2571958453836
 20
365.3089983062568
 30
0.0
 40
3.3235
  0
ARC
  5
1663
330
2
100
AcDbEntity
  8
0
100
AcDbCircle
 10
312.645543493702
 20
453.6973459545752
 30
0.0
 40
65.0
100
AcDbArc
 50
254.7469712997397
 51
267.7694271590507
  0
ARC
  5
1664
330
2
100
AcDbEntity
  8
0
100
AcDbCircle
 10
287.2571958453836
 20
382.3089983062568
 30
0.0
 40
12.0
100
AcDbArc
 50
39.47245984834161
 51
62.70168236142517
  0
ARC
  5
1665
330
2
100
AcDbEntity
  8
0
100
AcDbCircle
 10
312.645543493702
 20
453.6973459545752
 30
0.0
 40
65.0
100
AcDbArc
 50
182.2305728409491
 51
228.7467412799719
  0
ARC
  5
1666
330
2
100
AcDbEntity
  8
0
100
AcDbCircle
 10
135.8688481970652
 20
453.6973459545752
 30
0.0
 40
65.0
100
AcDbArc
 50
319.2477660926249
 51
357.7694271590508
  0
ARC
  5
1667
330
2
100
AcDbEntity
  8
0
100
AcDbCircle
 10
224.2571958453836
 20
365.3089983062568
 30
0.0
 40
56.0
100
AcDbArc
 50
62.70168236142517
 51
108.4896255071092
  0
LINE
  5
1668
330
2
100
AcDbEntity
  8
0
100
AcDbLine
 10
219.2571958453836
 20
440.8089983062568
 30
0.0
 11
219.2571958453836
 21
421.0853373757941
 31
0.0
  0
LINE
  5
1669
330
2
100
AcDbEntity
  8
0
100
AcDbLine
 10
229.2571958453836
 20
440.8089983062568
 30
0.0
 11
229.2571958453836
 21
421.0853373757941
 31
0.0
  0
ARC
  5
166A
330
2
100
AcDbEntity
  8
0
100
AcDbCircle
 10
224.6684126765885
 20
402.5792993002057
 30
0.0
 40
8.0
100
AcDbArc
 50
19.35914998622735
 51
159.8259803411061
  0
ARC
  5
166B
330
2
100
AcDbEntity
  8
0
100
AcDbCircle
 10
226.7571958453836
 20
440.8089983062568
 30
0.0
 40
2.5
100
AcDbArc
 50
0.0
 51
90.0
  0
ARC
  5
166C
330
2
100
AcDbEntity
  8
0
100
AcDbCircle
 10
221.7571958453836
 20
440.8089983062568
 30
0.0
 40
2.5
100
AcDbArc
 50
90.0
 51
180.0
  0
LINE
  5
166D
330
2
100
AcDbEntity
  8
0
100
AcDbLine
 10
221.7571958453836
 20
443.3089983062568
 30
0.0
 11
226.7571958453836
 21
443.3089983062568
 31
0.0
  0
ARC
  5
166E
330
2
100
AcDbEntity
  8
0
100
AcDbCircle
 10
224.2571958453836
 20
365.3089983062568
 30
0.0
 40
88.0
100
AcDbArc
 50
74.52022517968618
 51
105.4797748203138
  0
ARC
  5
166F
330
2
100
AcDbEntity
  8
MITTE
 48
15.0
100
AcDbCircle
 10
224.2571958453836
 20
365.3089983062568
 30
0.0
 40
72.5
100
AcDbArc
 50
36.42334422562371
 51
53.51171634009634
  0
LINE
  5
1670
330
2
100
AcDbEntity
  8
MITTE
 48
10.0
100
AcDbLine
 10
269.0435182840683
 20
410.0953207449419
 30
0.0
 11
281.9216978011559
 21
422.9735002620295
 31
0.0
  0
CIRCLE
  5
1671
330
2
100
AcDbEntity
  8
0
100
AcDbCircle
 10
275.5224374814083
 20
416.5742399422815
 30
0.0
 40
5.75
  0
ARC
  5
1674
330
2
100
AcDbEntity
  8
0
100
AcDbCircle
 10
442.8798390014598
 20
380.3089983062568
 30
0.0
 40
10.0
100
AcDbArc
 50
180.0
 51
270.0
  0
ARC
  5
1675
330
2
100
AcDbEntity
  8
0
100
AcDbCircle
 10
442.8798390014598
 20
350.3089983062568
 30
0.0
 40
10.0
100
AcDbArc
 50
90.0
 51
180.0
  0
LINE
  5
1676
330
2
100
AcDbEntity
  8
MITTE
 48
15.0
100
AcDbLine
 10
561.6818307849958
 20
365.3089983062568
 30
0.0
 11
342.7246356096147
 21
365.3089983062568
 31
0.0
  0
ARC
  5
1677
330
2
100
AcDbEntity
  8
0
100
AcDbCircle
 10
442.8798390014598
 20
314.3089983062568
 30
0.0
 40
10.0
100
AcDbArc
 50
103.6002851900816
 51
180.0
1001
ACAD
1000
ASC_BOUNDS
1002
{
1070
    19
1002
}
  0
ARC
  5
1678
330
2
100
AcDbEntity
  8
0
100
AcDbCircle
 10
442.8798390014598
 20
416.3089983062568
 30
0.0
 40
10.0
100
AcDbArc
 50
180.0
 51
256.399714809918
1001
ACAD
1000
ASC_BOUNDS
1002
{
1070
    19
1002
}
  0
LINE
  5
1679
330
2
100
AcDbEntity
  8
0
100
AcDbLine
 10
432.8798390014601
 20
453.3089983062568
 30
0.0
 11
430.8798390014601
 21
455.3089983062569
 31
0.0
  0
LINE
  5
167C
330
2
100
AcDbEntity
  8
LINIE
  6
GESTRICHELT
 48
10.0
100
AcDbLine
 10
424.3798390014601
 20
427.6089983062568
 30
0.0
 11
424.3798390014603
 21
303.0089983062568
 31
0.0
1001
ACAD
1000
ASC_BOUNDS
1002
{
1070
    19
1002
}
  0
LINE
  5
167F
330
2
100
AcDbEntity
  8
0
100
AcDbLine
 10
350.42983900146
 20
347.8089983062568
 30
0.0
 11
348.42983900146
 21
349.8089983062568
 31
0.0
  0
LINE
  5
1680
330
2
100
AcDbEntity
  8
0
100
AcDbLine
 10
350.42983900146
 20
382.8089983062568
 30
0.0
 11
350.42983900146
 21
347.8089983062568
 31
0.0
  0
LINE
  5
1681
330
2
100
AcDbEntity
  8
0
100
AcDbLine
 10
418.4298390014601
 20
387.4625881447432
 30
0.0
 11
418.4298390014601
 21
343.1554084677705
 31
0.0
  0
LINE
  5
1682
330
2
100
AcDbEntity
  8
0
100
AcDbLine
 10
419.0298390014602
 20
387.8089983062568
 30
0.0
 11
419.0298390014602
 21
342.8089983062568
 31
0.0
  0
LINE
  5
1683
330
2
100
AcDbEntity
  8
0
100
AcDbLine
 10
350.42983900146
 20
347.8089983062568
 30
0.0
 11
415.92983900146
 21
347.8089983062568
 31
0.0
  0
ARC
  5
1685
330
2
100
AcDbEntity
  8
LINIE
  6
GESTRICHELT
 48
10.0
100
AcDbCircle
 10
424.1798390014601
 20
303.0089983062568
 30
0.0
 40
0.2
100
AcDbArc
 50
270.0
 51
0.0
1001
ACAD
1000
ASC_BOUNDS
1002
{
1070
    19
1002
}
  0
LINE
  5
1686
330
2
100
AcDbEntity
  8
LINIE
  6
GESTRICHELT
 48
10.0
100
AcDbLine
 10
419.3798390014603
 20
302.8089983062568
 30
0.0
 11
424.1798390014601
 21
302.8089983062568
 31
0.0
  0
LINE
  5
1687
330
2
100
AcDbEntity
  8
0
100
AcDbLine
 10
419.0298390014602
 20
342.8089983062568
 30
0.0
 11
419.3798390014601
 21
342.8089983062568
 31
0.0
  0
ARC
  5
1688
330
2
100
AcDbEntity
  8
0
100
AcDbCircle
 10
415.92983900146
 20
345.3089983062568
 30
0.0
 40
2.5
100
AcDbArc
 50
0.0
 51
90.0
  0
LINE
  5
1689
330
2
100
AcDbEntity
  8
0
100
AcDbLine
 10
419.0298390014604
 20
342.8089983062568
 30
0.0
 11
418.4298390014601
 21
343.1554084677705
 31
0.0
  0
LINE
  5
168A
330
2
100
AcDbEntity
  8
0
100
AcDbLine
 10
350.42983900146
 20
382.8089983062568
 30
0.0
 11
415.92983900146
 21
382.8089983062568
 31
0.0
  0
LINE
  5
168B
330
2
100
AcDbEntity
  8
0
100
AcDbLine
 10
358.4298390014601
 20
386.1089983062568
 30
0.0
 11
408.42983900146
 21
386.1089983062568
 31
0.0
  0
LINE
  5
168C
330
2
100
AcDbEntity
  8
0
100
AcDbLine
 10
348.42983900146
 20
380.8089983062568
 30
0.0
 11
348.42983900146
 21
349.8089983062568
 31
0.0
  0
LINE
  5
168D
330
2
100
AcDbEntity
  8
0
100
AcDbLine
 10
350.42983900146
 20
382.8089983062568
 30
0.0
 11
348.42983900146
 21
380.8089983062568
 31
0.0
  0
LINE
  5
168E
330
2
100
AcDbEntity
  8
0
100
AcDbLine
 10
358.4298390014601
 20
382.8089983062568
 30
0.0
 11
358.4298390014601
 21
386.1089983062568
 31
0.0
  0
ARC
  5
168F
330
2
100
AcDbEntity
  8
0
100
AcDbCircle
 10
415.92983900146
 20
385.3089983062568
 30
0.0
 40
2.5
100
AcDbArc
 50
270.0
 51
0.0
  0
LINE
  5
1690
330
2
100
AcDbEntity
  8
0
100
AcDbLine
 10
408.42983900146
 20
382.8089983062568
 30
0.0
 11
408.42983900146
 21
386.1089983062568
 31
0.0
  0
LINE
  5
1691
330
2
100
AcDbEntity
  8
0
100
AcDbLine
 10
419.0298390014602
 20
387.8089983062568
 30
0.0
 11
419.3798390014599
 21
387.8089983062568
 31
0.0
  0
LINE
  5
1692
330
2
100
AcDbEntity
  8
0
100
AcDbLine
 10
419.0298390014602
 20
387.8089983062568
 30
0.0
 11
418.4298390014601
 21
387.4625881447432
 31
0.0
  0
ARC
  5
1693
330
2
100
AcDbEntity
  8
LINIE
  6
GESTRICHELT
 48
10.0
100
AcDbCircle
 10
424.1798390014601
 20
427.6089983062568
 30
0.0
 40
0.2
100
AcDbArc
 50
0.0
 51
90.0
  0
LINE
  5
1694
330
2
100
AcDbEntity
  8
LINIE
  6
GESTRICHELT
 48
10.0
100
AcDbLine
 10
419.3798390014601
 20
427.8089983062568
 30
0.0
 11
424.1798390014601
 21
427.8089983062568
 31
0.0
  0
LINE
  5
1695
330
2
100
AcDbEntity
  8
0
100
AcDbLine
 10
419.3798390014599
 20
455.3089983062569
 30
0.0
 11
430.8798390014601
 21
455.3089983062569
 31
0.0
  0
ARC
  5
1696
330
2
100
AcDbEntity
  8
0
100
AcDbCircle
 10
482.8798390014599
 20
408.8089983062568
 30
0.0
 40
10.0
100
AcDbArc
 50
270.0
 51
0.0
1001
ACAD
1000
ASC_BOUNDS
1002
{
1070
    19
1002
}
  0
ARC
  5
1697
330
2
100
AcDbEntity
  8
0
100
AcDbCircle
 10
464.8798390014599
 20
401.3089983062569
 30
0.0
 40
2.5
100
AcDbArc
 50
270.0
 51
0.0
  0
ARC
  5
1698
330
2
100
AcDbEntity
  8
0
100
AcDbCircle
 10
454.5219746251909
 20
408.8089983062568
 30
0.0
 40
10.0
100
AcDbArc
 50
225.0
 51
270.0
1001
ACAD
1000
ASC_BOUNDS
1002
{
1070
    19
1002
}
  0
LINE
  5
169A
330
2
100
AcDbEntity
  8
0
100
AcDbLine
 10
492.8798390014598
 20
414.3089983062568
 30
0.0
 11
492.8798390014598
 21
321.7757550463729
 31
0.0
  0
ARC
  5
169B
330
2
100
AcDbEntity
  8
0
100
AcDbCircle
 10
467.8798390014598
 20
321.8089983062568
 30
0.0
 40
10.0
100
AcDbArc
 50
0.0
 51
90.0
1001
ACAD
1000
ASC_BOUNDS
1002
{
1070
    19
1002
}
  0
ARC
  5
169C
330
2
100
AcDbEntity
  8
0
100
AcDbCircle
 10
438.1768999806342
 20
333.7481949091618
 30
0.0
 40
10.0
100
AcDbArc
 50
283.6002851900819
 51
315.0
1001
ACAD
1000
ASC_BOUNDS
1002
{
1070
    19
1002
}
  0
LINE
  5
169D
330
2
100
AcDbEntity
  8
0
100
AcDbLine
 10
467.8798390014598
 20
331.8089983062568
 30
0.0
 11
454.5219746251909
 21
331.8089983062568
 31
0.0
1001
ACAD
1000
ASC_BOUNDS
1002
{
1070
    19
1002
}
  0
ARC
  5
169E
330
2
100
AcDbEntity
  8
0
100
AcDbCircle
 10
454.5219746251909
 20
321.8089983062568
 30
0.0
 40
10.0
100
AcDbArc
 50
90.0
 51
135.0
1001
ACAD
1000
ASC_BOUNDS
1002
{
1070
    19
1002
}
  0
LINE
  5
169F
330
2
100
AcDbEntity
  8
0
100
AcDbLine
 10
445.2479677924998
 20
326.6771270972963
 30
0.0
 11
447.4509068133256
 21
328.8800661181223
 31
0.0
1001
ACAD
1000
ASC_BOUNDS
1002
{
1070
    19
1002
}
  0
LINE
  5
16A0
330
2
100
AcDbEntity
  8
0
100
AcDbLine
 10
482.8798390014599
 20
370.3089983062568
 30
0.0
 11
442.8798390014598
 21
370.3089983062568
 31
0.0
  0
LINE
  5
16A1
330
2
100
AcDbEntity
  8
0
100
AcDbLine
 10
482.8798390014599
 20
360.3089983062568
 30
0.0
 11
442.8798390014598
 21
360.3089983062568
 31
0.0
  0
ARC
  5
16A2
330
2
100
AcDbEntity
  8
0
100
AcDbCircle
 10
482.8798390014599
 20
380.3089983062568
 30
0.0
 40
10.0
100
AcDbArc
 50
270.0
 51
0.0
  0
ARC
  5
16A3
330
2
100
AcDbEntity
  8
0
100
AcDbCircle
 10
482.8798390014599
 20
350.3089983062568
 30
0.0
 40
10.0
100
AcDbArc
 50
0.0
 51
90.0
  0
ARC
  5
16A4
330
2
100
AcDbEntity
  8
0
100
AcDbCircle
 10
599.1195849636156
 20
339.7526491201529
 30
0.0
 40
10.0
100
AcDbArc
 50
48.59037789072917
 51
90.0
  0
LINE
  5
16A5
330
2
100
AcDbEntity
  8
0
100
AcDbLine
 10
582.7798390014599
 20
349.7526491201529
 30
0.0
 11
599.1195849636156
 21
349.7526491201529
 31
0.0
  0
LINE
  5
16A6
330
2
100
AcDbEntity
  8
0
100
AcDbLine
 10
498.8798390014599
 20
420.3089983062568
 30
0.0
 11
547.8798390014599
 21
420.3089983062568
 31
0.0
1001
ACAD
1000
ASC_BOUNDS
1002
{
1070
    19
1002
}
  0
LINE
  5
16A7
330
2
100
AcDbEntity
  8
0
100
AcDbLine
 10
482.8798390014599
 20
398.8089983062568
 30
0.0
 11
454.5219746251909
 21
398.8089983062568
 31
0.0
1001
ACAD
1000
ASC_BOUNDS
1002
{
1070
    19
1002
}
  0
LINE
  5
16A8
330
2
100
AcDbEntity
  8
0
100
AcDbLine
 10
483.3798390014599
 20
402.3089983062568
 30
0.0
 11
467.3798390014598
 21
402.3089983062568
 31
0.0
  0
LINE
  5
16A9
330
2
100
AcDbEntity
  8
0
100
AcDbLine
 10
432.8798390014601
 20
443.3089983062568
 30
0.0
 11
493.818567365618
 21
419.400763813774
 31
0.0
  0
ARC
  5
16AA
330
2
100
AcDbEntity
  8
0
100
AcDbCircle
 10
438.1768999806342
 20
396.8698017033518
 30
0.0
 40
10.0
100
AcDbArc
 50
45.0
 51
76.39971480991796
1001
ACAD
1000
ASC_BOUNDS
1002
{
1070
    19
1002
}
  0
LINE
  5
16AB
330
2
100
AcDbEntity
  8
0
100
AcDbLine
 10
445.2479677924998
 20
403.9408695152172
 30
0.0
 11
447.4509068133256
 21
401.7379304943913
 31
0.0
1001
ACAD
1000
ASC_BOUNDS
1002
{
1070
    19
1002
}
  0
LINE
  5
16AC
330
2
100
AcDbEntity
  8
0
100
AcDbLine
 10
467.3798390014601
 20
402.3089983062568
 30
0.0
 11
467.3798390014601
 21
401.3089983062569
 31
0.0
1001
ACAD
1000
ASC_BOUNDS
1002
{
1070
    19
1005
0
1002
}
  0
LINE
  5
16AD
330
2
100
AcDbEntity
  8
0
100
AcDbLine
 10
479.3798390014599
 20
404.3089983062568
 30
0.0
 11
469.3798390014599
 21
404.3089983062568
 31
0.0
  0
LINE
  5
16AE
330
2
100
AcDbEntity
  8
0
100
AcDbLine
 10
478.3798390014599
 20
405.3089983062568
 30
0.0
 11
470.3798390014599
 21
405.3089983062568
 31
0.0
  0
LINE
  5
16AF
330
2
100
AcDbEntity
  8
0
100
AcDbLine
 10
470.3798390014599
 20
405.3089983062568
 30
0.0
 11
469.3798390014599
 21
404.3089983062568
 31
0.0
  0
LINE
  5
16B0
330
2
100
AcDbEntity
  8
0
100
AcDbLine
 10
469.3798390014599
 20
404.3089983062568
 30
0.0
 11
469.3798390014599
 21
402.3089983062568
 31
0.0
1001
ACAD
1000
ASC_BOUNDS
1002
{
1070
    19
1002
}
  0
LINE
  5
16B1
330
2
100
AcDbEntity
  8
0
100
AcDbLine
 10
479.3798390014599
 20
404.3089983062568
 30
0.0
 11
478.3798390014599
 21
405.3089983062568
 31
0.0
  0
LINE
  5
16B2
330
2
100
AcDbEntity
  8
0
100
AcDbLine
 10
479.3798390014599
 20
404.3089983062568
 30
0.0
 11
479.3798390014599
 21
402.3089983062568
 31
0.0
1001
ACAD
1000
ASC_BOUNDS
1002
{
1070
    19
1002
}
  0
ARC
  5
16B3
330
2
100
AcDbEntity
  8
0
100
AcDbCircle
 10
485.8798390014599
 20
401.3089983062569
 30
0.0
 40
2.5
100
AcDbArc
 50
180.0
 51
246.6828661559628
  0
LINE
  5
16B4
330
2
100
AcDbEntity
  8
0
100
AcDbLine
 10
483.3798390014599
 20
402.3089983062568
 30
0.0
 11
483.3798390014599
 21
401.3089983062569
 31
0.0
1001
ACAD
1000
ASC_BOUNDS
1002
{
1070
    19
1005
0
1002
}
  0
ARC
  5
16B5
330
2
100
AcDbEntity
  8
0
100
AcDbCircle
 10
498.8798390014599
 20
414.3089983062568
 30
0.0
 40
6.0
100
AcDbArc
 50
90.0
 51
119.2107476043122
1001
ACAD
1000
ASC_BOUNDS
1002
{
1070
    19
1002
}
  0
ARC
  5
16B6
330
2
100
AcDbEntity
  8
0
100
AcDbCircle
 10
494.7316401505695
 20
421.7280579699522
 30
0.0
 40
2.5
100
AcDbArc
 50
248.5783165533336
 51
299.2107476043122
  0
ARC
  5
16B7
330
2
100
AcDbEntity
  8
0
100
AcDbCircle
 10
498.8798390014599
 20
414.3089983062568
 30
0.0
 40
6.0
100
AcDbArc
 50
119.2107476043122
 51
180.0
1001
ACAD
1000
ASC_BOUNDS
1002
{
1070
    19
1002
}
  0
LINE
  5
16B8
330
2
100
AcDbEntity
  8
0
100
AcDbLine
 10
549.8798390014599
 20
421.3089983062568
 30
0.0
 11
582.7798390014602
 21
421.3089983062568
 31
0.0
1001
ACAD
1000
ASC_BOUNDS
1002
{
1070
    19
1002
}
  0
ARC
  5
16B9
330
2
100
AcDbEntity
  8
0
100
AcDbCircle
 10
547.8798390014599
 20
422.8089983062568
 30
0.0
 40
2.5
100
AcDbArc
 50
270.0
 51
323.1301023541533
1001
ACAD
1000
ASC_BOUNDS
1002
{
1070
    19
1002
}
  0
LINE
  5
16BA
330
2
100
AcDbEntity
  8
LINIE
 48
10.0
100
AcDbLine
 10
584.1528597929973
 20
405.7526491201529
 30
0.0
 11
607.1078952196139
 21
405.7526491201529
 31
0.0
  0
LINE
  5
16BB
330
2
100
AcDbEntity
  8
LINIE
 48
10.0
100
AcDbLine
 10
602.3250194498646
 20
405.7526491201529
 30
0.0
 11
584.1930863298284
 21
405.7526491201529
 31
0.0
  0
ARC
  5
16BC
330
2
100
AcDbEntity
  8
0
100
AcDbCircle
 10
596.1195849636156
 20
400.7526491201529
 30
0.0
 40
10.0
100
AcDbArc
 50
48.59037789072917
 51
90.0
1001
ACAD
1000
ASC_BOUNDS
1002
{
1070
    19
1002
}
  0
LINE
  5
16BD
330
2
100
AcDbEntity
  8
0
100
AcDbLine
 10
582.7798390014599
 20
410.7526491201533
 30
0.0
 11
596.1195849636156
 21
410.7526491201529
 31
0.0
1001
ACAD
1000
ASC_BOUNDS
1002
{
1070
    19
1002
}
  0
ARC
  5
16BE
330
2
100
AcDbEntity
  8
0
100
AcDbCircle
 10
609.3483415189385
 20
415.7526491201529
 30
0.0
 40
10.0
100
AcDbArc
 50
228.5903778907292
 51
270.0
1001
ACAD
1000
ASC_BOUNDS
1002
{
1070
    19
1002
}
  0
LINE
  5
16BF
330
2
100
AcDbEntity
  8
0
100
AcDbLine
 10
1092.426432121048
 20
328.0701856679477
 30
0.0
 11
1099.296498588487
 21
290.4656113198582
 31
0.0
  0
ARC
  5
16C0
330
2
100
AcDbEntity
  8
0
100
AcDbCircle
 10
1010.49187998772
 20
365.3089983062568
 30
0.0
 40
90.0
100
AcDbArc
 50
218.321286336649
 51
346.7968803211824
  0
ARC
  5
16C1
330
2
100
AcDbEntity
  8
0
100
AcDbCircle
 10
1010.49187998772
 20
365.3089983062568
 30
0.0
 40
90.0
100
AcDbArc
 50
346.7968803211824
 51
218.321286336649
  0
LINE
  5
16C4
330
2
100
AcDbEntity
  8
0
100
AcDbLine
 10
831.27983900146
 20
405.7526491201529
 30
0.0
 11
831.27983900146
 21
283.7526491201529
 31
0.0
1001
ACAD
1000
ASC_BOUNDS
1002
{
1070
    19
1002
}
  0
LINE
  5
16C5
330
2
100
AcDbEntity
  8
0
100
AcDbLine
 10
867.2798390014602
 20
392.2526491201529
 30
0.0
 11
867.2798390014602
 21
297.2526491201529
 31
0.0
  0
LINE
  5
16C6
330
2
100
AcDbEntity
  8
0
100
AcDbLine
 10
858.27983900146
 20
283.7526491201529
 30
0.0
 11
858.27983900146
 21
404.7526491201528
 31
0.0
  0
LINE
  5
16C7
330
2
100
AcDbEntity
  8
0
100
AcDbLine
 10
869.2798390014601
 20
390.2526491201529
 30
0.0
 11
869.2798390014599
 21
299.2526491201529
 31
0.0
1001
ACAD
1000
ASC_BOUNDS
1002
{
1070
    19
1002
}
  0
LINE
  5
16C8
330
2
100
AcDbEntity
  8
0
100
AcDbLine
 10
682.7798390014599
 20
341.8199712415096
 30
0.0
 11
682.7798390014599
 21
278.2526491201529
 31
0.0
1001
ACAD
1000
ASC_BOUNDS
1002
{
1070
    19
1002
}
  0
LINE
  5
16CA
330
2
100
AcDbEntity
  8
0
100
AcDbLine
 10
754.77983900146
 20
405.7526491201529
 30
0.0
 11
754.77983900146
 21
283.7526491201529
 31
0.0
  0
LINE
  5
16CB
330
2
100
AcDbEntity
  8
0
100
AcDbLine
 10
812.2798390014599
 20
405.7526491201529
 30
0.0
 11
812.2798390014599
 21
283.7526491201529
 31
0.0
1001
ACAD
1000
ASC_BOUNDS
1002
{
1070
    19
1002
}
  0
LINE
  5
16CC
330
2
100
AcDbEntity
  8
0
100
AcDbLine
 10
752.7798390014599
 20
275.7526491201529
 30
0.0
 11
752.7798390014599
 21
404.7526491201528
 31
0.0
  0
LINE
  5
16CE
330
2
100
AcDbEntity
  8
MITTE
 48
20.0
100
AcDbLine
 10
1010.49187998772
 20
466.9483606855061
 30
0.0
 11
1010.49187998772
 21
229.742226020355
 31
0.0
  0
ARC
  5
16D1
330
2
100
AcDbEntity
  8
0
100
AcDbCircle
 10
1010.49187998772
 20
335.3089983062568
 30
0.0
 40
73.0
100
AcDbArc
 50
205.2880282852055
 51
270.0
  0
LINE
  5
16D2
330
2
100
AcDbEntity
  8
0
100
AcDbLine
 10
754.77983900146
 20
283.7526491201529
 30
0.0
 11
858.27983900146
 21
283.7526491201529
 31
0.0
1001
ACAD
1000
ASC_BOUNDS
1002
{
1070
    19
1002
}
  0
SPLINE
  5
16DB
330
2
100
AcDbEntity
  8
LINIE
 48
10.0
100
AcDbSpline
210
0.0
220
0.0
230
1.0
 70
     8
 71
     3
 72
    12
 73
     8
 74
     6
 42
0.0000000001
 43
0.0000000001
 44
0.0000000001
 40
0.0
 40
0.0
 40
0.0
 40
0.0
 40
4.851711911382247
 40
18.01859907913512
 40
32.66528729343511
 40
43.80667159575186
 40
46.09696782555262
 40
46.09696782555262
 40
46.09696782555262
 40
46.09696782555262
 10
695.2798390014599
 20
271.7600157333945
 30
0.0
 10
696.7640428318116
 20
272.4019413748738
 30
0.0
 10
702.2761742731031
 20
274.7859660209572
 30
0.0
 10
713.3967168164818
 20
276.4442078259037
 30
0.0
 10
726.1264208494371
 20
272.8108251354364
 30
0.0
 10
735.621990988747
 20
274.8716465942357
 30
0.0
 10
740.0030714098233
 20
273.8810752167244
 30
0.0
 10
740.7501091276166
 20
273.7121684380202
 30
0.0
 11
695.2798390014599
 21
271.7600157333945
 31
0.0
 11
699.7775541436539
 21
273.5792647462369
 31
0.0
 11
712.8077951087237
 21
275.4712843234481
 31
0.0
 11
727.3667260623177
 21
273.8703454940741
 31
0.0
 11
738.5043073549054
 21
274.1614247322738
 31
0.0
 11
740.7501091276166
 21
273.7121684380202
 31
0.0
  0
HATCH
  5
16DC
330
2
100
AcDbEntity
  8
LINIE
 48
10.0
100
AcDbHatch
 10
0.0
 20
0.0
 30
0.0
210
0.0
220
0.0
230
1.0
  2
ANSI31
 70
     0
 71
     0
 91
        4
 92
        5
 93
        6
 72
     1
 10
736.40433900146
 20
263.7526491201529
 11
740.2293287442431
 21
263.7526491201529
 72
     2
 10
737.77983900146
 20
264.252649120153
 40
2.499999999999964
 50
348.4630409671818
 51
360.0
 73
     1
 72
     1
 10
740.2798390014599
 20
264.252649120153
 11
740.2798390014599
 21
272.2526491201529
 72
     2
 10
742.77983900146
 20
272.2526491201528
 40
2.499999999999997
 50
180.0000000000025
 51
215.7188059857725
 73
     0
 72
     4
 94
        3
 73
     0
 74
     0
 95
        9
 96
        5
 40
41.68509778057297
 40
41.68509778057297
 40
41.68509778057297
 40
41.68509778057297
 40
43.97539401037373
 40
46.0969678255525
 40
46.0969678255525
 40
46.0969678255525
 40
46.0969678255525
 10
740.7501091276166
 20
273.7121684380202
 10
740.0030714098229
 20
273.8810752167244
 10
738.5640290332439
 20
274.2064456852526
 10
737.107588346038
 20
274.318581258902
 10
736.4043390014594
 20
274.3381245747777
 72
     1
 10
736.40433900146
 20
274.3381245747777
 11
736.40433900146
 21
263.7526491201529
 97
        0
 92
        5
 93
        4
 72
     4
 94
        3
 73
     0
 74
     0
 95
        8
 96
        4
 40
40.20165906937294
 40
40.20165906937294
 40
40.20165906937294
 40
40.20165906937294
 40
41.68509778057297
 40
41.68509778057297
 40
41.68509778057297
 40
41.68509778057297
 10
736.4043390014594
 20
274.3381245747777
 10
735.9126156902505
 20
274.3517895771962
 10
735.4194852124156
 20
274.3486459491072
 10
734.9253390014598
 20
274.333797173947
 72
     1
 10
734.9253390014601
 20
274.333797173947
 11
734.9253390014598
 21
265.231649120153
 72
     1
 10
734.9253390014598
 20
265.231649120153
 11
736.4043390014598
 21
263.7526491201529
 72
     1
 10
736.4043390014598
 20
263.7526491201529
 11
736.40433900146
 21
274.3381245747777
 97
        0
 92
        5
 93
        4
 72
     1
 10
703.15533900146
 20
263.7526491201529
 11
704.6343390014599
 21
265.2316491201527
 72
     1
 10
704.6343390014599
 20
265.2316491201527
 11
704.6343390014601
 21
274.8904378045113
 72
     4
 94
        3
 73
     0
 74
     0
 95
        8
 96
        4
 40
8.357331474458126
 40
8.357331474458126
 40
8.357331474458126
 40
8.357331474458126
 40
9.859576091809634
 40
9.859576091809634
 40
9.859576091809634
 40
9.859576091809634
 10
704.6343390014629
 20
274.8904378045119
 10
704.1388743919565
 20
274.7946222592551
 10
703.6456677913729
 20
274.6880331520086
 10
703.1553390014642
 20
274.5708386287733
 72
     1
 10
703.15533900146
 20
274.5708386287723
 11
703.15533900146
 21
263.7526491201529
 97
        0
 92
        5
 93
        5
 72
     4
 94
        3
 73
     0
 74
     0
 95
        9
 96
        5
 40
0.0
 40
0.0
 40
0.0
 40
0.0
 40
3.505619563075878
 40
8.357331474458126
 40
8.357331474458126
 40
8.357331474458126
 40
8.357331474458126
 10
703.1553390014642
 20
274.5708386287733
 10
702.0111137678439
 20
274.2973549307165
 10
699.3206627656552
 20
273.5076923893169
 10
696.7640428318114
 20
272.4019413748738
 10
695.2798390014599
 20
271.7600157333945
 72
     1
 10
695.2798390014599
 20
271.7600157333945
 11
695.2798390014601
 21
264.2526491201529
 72
     2
 10
697.7798390014601
 20
264.252649120153
 40
2.500000000000019
 50
180.0000000000013
 51
191.5369590328181
 73
     1
 72
     1
 10
695.3303492586769
 20
263.7526491201529
 11
703.1553390014599
 21
263.7526491201529
 72
     1
 10
703.1553390014599
 20
263.7526491201529
 11
703.15533900146
 21
274.5708386287721
 97
        0
 75
     0
 76
     1
 52
0.0
 41
25.0
 77
     0
 78
     1
 53
45.0
 43
160.9550844192114
 44
19.04293939839951
 45
-2.20970869120796
 46
2.209708691207961
 79
     0
 47
0.3395931865206437
 98
        4
 10
737.4245194338454
 20
267.5393577216725
 10
736.065685765553
 20
268.2185436172303
 10
703.793392478691
 20
268.8977310224256
 10
700.0565998908863
 20
268.2185436172303
  0
ARC
  5
16DD
330
2
100
AcDbEntity
  8
0
100
AcDbCircle
 10
742.77983900146
 20
272.2526491201529
 30
0.0
 40
2.5
100
AcDbArc
 50
90.0
 51
180.0
1001
ACAD
1000
ASC_BOUNDS
1002
{
1070
    19
1002
}
  0
LINE
  5
16DE
330
2
100
AcDbEntity
  8
LINIE
 48
10.0
100
AcDbLine
 10
736.4043390014601
 20
274.3381245747869
 30
0.0
 11
736.4043390014598
 21
263.7526491201529
 31
0.0
1001
ACAD
1000
ASC_BOUNDS
1002
{
1070
    19
1002
}
  0
LINE
  5
16DF
330
2
100
AcDbEntity
  8
0
100
AcDbLine
 10
695.3303492586769
 20
263.7526491201529
 30
0.0
 11
740.229328744243
 21
263.7526491201529
 31
0.0
1001
ACAD
1000
ASC_BOUNDS
1002
{
1070
    19
1005
0
1002
}
  0
ARC
  5
16E0
330
2
100
AcDbEntity
  8
0
100
AcDbCircle
 10
737.77983900146
 20
264.2526491201528
 30
0.0
 40
2.5
100
AcDbArc
 50
348.463040967185
 51
0.0
1001
ACAD
1000
ASC_BOUNDS
1002
{
1070
    19
1002
}
  0
LINE
  5
16E1
330
2
100
AcDbEntity
  8
0
100
AcDbLine
 10
740.2798390014599
 20
272.2526491201529
 30
0.0
 11
740.2798390014599
 21
264.2526491201528
 31
0.0
1001
ACAD
1000
ASC_BOUNDS
1002
{
1070
    19
1002
}
  0
LINE
  5
16E2
330
2
100
AcDbEntity
  8
0
100
AcDbLine
 10
734.9253390014601
 20
274.3337971739495
 30
0.0
 11
734.9253390014601
 21
265.2316491201529
 31
0.0
1001
ACAD
1000
ASC_BOUNDS
1002
{
1070
    19
1002
}
  0
LINE
  5
16E3
330
2
100
AcDbEntity
  8
0
100
AcDbLine
 10
734.9253390014601
 20
265.2316491201529
 30
0.0
 11
736.4043390014598
 21
263.7526491201529
 31
0.0
1001
ACAD
1000
ASC_BOUNDS
1002
{
1070
    19
1002
}
  0
LINE
  5
16E4
330
2
100
AcDbEntity
  8
LINIE
 48
10.0
100
AcDbLine
 10
703.15533900146
 20
274.5708386287881
 30
0.0
 11
703.15533900146
 21
263.7526491201529
 31
0.0
1001
ACAD
1000
ASC_BOUNDS
1002
{
1070
    19
1002
}
  0
LINE
  5
16E5
330
2
100
AcDbEntity
  8
0
100
AcDbLine
 10
704.6343390014599
 20
265.2316491201529
 30
0.0
 11
703.15533900146
 21
263.7526491201529
 31
0.0
1001
ACAD
1000
ASC_BOUNDS
1002
{
1070
    19
1002
}
  0
LINE
  5
16E6
330
2
100
AcDbEntity
  8
0
100
AcDbLine
 10
704.6343390014599
 20
274.8904378045267
 30
0.0
 11
704.6343390014599
 21
265.2316491201527
 31
0.0
1001
ACAD
1000
ASC_BOUNDS
1002
{
1070
    19
1002
}
  0
LINE
  5
16E7
330
2
100
AcDbEntity
  8
0
100
AcDbLine
 10
695.2798390014599
 20
272.2526491201529
 30
0.0
 11
695.2798390014599
 21
264.2526491201528
 31
0.0
1001
ACAD
1000
ASC_BOUNDS
1002
{
1070
    19
1002
}
  0
ARC
  5
16E8
330
2
100
AcDbEntity
  8
0
100
AcDbCircle
 10
697.77983900146
 20
264.2526491201528
 30
0.0
 40
2.5
100
AcDbArc
 50
180.0
 51
191.5369590328149
1001
ACAD
1000
ASC_BOUNDS
1002
{
1070
    19
1002
}
  0
LINE
  5
16E9
330
2
100
AcDbEntity
  8
0
100
AcDbLine
 10
749.77983900146
 20
274.7526491201529
 30
0.0
 11
718.8929866270509
 21
274.7526491201529
 31
0.0
1001
ACAD
1000
ASC_BOUNDS
1002
{
1070
    19
1002
}
  0
LINE
  5
16EA
330
2
100
AcDbEntity
  8
0
100
AcDbLine
 10
704.6343390014599
 20
265.2316491201529
 30
0.0
 11
734.9253390014601
 21
265.2316491201529
 31
0.0
1001
ACAD
1000
ASC_BOUNDS
1002
{
1070
    19
1002
}
  0
LINE
  5
16EB
330
2
100
AcDbEntity
  8
0
100
AcDbLine
 10
633.6631274716268
 20
246.2615675846659
 30
0.0
 11
633.6631274716268
 21
264.3984311940191
 31
0.0
  0
LINE
  5
16EC
330
2
100
AcDbEntity
  8
0
100
AcDbLine
 10
637.5062205059643
 20
245.9862177102368
 30
0.0
 11
637.5062205059643
 21
264.6737810684482
 31
0.0
  0
LINE
  5
16ED
330
2
100
AcDbEntity
  8
MITTE
 48
8.0
100
AcDbLine
 10
646.77983900146
 20
281.2786187164524
 30
0.0
 11
646.77983900146
 21
241.5435149845854
 31
0.0
  0
LINE
  5
16EE
330
2
100
AcDbEntity
  8
0
100
AcDbLine
 10
659.896550531293
 20
246.2615675846659
 30
0.0
 11
659.8965505312933
 21
264.3984311940191
 31
0.0
  0
LINE
  5
16EF
330
2
100
AcDbEntity
  8
0
100
AcDbLine
 10
656.0534574969558
 20
245.9862177102368
 30
0.0
 11
656.0534574969556
 21
264.6737810684487
 31
0.0
  0
LINE
  5
16F0
330
2
100
AcDbEntity
  8
0
100
AcDbLine
 10
669.2798390014599
 20
246.2615675846659
 30
0.0
 11
669.2798390014599
 21
264.3984311940191
 31
0.0
  0
LINE
  5
16F1
330
2
100
AcDbEntity
  8
0
100
AcDbLine
 10
667.7709205369469
 20
244.7526491201529
 30
0.0
 11
625.788757465973
 21
244.7526491201529
 31
0.0
  0
ARC
  5
16F2
330
2
100
AcDbEntity
  8
0
100
AcDbCircle
 10
646.77983900146
 20
280.227649120153
 30
0.0
 40
35.475
100
AcDbArc
 50
254.8460917587437
 51
285.1539082412562
  0
LINE
  5
16F3
330
2
100
AcDbEntity
  8
0
100
AcDbLine
 10
633.6631274716268
 20
246.2615675846659
 30
0.0
 11
637.5062205059643
 21
246.2615675846659
 31
0.0
  0
ARC
  5
16F4
330
2
100
AcDbEntity
  8
0
100
AcDbCircle
 10
664.5881947663765
 20
252.8009171784869
 30
0.0
 40
8.048268058334087
100
AcDbArc
 50
234.3425218101807
 51
305.657478189814
  0
LINE
  5
16F5
330
2
100
AcDbEntity
  8
0
100
AcDbLine
 10
659.896550531293
 20
246.2615675846659
 30
0.0
 11
656.0534574969558
 21
246.2615675846659
 31
0.0
  0
LINE
  5
16F6
330
2
100
AcDbEntity
  8
0
100
AcDbLine
 10
669.2798390014599
 20
246.2615675846659
 30
0.0
 11
667.7709205369469
 21
244.7526491201529
 31
0.0
1001
ACAD
1000
ASC_BOUNDS
1002
{
1070
    19
1002
}
  0
ARC
  5
16F7
330
2
100
AcDbEntity
  8
0
100
AcDbCircle
 10
646.77983900146
 20
230.432349658532
 30
0.0
 40
35.475
100
AcDbArc
 50
74.84609175874372
 51
105.1539082412562
  0
LINE
  5
16F8
330
2
100
AcDbEntity
  8
0
100
AcDbLine
 10
633.6631274716268
 20
264.3984311940191
 30
0.0
 11
637.5062205059643
 21
264.3984311940191
 31
0.0
  0
ARC
  5
16F9
330
2
100
AcDbEntity
  8
0
100
AcDbCircle
 10
664.5881947663765
 20
257.8590816001981
 30
0.0
 40
8.048268058334087
100
AcDbArc
 50
54.34252181018602
 51
125.6574781898192
  0
LINE
  5
16FA
330
2
100
AcDbEntity
  8
0
100
AcDbLine
 10
659.896550531293
 20
264.3984311940191
 30
0.0
 11
656.0534574969558
 21
264.3984311940191
 31
0.0
  0
LINE
  5
16FB
330
2
100
AcDbEntity
  8
0
100
AcDbLine
 10
669.2798390014599
 20
264.3984311940191
 30
0.0
 11
667.7709205369471
 21
265.9073496585321
 31
0.0
1001
ACAD
1000
ASC_BOUNDS
1002
{
1070
    19
1002
}
  0
LINE
  5
16FC
330
2
100
AcDbEntity
  8
0
100
AcDbLine
 10
669.2798390014599
 20
265.9073496585321
 30
0.0
 11
669.2798390014599
 21
275.7526491201529
 31
0.0
1001
ACAD
1000
ASC_BOUNDS
1002
{
1070
    19
1002
}
  0
LINE
  5
16FD
330
2
100
AcDbEntity
  8
MITTE
 48
10.0
100
AcDbLine
 10
719.7798390014599
 20
280.4539934472141
 30
0.0
 11
719.7798390014599
 21
259.6535183967046
 31
0.0
  0
ARC
  5
16FE
330
2
100
AcDbEntity
  8
0
100
AcDbCircle
 10
680.27983900146
 20
278.2526491201529
 30
0.0
 40
2.5
100
AcDbArc
 50
270.0
 51
0.0
1001
ACAD
1000
ASC_BOUNDS
1002
{
1070
    19
1002
}
  0
LINE
  5
16FF
330
2
100
AcDbEntity
  8
0
100
AcDbLine
 10
703.9579718507252
 20
274.7526491201529
 30
0.0
 11
689.77983900146
 21
274.7526491201529
 31
0.0
1001
ACAD
1000
ASC_BOUNDS
1002
{
1070
    19
1002
}
  0
ARC
  5
1700
330
2
100
AcDbEntity
  8
0
100
AcDbCircle
 10
692.77983900146
 20
272.2526491201529
 30
0.0
 40
2.5
100
AcDbArc
 50
0.0
 51
90.0
1001
ACAD
1000
ASC_BOUNDS
1002
{
1070
    19
1002
}
  0
LINE
  5
1701
330
2
100
AcDbEntity
  8
0
100
AcDbLine
 10
689.77983900146
 20
275.7526491201529
 30
0.0
 11
689.77983900146
 21
274.7526491201529
 31
0.0
1001
ACAD
1000
ASC_BOUNDS
1002
{
1070
    19
1002
}
  0
ARC
  5
1702
330
2
100
AcDbEntity
  8
0
100
AcDbCircle
 10
749.77983900146
 20
279.7526491201529
 30
0.0
 40
5.0
100
AcDbArc
 50
270.0
 51
306.8698976458456
1001
ACAD
1000
ASC_BOUNDS
1002
{
1070
    19
1002
}
  0
LINE
  5
1703
330
2
100
AcDbEntity
  8
0
100
AcDbLine
 10
754.77983900146
 20
283.7526491201529
 30
0.0
 11
752.7798390014599
 21
285.7526491201529
 31
0.0
1001
ACAD
1000
ASC_BOUNDS
1002
{
1070
    19
1002
}
  0
LINE
  5
1705
330
2
100
AcDbEntity
  8
0
100
AcDbLine
 10
860.27983900146
 20
297.2526491201529
 30
0.0
 11
867.2798390014602
 21
297.2526491201529
 31
0.0
1001
ACAD
1000
ASC_BOUNDS
1002
{
1070
    19
1002
}
  0
LINE
  5
1706
330
2
100
AcDbEntity
  8
0
100
AcDbLine
 10
864.2798390014601
 20
294.2526491201529
 30
0.0
 11
864.2798390014601
 21
285.2526491201529
 31
0.0
  0
LINE
  5
1707
330
2
100
AcDbEntity
  8
0
100
AcDbLine
 10
858.27983900146
 20
283.7526491201529
 30
0.0
 11
858.27983900146
 21
295.2526491201528
 31
0.0
1001
ACAD
1000
ASC_BOUNDS
1002
{
1070
    19
1002
}
  0
LINE
  5
1708
330
2
100
AcDbEntity
  8
0
100
AcDbLine
 10
858.27983900146
 20
284.7526491201529
 30
0.0
 11
863.77983900146
 21
284.7526491201529
 31
0.0
  0
ARC
  5
1709
330
2
100
AcDbEntity
  8
0
100
AcDbCircle
 10
863.77983900146
 20
285.2526491201529
 30
0.0
 40
0.5
100
AcDbArc
 50
270.0
 51
0.0
  0
ARC
  5
170A
330
2
100
AcDbEntity
  8
0
100
AcDbCircle
 10
860.27983900146
 20
295.2526491201528
 30
0.0
 40
2.0
100
AcDbArc
 50
90.0
 51
180.0
1001
ACAD
1000
ASC_BOUNDS
1002
{
1070
    19
1002
}
  0
LINE
  5
170B
330
2
100
AcDbEntity
  8
0
100
AcDbLine
 10
858.27983900146
 20
294.7526491201529
 30
0.0
 11
863.77983900146
 21
294.7526491201529
 31
0.0
  0
ARC
  5
170C
330
2
100
AcDbEntity
  8
0
100
AcDbCircle
 10
863.77983900146
 20
294.2526491201529
 30
0.0
 40
0.5
100
AcDbArc
 50
0.0
 51
90.0
  0
LINE
  5
170E
330
2
100
AcDbEntity
  8
0
100
AcDbLine
 10
869.2798390014599
 20
299.2526491201529
 30
0.0
 11
867.27983900146
 21
297.2526491201529
 31
0.0
1001
ACAD
1000
ASC_BOUNDS
1002
{
1070
    19
1002
}
  0
LINE
  5
170F
330
2
100
AcDbEntity
  8
0
100
AcDbLine
 10
1054.821119711773
 20
265.0577311796771
 30
0.0
 11
1091.205288500018
 21
276.8980124934182
 31
0.0
  0
LINE
  5
1710
330
2
100
AcDbEntity
  8
0
100
AcDbLine
 10
1070.99187998772
 20
265.9073496585324
 30
0.0
 11
1057.431924414901
 21
265.9073496585324
 31
0.0
  0
LINE
  5
1711
330
2
100
AcDbEntity
  8
0
100
AcDbLine
 10
1068.991879987721
 20
264.7526491201531
 30
0.0
 11
1070.99187998772
 21
265.9073496585324
 31
0.0
1001
ACAD
1000
ASC_BOUNDS
1002
{
1070
    19
1002
}
  0
LINE
  5
1712
330
2
100
AcDbEntity
  8
0
100
AcDbLine
 10
987.9918799877209
 20
265.9073496585324
 30
0.0
 11
949.9918799877208
 21
265.9073496585321
 31
0.0
  0
LINE
  5
1713
330
2
100
AcDbEntity
  8
0
100
AcDbLine
 10
974.7106907856164
 20
264.501955746301
 30
0.0
 11
970.2730691898254
 21
264.501955746301
 31
0.0
  0
LINE
  5
1714
330
2
100
AcDbEntity
  8
0
100
AcDbLine
 10
952.991879987721
 20
244.7526491201529
 30
0.0
 11
991.9918799877208
 21
244.7526491201529
 31
0.0
1001
ACAD
1000
ASC_BOUNDS
1002
{
1070
    19
1005
0
1002
}
  0
LINE
  5
1715
330
2
100
AcDbEntity
  8
0
100
AcDbLine
 10
974.7106907856164
 20
246.1580430323842
 30
0.0
 11
970.2730691898254
 21
246.1580430323842
 31
0.0
  0
LINE
  5
1716
330
2
100
AcDbEntity
  8
MITTE
 48
7.0
100
AcDbLine
 10
972.491879987721
 20
241.6948885125466
 30
0.0
 11
972.491879987721
 21
278.0859233506437
 31
0.0
  0
LINE
  5
1717
330
2
100
AcDbEntity
  8
0
100
AcDbLine
 10
970.2730691898254
 20
246.1580430323842
 30
0.0
 11
970.2730691898254
 21
264.501955746301
 31
0.0
  0
LINE
  5
1718
330
2
100
AcDbEntity
  8
0
100
AcDbLine
 10
954.2106907856163
 20
246.1580430323842
 30
0.0
 11
954.2106907856163
 21
264.501955746301
 31
0.0
  0
LINE
  5
1719
330
2
100
AcDbEntity
  8
0
100
AcDbLine
 10
951.991879987721
 20
245.7526491201529
 30
0.0
 11
951.991879987721
 21
264.7526491201531
 31
0.0
1001
ACAD
1000
ASC_BOUNDS
1002
{
1070
    19
1002
}
  0
ARC
  5
171A
330
2
100
AcDbEntity
  8
0
100
AcDbCircle
 10
962.2418799877209
 20
268.4026491201529
 30
0.0
 40
23.65
100
AcDbArc
 50
250.148397768416
 51
289.8516022315839
  0
LINE
  5
171B
330
2
100
AcDbEntity
  8
0
100
AcDbLine
 10
954.2106907856163
 20
246.1580430323842
 30
0.0
 11
951.991879987721
 21
245.7526491201529
 31
0.0
  0
LINE
  5
171C
330
2
100
AcDbEntity
  8
0
100
AcDbLine
 10
951.991879987721
 20
245.7526491201529
 30
0.0
 11
952.991879987721
 21
244.7526491201529
 31
0.0
1001
ACAD
1000
ASC_BOUNDS
1002
{
1070
    19
1002
}
  0
ARC
  5
171D
330
2
100
AcDbEntity
  8
0
100
AcDbCircle
 10
951.991879987721
 20
277.2526491201529
 30
0.0
 40
2.5
100
AcDbArc
 50
180.0
 51
270.0
  0
ARC
  5
171E
330
2
100
AcDbEntity
  8
0
100
AcDbCircle
 10
951.991879987721
 20
277.2526491201529
 30
0.0
 40
2.5
100
AcDbArc
 50
180.0
 51
270.0
  0
LINE
  5
171F
330
2
100
AcDbEntity
  8
0
100
AcDbLine
 10
969.7251217985952
 20
274.7526491201529
 30
0.0
 11
951.991879987721
 21
274.7526491201529
 31
0.0
1001
ACAD
1000
ASC_BOUNDS
1002
{
1070
    19
1005
0
1002
}
  0
LINE
  5
1720
330
2
100
AcDbEntity
  8
0
100
AcDbLine
 10
949.9918799877208
 20
274.7526491201529
 30
0.0
 11
969.7251217985952
 21
274.7526491201529
 31
0.0
1001
ACAD
1000
ASC_BOUNDS
1002
{
1070
    19
1002
}
  0
ARC
  5
1721
330
2
100
AcDbEntity
  8
0
100
AcDbCircle
 10
962.2418799877209
 20
242.2573496585323
 30
0.0
 40
23.65
100
AcDbArc
 50
70.14839776841608
 51
109.8516022315839
  0
LINE
  5
1722
330
2
100
AcDbEntity
  8
0
100
AcDbLine
 10
951.991879987721
 20
264.7526491201531
 30
0.0
 11
954.2106907856163
 21
264.501955746301
 31
0.0
  0
LINE
  5
1723
330
2
100
AcDbEntity
  8
0
100
AcDbLine
 10
951.991879987721
 20
264.7526491201531
 30
0.0
 11
949.9918799877208
 21
265.9073496585321
 31
0.0
1001
ACAD
1000
ASC_BOUNDS
1002
{
1070
    19
1002
}
  0
LINE
  5
1724
330
2
100
AcDbEntity
  8
0
100
AcDbLine
 10
949.9918799877208
 20
265.9073496585321
 30
0.0
 11
949.9918799877208
 21
274.7526491201529
 31
0.0
1001
ACAD
1000
ASC_BOUNDS
1002
{
1070
    19
1002
}
  0
LINE
  5
1725
330
2
100
AcDbEntity
  8
0
100
AcDbLine
 10
949.4918799877209
 20
295.2091229947297
 30
0.0
 11
949.4918799877209
 21
277.2526491201529
 31
0.0
  0
LINE
  5
1726
330
2
100
AcDbEntity
  8
0
100
AcDbLine
 10
949.4918799877209
 20
295.2091229947297
 30
0.0
 11
949.4918799877209
 21
277.2526491201529
 31
0.0
  0
LINE
  5
1727
330
2
100
AcDbEntity
  8
0
100
AcDbLine
 10
974.7106907856164
 20
246.1580430323842
 30
0.0
 11
974.7106907856164
 21
264.501955746301
 31
0.0
  0
LINE
  5
1728
330
2
100
AcDbEntity
  8
0
100
AcDbLine
 10
990.7730691898255
 20
246.1580430323842
 30
0.0
 11
990.7730691898255
 21
263.752649120152
 31
0.0
  0
LINE
  5
1729
330
2
100
AcDbEntity
  8
0
100
AcDbLine
 10
992.991879987721
 20
245.7526491201529
 30
0.0
 11
992.991879987721
 21
263.752649120152
 31
0.0
1001
ACAD
1000
ASC_BOUNDS
1002
{
1070
    19
1002
}
  0
LINE
  5
172A
330
2
100
AcDbEntity
  8
MITTE
 48
7.0
100
AcDbLine
 10
1048.49187998772
 20
241.6948885125466
 30
0.0
 11
1048.49187998772
 21
278.0859233506437
 31
0.0
  0
LINE
  5
172B
330
2
100
AcDbEntity
  8
0
100
AcDbLine
 10
1046.273069189825
 20
246.1580430323842
 30
0.0
 11
1046.273069189825
 21
263.0017590314851
 31
0.0
  0
LINE
  5
172C
330
2
100
AcDbEntity
  8
0
100
AcDbLine
 10
1050.710690785616
 20
246.1580430323842
 30
0.0
 11
1050.710690785616
 21
263.8915099308324
 31
0.0
  0
LINE
  5
172D
330
2
100
AcDbEntity
  8
0
100
AcDbLine
 10
1027.991879987721
 20
245.7526491201529
 30
0.0
 11
1027.991879987721
 21
262.3089983062566
 31
0.0
1001
ACAD
1000
ASC_BOUNDS
1002
{
1070
    19
1002
}
  0
LINE
  5
172E
330
2
100
AcDbEntity
  8
0
100
AcDbLine
 10
1030.210690785616
 20
246.1580430323842
 30
0.0
 11
1030.210690785616
 21
262.3089983062566
 31
0.0
  0
LINE
  5
172F
330
2
100
AcDbEntity
  8
0
100
AcDbLine
 10
1066.773069189825
 20
246.1580430323842
 30
0.0
 11
1066.773069189825
 21
264.501955746301
 31
0.0
  0
LINE
  5
1730
330
2
100
AcDbEntity
  8
0
100
AcDbLine
 10
1068.991879987721
 20
245.7526491201529
 30
0.0
 11
1068.991879987721
 21
264.7526491201531
 31
0.0
1001
ACAD
1000
ASC_BOUNDS
1002
{
1070
    19
1002
}
  0
ARC
  5
1731
330
2
100
AcDbEntity
  8
0
100
AcDbCircle
 10
982.7418799877209
 20
268.4026491201529
 30
0.0
 40
23.65
100
AcDbArc
 50
250.148397768416
 51
289.8516022315839
  0
LINE
  5
1732
330
2
100
AcDbEntity
  8
0
100
AcDbLine
 10
992.991879987721
 20
245.7526491201529
 30
0.0
 11
990.7730691898255
 21
246.1580430323842
 31
0.0
  0
LINE
  5
1733
330
2
100
AcDbEntity
  8
0
100
AcDbLine
 10
992.991879987721
 20
245.7526491201529
 30
0.0
 11
991.9918799877208
 21
244.7526491201529
 31
0.0
1001
ACAD
1000
ASC_BOUNDS
1002
{
1070
    19
1002
}
  0
LINE
  5
1734
330
2
100
AcDbEntity
  8
0
100
AcDbLine
 10
1050.710690785616
 20
246.1580430323842
 30
0.0
 11
1046.273069189825
 21
246.1580430323842
 31
0.0
  0
LINE
  5
1735
330
2
100
AcDbEntity
  8
0
100
AcDbLine
 10
1028.991879987721
 20
244.7526491201529
 30
0.0
 11
1067.991879987721
 21
244.7526491201529
 31
0.0
1001
ACAD
1000
ASC_BOUNDS
1002
{
1070
    19
1005
0
1002
}
  0
ARC
  5
1736
330
2
100
AcDbEntity
  8
0
100
AcDbCircle
 10
1038.24187998772
 20
268.4026491201529
 30
0.0
 40
23.65
100
AcDbArc
 50
250.148397768416
 51
289.8516022315839
  0
LINE
  5
1737
330
2
100
AcDbEntity
  8
0
100
AcDbLine
 10
1030.210690785616
 20
246.1580430323842
 30
0.0
 11
1027.991879987721
 21
245.7526491201529
 31
0.0
  0
LINE
  5
1738
330
2
100
AcDbEntity
  8
0
100
AcDbLine
 10
1027.991879987721
 20
245.7526491201529
 30
0.0
 11
1028.991879987721
 21
244.7526491201529
 31
0.0
1001
ACAD
1000
ASC_BOUNDS
1002
{
1070
    19
1002
}
  0
ARC
  5
1739
330
2
100
AcDbEntity
  8
0
100
AcDbCircle
 10
1058.741879987721
 20
268.4026491201529
 30
0.0
 40
23.65
100
AcDbArc
 50
250.148397768416
 51
289.8516022315839
  0
LINE
  5
173A
330
2
100
AcDbEntity
  8
0
100
AcDbLine
 10
1068.991879987721
 20
245.7526491201529
 30
0.0
 11
1066.773069189825
 21
246.1580430323842
 31
0.0
  0
LINE
  5
173B
330
2
100
AcDbEntity
  8
0
100
AcDbLine
 10
1068.991879987721
 20
245.7526491201529
 30
0.0
 11
1067.991879987721
 21
244.7526491201529
 31
0.0
1001
ACAD
1000
ASC_BOUNDS
1002
{
1070
    19
1002
}
  0
LINE
  5
173C
330
2
100
AcDbEntity
  8
0
100
AcDbLine
 10
1010.49187998772
 20
262.3089983062566
 30
0.0
 11
1037.49187998772
 21
262.3089983062566
 31
0.0
  0
ARC
  5
173D
330
2
100
AcDbEntity
  8
0
100
AcDbCircle
 10
990.491879987721
 20
264.2526491201528
 30
0.0
 40
2.5
100
AcDbArc
 50
180.0
 51
191.5369590328385
  0
LINE
  5
173E
330
2
100
AcDbEntity
  8
0
100
AcDbLine
 10
996.0458116244517
 20
263.752649120152
 30
0.0
 11
988.0423902449379
 21
263.752649120152
 31
0.0
  0
ARC
  5
173F
330
2
100
AcDbEntity
  8
0
100
AcDbCircle
 10
982.7418799877209
 20
242.2573496585323
 30
0.0
 40
23.65
100
AcDbArc
 50
77.17421556954024
 51
109.8516022315839
  0
LINE
  5
1740
330
2
100
AcDbEntity
  8
0
100
AcDbLine
 10
987.9918799877209
 20
265.8629761019576
 30
0.0
 11
987.9918799877209
 21
264.2526491201528
 31
0.0
  0
ARC
  5
1741
330
2
100
AcDbEntity
  8
0
100
AcDbCircle
 10
1037.49187998772
 20
318.3089983062568
 30
0.0
 40
56.0
100
AcDbArc
 50
270.0
 51
288.0261308132883
  0
ARC
  5
1742
330
2
100
AcDbEntity
  8
0
100
AcDbCircle
 10
1058.741879987721
 20
242.2573496585323
 30
0.0
 40
23.65
100
AcDbArc
 50
70.14839776841608
 51
93.50511215251314
  0
LINE
  5
1743
330
2
100
AcDbEntity
  8
0
100
AcDbLine
 10
1068.991879987721
 20
264.7526491201531
 30
0.0
 11
1066.773069189825
 21
264.501955746301
 31
0.0
  0
ARC
  5
1744
330
2
100
AcDbEntity
  8
0
100
AcDbCircle
 10
1087.49187998772
 20
288.3089983062566
 30
0.0
 40
12.0
100
AcDbArc
 50
288.0261308132883
 51
10.35332004393006
  0
LINE
  5
1745
330
2
100
AcDbEntity
  8
0
100
AcDbLine
 10
1070.99187998772
 20
265.9073496585324
 30
0.0
 11
1070.99187998772
 21
270.3200844806037
 31
0.0
1001
ACAD
1000
ASC_BOUNDS
1002
{
1070
    19
1002
}
  0
ARC
  5
1746
330
2
100
AcDbEntity
  8
LINIE
 48
10.0
100
AcDbCircle
 10
1087.49187998772
 20
288.3089983062566
 30
0.0
 40
4.0
100
AcDbArc
 50
163.3492982195147
 51
98.85437576424251
  0
LINE
  5
1747
330
2
100
AcDbEntity
  8
MITTE
 48
10.0
100
AcDbLine
 10
1087.49187998772
 20
294.3549405490948
 30
0.0
 11
1087.49187998772
 21
282.6118468031297
 31
0.0
  0
CIRCLE
  5
1748
330
2
100
AcDbEntity
  8
0
100
AcDbCircle
 10
1087.49187998772
 20
288.3089983062566
 30
0.0
 40
3.3235
  0
LINE
  5
1749
330
2
100
AcDbEntity
  8
MITTE
 48
10.0
100
AcDbLine
 10
1082.754937086162
 20
288.3089983062566
 30
0.0
 11
1093.607200494513
 21
288.3089983062566
 31
0.0
  0
LINE
  5
174D
330
2
100
AcDbEntity
  8
0
100
AcDbLine
 10
812.2798390014599
 20
405.7526491201529
 30
0.0
 11
831.27983900146
 21
405.7526491201529
 31
0.0
1001
ACAD
1000
ASC_BOUNDS
1002
{
1070
    19
1002
}
  0
ARC
  5
174E
330
2
100
AcDbEntity
  8
0
100
AcDbCircle
 10
685.27983900146
 20
341.8199712415096
 30
0.0
 40
2.5
100
AcDbArc
 50
90.0
 51
180.0
1001
ACAD
1000
ASC_BOUNDS
1002
{
1070
    19
1002
}
  0
LINE
  5
174F
330
2
100
AcDbEntity
  8
0
100
AcDbLine
 10
754.77983900146
 20
405.7526491201529
 30
0.0
 11
812.2798390014599
 21
405.7526491201529
 31
0.0
1001
ACAD
1000
ASC_BOUNDS
1002
{
1070
    19
1002
}
  0
ARC
  5
1750
330
2
100
AcDbEntity
  8
0
100
AcDbCircle
 10
749.77983900146
 20
400.7526491201529
 30
0.0
 40
5.0
100
AcDbArc
 50
53.13010235415435
 51
90.0
1001
ACAD
1000
ASC_BOUNDS
1002
{
1070
    19
1002
}
  0
LINE
  5
1751
330
2
100
AcDbEntity
  8
0
100
AcDbLine
 10
754.77983900146
 20
405.7526491201529
 30
0.0
 11
752.7798390014599
 21
403.7526491201528
 31
0.0
1001
ACAD
1000
ASC_BOUNDS
1002
{
1070
    19
1002
}
  0
LINE
  5
1752
330
2
100
AcDbEntity
  8
0
100
AcDbLine
 10
812.2798390014599
 20
405.7526491201529
 30
0.0
 11
812.2798390014599
 21
402.7526491201529
 31
0.0
1001
ACAD
1000
ASC_BOUNDS
1002
{
1070
    19
1002
}
  0
LINE
  5
1753
330
2
100
AcDbEntity
  8
0
100
AcDbLine
 10
864.2798390014601
 20
395.2526491201528
 30
0.0
 11
864.2798390014601
 21
404.2526491201528
 31
0.0
  0
LINE
  5
1754
330
2
100
AcDbEntity
  8
0
100
AcDbLine
 10
858.27983900146
 20
405.7526491201529
 30
0.0
 11
858.27983900146
 21
394.2526491201529
 31
0.0
1001
ACAD
1000
ASC_BOUNDS
1002
{
1070
    19
1002
}
  0
LINE
  5
1756
330
2
100
AcDbEntity
  8
0
100
AcDbLine
 10
860.27983900146
 20
392.2526491201529
 30
0.0
 11
867.2798390014602
 21
392.2526491201529
 31
0.0
1001
ACAD
1000
ASC_BOUNDS
1002
{
1070
    19
1002
}
  0
LINE
  5
1757
330
2
100
AcDbEntity
  8
0
100
AcDbLine
 10
858.27983900146
 20
394.7526491201529
 30
0.0
 11
863.77983900146
 21
394.7526491201529
 31
0.0
  0
ARC
  5
1758
330
2
100
AcDbEntity
  8
0
100
AcDbCircle
 10
863.77983900146
 20
395.2526491201528
 30
0.0
 40
0.5
100
AcDbArc
 50
270.0
 51
0.0
  0
ARC
  5
1759
330
2
100
AcDbEntity
  8
0
100
AcDbCircle
 10
860.27983900146
 20
394.2526491201529
 30
0.0
 40
2.0
100
AcDbArc
 50
180.0
 51
270.0
1001
ACAD
1000
ASC_BOUNDS
1002
{
1070
    19
1002
}
  0
LINE
  5
175A
330
2
100
AcDbEntity
  8
0
100
AcDbLine
 10
867.2798390014602
 20
392.2526491201529
 30
0.0
 11
869.2798390014601
 21
390.2526491201529
 31
0.0
1001
ACAD
1000
ASC_BOUNDS
1002
{
1070
    19
1002
}
  0
LINE
  5
175C
330
2
100
AcDbEntity
  8
0
100
AcDbLine
 10
831.27983900146
 20
405.7526491201529
 30
0.0
 11
858.27983900146
 21
405.7526491201529
 31
0.0
1001
ACAD
1000
ASC_BOUNDS
1002
{
1070
    19
1002
}
  0
LINE
  5
175D
330
2
100
AcDbEntity
  8
0
100
AcDbLine
 10
831.27983900146
 20
405.7526491201529
 30
0.0
 11
831.27983900146
 21
402.7526491201529
 31
0.0
1001
ACAD
1000
ASC_BOUNDS
1002
{
1070
    19
1002
}
  0
LINE
  5
175E
330
2
100
AcDbEntity
  8
0
100
AcDbLine
 10
858.27983900146
 20
404.7526491201528
 30
0.0
 11
863.77983900146
 21
404.7526491201528
 31
0.0
  0
ARC
  5
175F
330
2
100
AcDbEntity
  8
0
100
AcDbCircle
 10
863.77983900146
 20
404.2526491201528
 30
0.0
 40
0.5
100
AcDbArc
 50
0.0
 51
90.0
  0
LINE
  5
1760
330
2
100
AcDbEntity
  8
MITTE
 48
20.0
100
AcDbLine
 10
912.1761811992474
 20
365.3089983062568
 30
0.0
 11
1108.96945803615
 21
365.3089983062568
 31
0.0
  0
ARC
  5
1761
330
2
100
AcDbEntity
  8
MITTE
 48
15.0
100
AcDbCircle
 10
1010.49187998772
 20
365.3089983062568
 30
0.0
 40
72.5
100
AcDbArc
 50
13.38326018538497
 51
53.40688101119542
  0
LINE
  5
1762
330
2
100
AcDbEntity
  8
MITTE
 48
10.0
100
AcDbLine
 10
1079.518382741577
 20
344.7526491201529
 30
0.0
 11
942.9736012190323
 21
344.7526491201529
 31
0.0
  0
ARC
  5
1764
330
2
100
AcDbEntity
  8
MITTE
 48
15.0
100
AcDbCircle
 10
1010.49187998772
 20
365.3089983062568
 30
0.0
 40
72.5
100
AcDbArc
 50
187.432826030465
 51
233.5117163400953
  0
LINE
  5
1765
330
2
100
AcDbEntity
  8
MITTE
 48
10.0
100
AcDbLine
 10
965.7055575490364
 20
320.5226758675717
 30
0.0
 11
952.8273780319489
 21
307.6444963504838
 31
0.0
  0
CIRCLE
  5
1766
330
2
100
AcDbEntity
  8
0
100
AcDbCircle
 10
959.2266383516962
 20
314.0437566702319
 30
0.0
 40
5.75
  0
LINE
  5
1767
330
2
100
AcDbEntity
  8
MITTE
 48
10.0
100
AcDbLine
 10
1055.383567737734
 20
320.4173105562442
 30
0.0
 11
1069.367290534251
 21
306.4335877597268
 31
0.0
  0
ARC
  5
1768
330
2
100
AcDbEntity
  8
MITTE
 48
15.0
100
AcDbCircle
 10
1010.49187998772
 20
365.3089983062568
 30
0.0
 40
72.5
100
AcDbArc
 50
306.5931189888046
 51
324.1811683713773
  0
CIRCLE
  5
1769
330
2
100
AcDbEntity
  8
0
100
AcDbCircle
 10
1061.757121623745
 20
314.0437566702319
 30
0.0
 40
5.75
  0
ARC
  5
176B
330
2
100
AcDbEntity
  8
MITTE
 48
15.0
100
AcDbCircle
 10
1010.49187998772
 20
365.3089983062568
 30
0.0
 40
72.5
100
AcDbArc
 50
126.4882836599046
 51
143.5766557743763
  0
LINE
  5
176C
330
2
100
AcDbEntity
  8
MITTE
 48
10.0
100
AcDbLine
 10
965.7055575490364
 20
410.0953207449419
 30
0.0
 11
952.8273780319489
 21
422.9735002620295
 31
0.0
  0
CIRCLE
  5
176D
330
2
100
AcDbEntity
  8
0
100
AcDbCircle
 10
959.2266383516962
 20
416.5742399422815
 30
0.0
 40
5.75
  0
LINE
  5
176E
330
2
100
AcDbEntity
  8
MITTE
 48
10.0
100
AcDbLine
 10
1055.383567737734
 20
410.2006860562692
 30
0.0
 11
1069.367290534251
 21
424.1844088527864
 31
0.0
  0
CIRCLE
  5
176F
330
2
100
AcDbEntity
  8
0
100
AcDbCircle
 10
1061.757121623745
 20
416.5742399422815
 30
0.0
 40
5.75
  0
LINE
  5
3D08
330
2
100
AcDbEntity
  8
LINIE
 48
10.0
100
AcDbLine
 10
861.2798390014599
 20
316.2526491201528
 30
0.0
 11
860.0468390014599
 21
304.2526491201528
 31
0.0
1001
ACAD
1000
ASC_BOUNDS
1002
{
1070
    19
1002
}
  0
LINE
  5
3D09
330
2
100
AcDbEntity
  8
LINIE
 48
10.0
100
AcDbLine
 10
865.2798390014599
 20
316.2526491201528
 30
0.0
 11
866.5128390014599
 21
304.2526491201528
 31
0.0
1001
ACAD
1000
ASC_BOUNDS
1002
{
1070
    19
1002
}
  0
INSERT
  5
3D0A
330
2
100
AcDbEntity
  8
SCHRAFF
 48
10.0
100
AcDbBlockReference
  2
*X0
 10
762.5528482665998
 20
142.8654807410542
 30
0.0
1001
ACAD
1000
HATCH
1002
{
1070
    19
1000
AR-CONC
1040
0.2
1040
0.0
1002
}
  0
LINE
  5
3D0B
330
2
100
AcDbEntity
  8
0
 48
10.0
100
AcDbLine
 10
860.0468390014599
 20
304.2526491201528
 30
0.0
 11
866.5128390014599
 21
304.2526491201528
 31
0.0
1001
ACAD
1000
ASC_BOUNDS
1002
{
1070
    19
1002
}
  0
LINE
  5
3D0C
330
2
100
AcDbEntity
  8
LINIE
 48
10.0
100
AcDbLine
 10
859.2798390014602
 20
304.2526491201528
 30
0.0
 11
867.2798390014602
 21
304.2526491201528
 31
0.0
1001
ACAD
1000
ASC_BOUNDS
1002
{
1070
    19
1002
}
  0
LINE
  5
3D0D
330
2
100
AcDbEntity
  8
LINIE
 48
10.0
100
AcDbLine
 10
867.2798390014598
 20
301.0196491201527
 30
0.0
 11
867.2798390014602
 21
297.2526491201528
 31
0.0
1001
ACAD
1000
ASC_BOUNDS
1002
{
1070
    19
1002
}
  0
LINE
  5
3D0E
330
2
100
AcDbEntity
  8
LINIE
 48
10.0
100
AcDbLine
 10
867.2798390014598
 20
303.4856491201527
 30
0.0
 11
867.2798390014598
 21
301.0196491201527
 31
0.0
  0
LINE
  5
3D0F
330
2
100
AcDbEntity
  8
LINIE
 48
10.0
100
AcDbLine
 10
859.2798390014602
 20
301.0196491201525
 30
0.0
 11
859.2798390014602
 21
296.9846999277216
 31
0.0
1001
ACAD
1000
ASC_BOUNDS
1002
{
1070
    19
1002
}
  0
LINE
  5
3D10
330
2
100
AcDbEntity
  8
LINIE
 48
10.0
100
AcDbLine
 10
859.2798390014598
 20
303.4856491201527
 30
0.0
 11
859.2798390014598
 21
301.0196491201527
 31
0.0
  0
LINE
  5
3D11
330
2
100
AcDbEntity
  8
LINIE
 48
10.0
100
AcDbLine
 10
860.0468390014599
 20
300.2526491201528
 30
0.0
 11
859.2798390014598
 21
301.0196491201527
 31
0.0
  0
LINE
  5
3D12
330
2
100
AcDbEntity
  8
LINIE
 48
10.0
100
AcDbLine
 10
859.9563390014601
 20
297.9291491201528
 30
0.0
 11
859.2798390014602
 21
297.2526491201528
 31
0.0
1001
ACAD
1000
ASC_BOUNDS
1002
{
1070
    19
1002
}
  0
LINE
  5
3D13
330
2
100
AcDbEntity
  8
LINIE
 48
10.0
100
AcDbLine
 10
859.9563390014601
 20
300.3431491201525
 30
0.0
 11
859.9563390014601
 21
297.9291491201528
 31
0.0
1001
ACAD
1000
ASC_BOUNDS
1002
{
1070
    19
1002
}
  0
LINE
  5
3D14
330
2
100
AcDbEntity
  8
LINIE
 48
10.0
100
AcDbLine
 10
866.60333900146
 20
300.3431491201527
 30
0.0
 11
866.60333900146
 21
297.9291491201528
 31
0.0
1001
ACAD
1000
ASC_BOUNDS
1002
{
1070
    19
1002
}
  0
LINE
  5
3D15
330
2
100
AcDbEntity
  8
LINIE
 48
10.0
100
AcDbLine
 10
859.9563390014601
 20
297.9291491201528
 30
0.0
 11
866.60333900146
 21
297.9291491201528
 31
0.0
1001
ACAD
1000
ASC_BOUNDS
1002
{
1070
    19
1002
}
  0
LINE
  5
3D16
330
2
100
AcDbEntity
  8
LINIE
 48
10.0
100
AcDbLine
 10
860.0468390014599
 20
300.2526491201528
 30
0.0
 11
866.5128390014599
 21
300.2526491201528
 31
0.0
  0
LINE
  5
3D17
330
2
100
AcDbEntity
  8
0
 48
10.0
100
AcDbLine
 10
866.5128390014599
 20
300.2526491201528
 30
0.0
 11
867.2798390014598
 21
301.0196491201527
 31
0.0
  0
LINE
  5
3D18
330
2
100
AcDbEntity
  8
LINIE
 48
10.0
100
AcDbLine
 10
866.60333900146
 20
297.9291491201528
 30
0.0
 11
867.2798390014602
 21
297.2526491201528
 31
0.0
1001
ACAD
1000
ASC_BOUNDS
1002
{
1070
    19
1002
}
  0
LINE
  5
3D19
330
2
100
AcDbEntity
  8
LINIE
 48
10.0
100
AcDbLine
 10
859.2798390014598
 20
303.4856491201527
 30
0.0
 11
867.2798390014598
 21
303.4856491201527
 31
0.0
  0
LINE
  5
3D1A
330
2
100
AcDbEntity
  8
LINIE
 48
10.0
100
AcDbLine
 10
859.2798390014598
 20
301.0196491201527
 30
0.0
 11
867.2798390014598
 21
301.0196491201527
 31
0.0
  0
LINE
  5
3D1B
330
2
100
AcDbEntity
  8
LINIE
 48
10.0
100
AcDbLine
 10
859.2798390014602
 20
297.2526491201528
 30
0.0
 11
867.2798390014602
 21
297.2526491201528
 31
0.0
1001
ACAD
1000
ASC_BOUNDS
1002
{
1070
    19
1002
}
  0
LINE
  5
3D1C
330
2
100
AcDbEntity
  8
LINIE
 48
10.0
100
AcDbLine
 10
860.2798390014601
 20
297.2526491201528
 30
0.0
 11
867.2798390014603
 21
297.2526491201528
 31
0.0
1001
ACAD
1000
ASC_BOUNDS
1002
{
1070
    19
1002
}
  0
LINE
  5
3D1D
330
2
100
AcDbEntity
  8
LINIE
 48
10.0
100
AcDbLine
 10
859.2798390014602
 20
304.2526491201528
 30
0.0
 11
859.2798390014598
 21
303.4856491201527
 31
0.0
  0
LINE
  5
3D1E
330
2
100
AcDbEntity
  8
LINIE
 48
10.0
100
AcDbLine
 10
867.2798390014602
 20
304.2526491201528
 30
0.0
 11
867.2798390014598
 21
303.4856491201527
 31
0.0
  0
LINE
  5
3D1F
330
2
100
AcDbEntity
  8
0
 48
10.0
100
AcDbLine
 10
866.5128390014599
 20
304.2526491201528
 30
0.0
 11
867.2798390014598
 21
303.4856491201527
 31
0.0
  0
LINE
  5
3D20
330
2
100
AcDbEntity
  8
LINIE
 48
10.0
100
AcDbLine
 10
860.0468390014599
 20
304.2526491201528
 30
0.0
 11
859.2798390014598
 21
303.4856491201527
 31
0.0
  0
LINE
  5
3D21
330
2
100
AcDbEntity
  8
LINIE
 48
10.0
100
AcDbLine
 10
866.5128390014599
 20
304.2526491201528
 30
0.0
 11
866.5128390014599
 21
300.2526491201528
 31
0.0
  0
LINE
  5
3D22
330
2
100
AcDbEntity
  8
LINIE
 48
10.0
100
AcDbLine
 10
860.0468390014599
 20
304.2526491201528
 30
0.0
 11
860.0468390014599
 21
300.2526491201528
 31
0.0
  0
LINE
  5
3D23
330
2
100
AcDbEntity
  8
LINIE
 48
10.0
100
AcDbLine
 10
861.2798390014599
 20
316.2526491201528
 30
0.0
 11
865.2798390014599
 21
316.2526491201528
 31
0.0
1001
ACAD
1000
ASC_BOUNDS
1002
{
1070
    19
1002
}
  0
SPLINE
  5
3D24
330
2
100
AcDbEntity
  8
LINIE
 48
10.0
100
AcDbSpline
210
0.0
220
0.0
230
1.0
 70
     8
 71
     3
 72
    11
 73
     7
 74
     5
 42
0.0000000001
 43
0.0000000001
 44
0.0000000001
 40
0.0
 40
0.0
 40
0.0
 40
0.0
 40
2.62629010064643
 40
5.544780380777337
 40
8.310133457396172
 40
9.81545957471715
 40
9.81545957471715
 40
9.81545957471715
 40
9.81545957471715
 10
858.27983900146
 20
318.6259145969664
 30
0.0
 10
859.0712871990559
 20
319.2630849856336
 30
0.0
 10
860.7422398624153
 20
320.6083171324647
 30
0.0
 10
863.2204985204916
 20
317.4079975651956
 30
0.0
 10
865.3394415803136
 20
319.9306138108023
 30
0.0
 10
866.7741381305939
 20
319.5447035798687
 30
0.0
 10
867.2798390014603
 20
319.4086782023619
 30
0.0
 11
858.27983900146
 21
318.6259145969664
 31
0.0
 11
860.6502842182223
 21
319.7565733284512
 31
0.0
 11
863.2609518907562
 21
318.4519661773116
 31
0.0
 11
865.7845969920224
 21
319.5826266220167
 31
0.0
 11
867.2798390014603
 21
319.4086782023619
 31
0.0
  0
HATCH
  5
3D25
330
2
100
AcDbEntity
  8
SCHRAFF
 48
10.0
100
AcDbHatch
 10
0.0
 20
0.0
 30
0.0
210
0.0
220
0.0
230
1.0
  2
ANSI31
 70
     0
 71
     0
 91
        6
 92
        5
 93
       18
 72
     4
 94
        3
 73
     0
 74
     0
 95
       12
 96
        8
 40
0.0
 40
0.0
 40
0.0
 40
0.0
 40
2.10100499939131
 40
6.848593476966641
 40
10.75763666958752
 40
15.92791960920187
 40
20.51338574724711
 40
20.51338574724711
 40
20.51338574724711
 40
20.51338574724711
 10
831.27983900146
 20
309.4936576861069
 10
830.6557708894134
 20
309.784666914823
 10
828.6215116646209
 20
310.7332624232108
 10
825.4538965185716
 20
313.6200142387388
 10
821.0544633029423
 20
310.3881469996827
 10
816.2802693313256
 20
313.0736247656938
 10
813.5589382646188
 20
310.815812390475
 10
812.2798390014601
 20
309.7545794589789
 72
     1
 10
812.2798390014601
 20
309.7545794589788
 11
812.2798390014601
 21
283.7526491201528
 72
     1
 10
812.2798390014601
 20
283.7526491201528
 11
814.2798390014599
 21
283.7526491201528
 72
     1
 10
814.2798390014601
 20
283.7526491201528
 11
814.2798390014602
 21
284.2898277792214
 72
     1
 10
814.2798390014601
 20
284.2898277792214
 11
816.9148390014598
 21
284.2898277792214
 72
     1
 10
816.9148390014601
 20
284.2898277792214
 11
816.9148390014603
 21
299.7526491201528
 72
     1
 10
816.9148390014603
 20
299.7526491201528
 11
817.4948390014602
 21
299.7526491201528
 72
     1
 10
817.4948390014602
 20
299.7526491201528
 11
817.4948390014602
 21
303.7526491201528
 72
     1
 10
817.4948390014602
 20
303.7526491201528
 11
820.2798390014574
 21
305.360569619844
 72
     1
 10
820.2798390014574
 20
305.360569619844
 11
823.2798390014597
 21
305.3605696198463
 72
     1
 10
823.2798390014597
 20
305.3605696198463
 11
826.0648390014599
 21
303.7526491201528
 72
     1
 10
826.0648390014601
 20
303.7526491201528
 11
826.0648390014601
 21
299.7526491201528
 72
     1
 10
826.0648390014601
 20
299.7526491201528
 11
826.6448390014604
 21
299.7526491201527
 72
     1
 10
826.6448390014604
 20
299.7526491201527
 11
826.6448390014604
 21
284.2898277792215
 72
     1
 10
826.64483900146
 20
284.2898277792215
 11
829.2798390014601
 21
284.2898277792215
 72
     1
 10
829.2798390014601
 20
284.2898277792215
 11
829.2798390014601
 21
283.7526491201528
 72
     1
 10
829.2798390014601
 20
283.7526491201528
 11
831.27983900146
 21
283.7526491201527
 72
     1
 10
831.27983900146
 20
283.7526491201527
 11
831.27983900146
 21
309.4936576861069
 97
        0
 92
       22
 72
     0
 73
     1
 93
        4
 10
826.6448390014604
 20
299.7526491201527
 10
826.0648390014599
 20
299.7526491201527
 10
826.0648390014605
 20
284.8698277792215
 10
826.64483900146
 20
284.2898277792216
 97
        0
 92
       22
 72
     0
 73
     1
 93
        4
 10
817.4948390014602
 20
299.7526491201528
 10
816.9148390014603
 20
299.7526491201527
 10
816.9148390014601
 20
284.2898277792216
 10
817.4948390014602
 20
284.8698277792214
 97
        0
 92
        5
 93
       12
 72
     1
 10
861.2798390014599
 20
316.2526491201528
 11
865.27983900146
 21
316.2526491201528
 72
     1
 10
865.27983900146
 20
316.2526491201528
 11
866.5128390014601
 21
304.2526491201528
 72
     1
 10
866.5128390014599
 20
304.2526491201528
 11
867.2798390014602
 21
304.2526491201528
 72
     1
 10
867.2798390014603
 20
304.2526491201528
 11
867.2798390014603
 21
319.4086782023619
 72
     4
 94
        3
 73
     0
 74
     0
 95
       11
 96
        7
 40
0.0
 40
0.0
 40
0.0
 40
0.0
 40
1.505326117320977
 40
4.270679193939812
 40
7.18916947407072
 40
9.81545957471715
 40
9.81545957471715
 40
9.81545957471715
 40
9.81545957471715
 10
867.2798390014603
 20
319.4086782023619
 10
866.7741381305937
 20
319.5447035798686
 10
865.3394415803134
 20
319.9306138108025
 10
863.2204985204916
 20
317.4079975651956
 10
860.7422398624153
 20
320.6083171324646
 10
859.0712871990559
 20
319.2630849856334
 10
858.27983900146
 20
318.6259145969664
 72
     1
 10
858.27983900146
 20
318.6259145969664
 11
858.27983900146
 21
295.2526491201528
 72
     2
 10
860.2798390014601
 20
295.2526491201527
 40
2.0
 50
180.0000000000032
 51
240.000000000001
 73
     0
 72
     1
 10
859.2798390014602
 20
296.9846999277216
 11
859.2798390014602
 21
301.0196491201525
 72
     1
 10
859.2798390014602
 20
301.0196491201525
 11
859.2798390014598
 21
303.4856491201527
 72
     1
 10
859.2798390014598
 20
303.4856491201527
 11
859.2798390014602
 21
304.2526491201528
 72
     1
 10
859.2798390014602
 20
304.2526491201528
 11
860.0468390014599
 21
304.2526491201528
 72
     1
 10
860.0468390014599
 20
304.2526491201528
 11
861.2798390014599
 21
316.2526491201528
 97
        0
 92
       22
 72
     0
 73
     1
 93
        4
 10
859.2798390014602
 20
297.2526491201528
 10
859.9563390014601
 20
297.929149120153
 10
859.9563390014601
 20
300.3431491201525
 10
859.2798390014602
 20
301.0196491201525
 97
        0
 92
       23
 72
     0
 73
     1
 93
        4
 10
866.60333900146
 20
297.9291491201528
 10
867.2798390014602
 20
297.2526491201529
 10
867.2798390014602
 20
301.0196491201527
 10
866.6033390014598
 20
300.3431491201528
 97
        0
 75
     0
 76
     1
 52
0.0
 41
20.0
 77
     0
 78
     1
 53
45.0
 43
197.3478021996526
 44
-11.72740070223329
 45
-1.767766952966368
 46
1.767766952966368
 79
     0
 47
0.086973862025384
 98
        6
 10
824.6230753855185
 20
309.4936576861069
 10
826.4505430718083
 20
297.6652114065307
 10
817.2261852242547
 20
297.2303429272242
 10
860.3892196595834
 20
317.3213057326061
 10
859.5189971020724
 20
298.9698202708908
 10
866.9158872633362
 20
298.7088984980187
  0
LINE
  5
3D26
330
2
100
AcDbEntity
  8
MITTE
 48
15.0
100
AcDbLine
 10
821.7798390014602
 20
282.2828168758274
 30
0.0
 11
821.7798390014602
 21
315.5839414868994
 31
0.0
  0
SPLINE
  5
3D27
330
2
100
AcDbEntity
  8
LINIE
 48
10.0
100
AcDbSpline
210
0.0
220
0.0
230
1.0
 70
     8
 71
     3
 72
    12
 73
     8
 74
     6
 42
0.0000000001
 43
0.0000000001
 44
0.0000000001
 40
0.0
 40
0.0
 40
0.0
 40
0.0
 40
4.585466138045345
 40
9.755749077659697
 40
13.66479227028057
 40
18.4123807478559
 40
20.51338574724711
 40
20.51338574724711
 40
20.51338574724711
 40
20.51338574724711
 10
812.2798390014601
 20
309.7545794589789
 30
0.0
 10
813.5589382646188
 20
310.8158123904751
 30
0.0
 10
816.2802693313256
 20
313.073624765694
 30
0.0
 10
821.0544633029424
 20
310.3881469996826
 30
0.0
 10
825.4538965185716
 20
313.6200142387387
 30
0.0
 10
828.6215116646207
 20
310.7332624232109
 30
0.0
 10
830.6557708894132
 20
309.784666914823
 30
0.0
 10
831.27983900146
 20
309.4936576861069
 30
0.0
 11
812.2798390014601
 21
309.7545794589789
 31
0.0
 11
816.2689400954755
 21
312.0159003483895
 31
0.0
 11
821.4032528692756
 21
311.4070834494282
 31
0.0
 11
825.1452076579594
 21
312.5377438941337
 31
0.0
 11
829.4092978742483
 21
310.4503697111575
 31
0.0
 11
831.27983900146
 21
309.4936576861069
 31
0.0
  0
LINE
  5
3D28
330
2
100
AcDbEntity
  8
0
100
AcDbLine
 10
823.2798390014597
 20
305.3605696198463
 30
0.0
 11
820.2798390014571
 21
305.360569619844
 31
0.0
  0
LINE
  5
3D29
330
2
100
AcDbEntity
  8
0
100
AcDbLine
 10
817.4948390014602
 20
303.7526491201528
 30
0.0
 11
820.2798390014571
 21
305.360569619844
 31
0.0
1001
ACAD
1000
ASC_BOUNDS
1002
{
1070
    19
1002
}
  0
LINE
  5
3D2A
330
2
100
AcDbEntity
  8
0
100
AcDbLine
 10
826.0648390014601
 20
303.7526491201528
 30
0.0
 11
823.2798390014597
 21
305.3605696198463
 31
0.0
1001
ACAD
1000
ASC_BOUNDS
1002
{
1070
    19
1002
}
  0
LINE
  5
3D2B
330
2
100
AcDbEntity
  8
0
100
AcDbLine
 10
826.64483900146
 20
299.7526491201528
 30
0.0
 11
816.9148390014603
 21
299.7526491201528
 31
0.0
  0
LINE
  5
3D2C
330
2
100
AcDbEntity
  8
0
100
AcDbLine
 10
826.0648390014601
 20
303.7526491201529
 30
0.0
 11
817.4948390014602
 21
303.7526491201529
 31
0.0
  0
LINE
  5
3D2D
330
2
100
AcDbEntity
  8
0
100
AcDbLine
 10
829.2798390014601
 20
284.2898277792215
 30
0.0
 11
814.2798390014601
 21
284.2898277792215
 31
0.0
1001
ACAD
1000
ASC_BOUNDS
1002
{
1070
    19
1002
}
  0
ARC
  5
3D2E
330
2
100
AcDbEntity
  8
0
100
AcDbCircle
 10
821.7798390014598
 20
223.2154704610788
 30
0.0
 40
61.00000000000532
100
AcDbArc
 50
82.93756644623535
 51
97.06243355376464
  0
LINE
  5
3D2F
330
2
100
AcDbEntity
  8
0
100
AcDbLine
 10
814.2798390014601
 20
284.2898277792215
 30
0.0
 11
814.2798390014601
 21
283.7526491201528
 31
0.0
1001
ACAD
1000
ASC_BOUNDS
1002
{
1070
    19
1002
}
  0
LINE
  5
3D30
330
2
100
AcDbEntity
  8
0
100
AcDbLine
 10
826.0648390014601
 20
303.7526491201529
 30
0.0
 11
826.0648390014601
 21
284.8698277792214
 31
0.0
1001
ACAD
1000
ASC_BOUNDS
1002
{
1070
    19
1002
}
  0
LINE
  5
3D31
330
2
100
AcDbEntity
  8
LINIE
 48
10.0
100
AcDbLine
 10
826.64483900146
 20
299.7526491201528
 30
0.0
 11
826.64483900146
 21
284.2898277792215
 31
0.0
  0
LINE
  5
3D32
330
2
100
AcDbEntity
  8
0
100
AcDbLine
 10
826.64483900146
 20
284.2898277792215
 30
0.0
 11
826.0648390014601
 21
284.8698277792215
 31
0.0
1001
ACAD
1000
ASC_BOUNDS
1002
{
1070
    19
1002
}
  0
LINE
  5
3D33
330
2
100
AcDbEntity
  8
0
100
AcDbLine
 10
817.4948390014602
 20
303.7526491201528
 30
0.0
 11
817.4948390014602
 21
284.8698277792215
 31
0.0
1001
ACAD
1000
ASC_BOUNDS
1002
{
1070
    19
1002
}
  0
LINE
  5
3D34
330
2
100
AcDbEntity
  8
LINIE
 48
10.0
100
AcDbLine
 10
816.9148390014603
 20
299.7526491201528
 30
0.0
 11
816.9148390014601
 21
284.2898277792215
 31
0.0
  0
LINE
  5
3D35
330
2
100
AcDbEntity
  8
0
100
AcDbLine
 10
816.9148390014601
 20
284.2898277792215
 30
0.0
 11
817.4948390014602
 21
284.8698277792215
 31
0.0
1001
ACAD
1000
ASC_BOUNDS
1002
{
1070
    19
1002
}
  0
LINE
  5
3D36
330
2
100
AcDbEntity
  8
0
100
AcDbLine
 10
826.0648390014601
 20
284.8698277792215
 30
0.0
 11
817.49483900146
 21
284.8698277792215
 31
0.0
  0
LINE
  5
3D37
330
2
100
AcDbEntity
  8
0
100
AcDbLine
 10
829.2798390014601
 20
284.2898277792215
 30
0.0
 11
829.2798390014601
 21
283.7526491201528
 31
0.0
1001
ACAD
1000
ASC_BOUNDS
1002
{
1070
    19
1002
}
  0
ENDSEC
  0
SECTION
  2
OBJECTS
  0
DICTIONARY
  5
1B
330
0
100
AcDbDictionary
  3
ACAD_GROUP
350
19
  3
ACAD_LAYOUT
350
2A6
  3
ACAD_MLINESTYLE
350
1A
  3
ACAD_PLOTSETTINGS
350
2A7
  3
ACAD_PLOTSTYLENAME
350
2A4
  3
ACDBVARIABLEDICTIONARY
350
271
  3
ACMDICTIONARY
350
24F
  3
AMG
350
2B0
  3
AMGSNAPSETTINGS
350
31B
  3
DWGPROPS
350
45AF
  3
ACDBHEADERROUNDTRIPXREC
350
4628
  0
DICTIONARY
  5
3
330
2
100
AcDbDictionary
280
     1
  3
ACAD_INDEX
360
45B1
  3
ACAD_LAYOUTSELFREF
360
4649
  0
DICTIONARY
  5
464A
330
8
100
AcDbDictionary
280
     1
  3
ACAD_LAYOUTSELFREF
360
464B
  0
DICTIONARY
  5
19
102
{ACAD_REACTORS
330
1B
102
}
330
1B
100
AcDbDictionary
  0
DICTIONARY
  5
2A6
102
{ACAD_REACTORS
330
1B
102
}
330
1B
100
AcDbDictionary
  0
DICTIONARY
  5
1A
102
{ACAD_REACTORS
330
1B
102
}
330
1B
100
AcDbDictionary
  3
STANDARD
350
1C
  0
DICTIONARY
  5
2A7
102
{ACAD_REACTORS
330
1B
102
}
330
1B
100
AcDbDictionary
  0
ACDBDICTIONARYWDFLT
  5
2A4
102
{ACAD_REACTORS
330
1B
102
}
330
1B
100
AcDbDictionary
281
     1
  3
Normal
350
2A5
100
AcDbDictionaryWithDefault
340
2A5
  0
DICTIONARY
  5
271
102
{ACAD_REACTORS
330
1B
102
}
330
1B
100
AcDbDictionary
  3
INDEXCTL
350
272
  0
DICTIONARY
  5
24F
102
{ACAD_REACTORS
330
1B
102
}
330
1B
100
AcDbDictionary
280
     1
  3
ACMSTDDICTIONARY
360
250
  0
DICTIONARY
  5
2B0
102
{ACAD_REACTORS
330
1B
102
}
330
1B
100
AcDbDictionary
  3
ACMGSETTINGS
350
2B1
  0
DICTIONARY
  5
31B
102
{ACAD_REACTORS
330
1B
102
}
330
1B
100
AcDbDictionary
  0
XRECORD
  5
45AF
102
{ACAD_REACTORS
330
1B
102
}
330
1B
100
AcDbXrecord
  1
DWGPROPS COOKIE
  2

  3

  4

  6

  7

  8

  9

300
AmdtFileType=84
301
=
302
=
303
=
304
=
305
=
306
=
307
=
308
=
309
=
 40
1.962635775462962
 41
2450848.795139884
 42
2452067.553485775
  1

 90
        1
  0
DICTIONARY
  5
4628
102
{ACAD_REACTORS
330
1B
102
}
330
1B
100
AcDbDictionary
  3
TSTACKALIGN
350
4629
  3
TSTACKSIZE
350
462A
  3
HYPERLINKBASE
350
462B
  3
STYLESHEET
350
462C
  3
LAYOUTDICT
350
462D
  3
PLOTSETDICT
350
462E
  3
PLOTSTYLNAMDICT
350
462F
  3
LWETCUNION
350
4630
  3
INSUNITS
350
4631
  3
CEPSNTYPE
350
4632
  3
FINGERPRINTGUID
350
4633
  3
VERSIONGUID
350
4634
  3
PSVPSCALE
350
4635
  3
DIMSTYLEDATA
350
4636
  3
PUCSORTHOREF
350
4637
  3
PUCSORTHOVIEW
350
4638
  3
PUCSBASE
350
4639
  3
PUCSORGTOP
350
463A
  3
PUCSORGBOTTOM
350
463B
  3
PUCSORGLEFT
350
463C
  3
PUCSORGRIGHT
350
463D
  3
PUCSORGFRONT
350
463E
  3
PUCSORGBACK
350
463F
  3
UCSORTHOREF
350
4640
  3
UCSORTHOVIEW
350
4641
  3
UCSBASE
350
4642
  3
UCSORGTOP
350
4643
  3
UCSORGBOTTOM
350
4644
  3
UCSORGLEFT
350
4645
  3
UCSORGRIGHT
350
4646
  3
UCSORGFRONT
350
4647
  3
UCSORGBACK
350
4648
  0
DICTIONARY
  5
45B1
102
{ACAD_REACTORS
330
3
102
}
330
3
100
AcDbDictionary
  3
*A1
350
45B2
  0
XRECORD
  5
4649
102
{ACAD_REACTORS
330
3
102
}
330
3
100
AcDbXrecord
340
2
  0
XRECORD
  5
464B
102
{ACAD_REACTORS
330
464A
102
}
330
464A
100
AcDbXrecord
340
8
  0
MLINESTYLE
  5
1C
102
{ACAD_REACTORS
330
1A
102
}
330
1A
100
AcDbMlineStyle
  2
STANDARD
 70
     0
  3

 62
     0
 51
90.0
 52
90.0
 71
     2
 49
0.5
 62
   256
  6
BYLAYER
 49
-0.5
 62
   256
  6
BYLAYER
  0
ACDBPLACEHOLDER
  5
2A5
102
{ACAD_REACTORS
330
2A4
102
}
330
2A4
100
AcDbPlaceHolder
280
     0
  0
DICTIONARYVAR
  5
272
102
{ACAD_REACTORS
330
271
102
}
330
271
100
DictionaryVariables
280
     0
  1
1
  0
DICTIONARY
  5
250
102
{ACAD_REACTORS
330
24F
102
}
330
24F
100
AcDbDictionary
  0
DICTIONARY
  5
2B1
102
{ACAD_REACTORS
330
2B0
102
}
330
2B0
100
AcDbDictionary
  3
DWGSETTINGS
350
2B2
  0
XRECORD
  5
4629
102
{ACAD_REACTORS
330
4628
102
}
330
4628
100
AcDbXrecord
 90
        1
  0
XRECORD
  5
462A
102
{ACAD_REACTORS
330
4628
102
}
330
4628
100
AcDbXrecord
 90
       70
  0
XRECORD
  5
462B
102
{ACAD_REACTORS
330
4628
102
}
330
4628
100
AcDbXrecord
  1

  0
XRECORD
  5
462C
102
{ACAD_REACTORS
330
4628
102
}
330
4628
100
AcDbXrecord
  1
Test.ctb
  0
XRECORD
  5
462D
102
{ACAD_REACTORS
330
4628
102
}
330
4628
100
AcDbXrecord
340
2A6
  0
XRECORD
  5
462E
102
{ACAD_REACTORS
330
4628
102
}
330
4628
100
AcDbXrecord
340
2A7
  0
XRECORD
  5
462F
102
{ACAD_REACTORS
330
4628
102
}
330
4628
100
AcDbXrecord
340
2A4
  0
XRECORD
  5
4630
102
{ACAD_REACTORS
330
4628
102
}
330
4628
100
AcDbXrecord
 90
    14877
  0
XRECORD
  5
4631
102
{ACAD_REACTORS
330
4628
102
}
330
4628
100
AcDbXrecord
 90
        0
  0
XRECORD
  5
4632
102
{ACAD_REACTORS
330
4628
102
}
330
4628
100
AcDbXrecord
 90
        0
  0
XRECORD
  5
4633
102
{ACAD_REACTORS
330
4628
102
}
330
4628
100
AcDbXrecord
  1
{0A899A16-FCCB-11D4-B79C-0010B575C074}
  0
XRECORD
  5
4634
102
{ACAD_REACTORS
330
4628
102
}
330
4628
100
AcDbXrecord
  1
{94DBA8A1-5A6D-11D5-B7FB-0010B575C074}
  0
XRECORD
  5
4635
102
{ACAD_REACTORS
330
4628
102
}
330
4628
100
AcDbXrecord
 40
0.0
  0
XRECORD
  5
4636
102
{ACAD_REACTORS
330
4628
102
}
330
4628
100
AcDbXrecord
1000
DSTYLE
1002
{
1070
   289
 70
     0
1002
}
  0
XRECORD
  5
4637
102
{ACAD_REACTORS
330
4628
102
}
330
4628
100
AcDbXrecord
340
0
  0
XRECORD
  5
4638
102
{ACAD_REACTORS
330
4628
102
}
330
4628
100
AcDbXrecord
 70
     0
  0
XRECORD
  5
4639
102
{ACAD_REACTORS
330
4628
102
}
330
4628
100
AcDbXrecord
340
0
  0
XRECORD
  5
463A
102
{ACAD_REACTORS
330
4628
102
}
330
4628
100
AcDbXrecord
 10
0.0
 20
0.0
 30
0.0
  0
XRECORD
  5
463B
102
{ACAD_REACTORS
330
4628
102
}
330
4628
100
AcDbXrecord
 10
0.0
 20
0.0
 30
0.0
  0
XRECORD
  5
463C
102
{ACAD_REACTORS
330
4628
102
}
330
4628
100
AcDbXrecord
 10
0.0
 20
0.0
 30
0.0
  0
XRECORD
  5
463D
102
{ACAD_REACTORS
330
4628
102
}
330
4628
100
AcDbXrecord
 10
0.0
 20
0.0
 30
0.0
  0
XRECORD
  5
463E
102
{ACAD_REACTORS
330
4628
102
}
330
4628
100
AcDbXrecord
 10
0.0
 20
0.0
 30
0.0
  0
XRECORD
  5
463F
102
{ACAD_REACTORS
330
4628
102
}
330
4628
100
AcDbXrecord
 10
0.0
 20
0.0
 30
0.0
  0
XRECORD
  5
4640
102
{ACAD_REACTORS
330
4628
102
}
330
4628
100
AcDbXrecord
340
0
  0
XRECORD
  5
4641
102
{ACAD_REACTORS
330
4628
102
}
330
4628
100
AcDbXrecord
 70
     0
  0
XRECORD
  5
4642
102
{ACAD_REACTORS
330
4628
102
}
330
4628
100
AcDbXrecord
340
0
  0
XRECORD
  5
4643
102
{ACAD_REACTORS
330
4628
102
}
330
4628
100
AcDbXrecord
 10
0.0
 20
0.0
 30
0.0
  0
XRECORD
  5
4644
102
{ACAD_REACTORS
330
4628
102
}
330
4628
100
AcDbXrecord
 10
0.0
 20
0.0
 30
0.0
  0
XRECORD
  5
4645
102
{ACAD_REACTORS
330
4628
102
}
330
4628
100
AcDbXrecord
 10
0.0
 20
0.0
 30
0.0
  0
XRECORD
  5
4646
102
{ACAD_REACTORS
330
4628
102
}
330
4628
100
AcDbXrecord
 10
0.0
 20
0.0
 30
0.0
  0
XRECORD
  5
4647
102
{ACAD_REACTORS
330
4628
102
}
330
4628
100
AcDbXrecord
 10
0.0
 20
0.0
 30
0.0
  0
XRECORD
  5
4648
102
{ACAD_REACTORS
330
4628
102
}
330
4628
100
AcDbXrecord
 10
0.0
 20
0.0
 30
0.0
  0
LAYER_INDEX
  5
45B2
102
{ACAD_REACTORS
330
45B1
102
}
330
45B1
100
AcDbIndex
 40
2452067.576719826
100
AcDbLayerIndex
  8
0
360
45B3
 90
      367
  8
BEM
360
45B4
 90
        3
  8
MITTE
360
45B5
 90
       38
  8
LINIE
360
45B6
 90
       48
  8
SCHRAFF
360
45B7
 90
        2
  0
XRECORD
  5
2B2
102
{ACAD_REACTORS
330
2B1
102
}
330
2B1
100
AcDbXrecord
  1
VERSION
140
15.0
  1
PRODUCT
  2
AutoCAD Mechanical 2000
  0
IDBUFFER
  5
45B3
330
0
100
AcDbIdBuffer
330
16E8
330
16E9
330
16EA
330
16EB
330
16EC
330
16EE
330
16EF
330
16F0
330
16F1
330
16F2
330
16F3
330
16F4
330
16F5
330
16F6
330
16F7
330
16F8
330
16F9
330
16FA
330
16FB
330
16FC
330
16FE
330
16FF
330
1700
330
1701
330
1702
330
1703
330
1705
330
1706
330
1707
330
1708
330
1709
330
170A
330
170B
330
170C
330
170E
330
170F
330
1710
330
1711
330
1712
330
1713
330
1714
330
1715
330
1717
330
1718
330
1719
330
171A
330
171B
330
171C
330
171D
330
171E
330
171F
330
1720
330
1721
330
1722
330
1723
330
1724
330
1725
330
1726
330
1727
330
1728
330
1729
330
172B
330
172C
330
172D
330
172E
330
172F
330
1730
330
1731
330
1732
330
1733
330
1734
330
1735
330
1736
330
1737
330
1738
330
1739
330
173A
330
173B
330
173C
330
173D
330
173E
330
173F
330
1740
330
1741
330
1742
330
1743
330
1744
330
1745
330
1748
330
174D
330
174E
330
174F
330
1750
330
1751
330
1752
330
1753
330
1754
330
1756
330
1757
330
1758
330
1759
330
175A
330
175C
330
175D
330
175E
330
175F
330
1766
330
1769
330
176D
330
176F
330
3D0B
330
3D17
330
3D1F
330
3D28
330
3D29
330
3D2A
330
3D2B
330
3D2C
330
3D2D
330
3D2E
330
3D2F
330
3D30
330
3D32
330
3D33
330
3D35
330
3D36
330
3D37
330
15AB
330
15AC
330
15AD
330
15AE
330
15B0
330
15B1
330
15B2
330
15B3
330
15B6
330
15BA
330
15BB
330
15BC
330
15BD
330
15BE
330
15BF
330
15C0
330
15C1
330
15C3
330
15C4
330
15C5
330
15C7
330
15C8
330
15C9
330
15CA
330
15CB
330
15CC
330
15D2
330
15D3
330
15D4
330
15D5
330
15D6
330
15D7
330
15D9
330
15DA
330
15DB
330
15DC
330
15DD
330
15DE
330
15DF
330
15E0
330
15E1
330
15E2
330
15E3
330
15E4
330
15E6
330
15EC
330
15ED
330
15EE
330
15EF
330
15F0
330
15F3
330
15F4
330
15F5
330
15F6
330
15F7
330
15F8
330
15F9
330
15FA
330
15FC
330
15FD
330
15FE
330
15FF
330
1600
330
1601
330
1602
330
1603
330
1604
330
1605
330
1606
330
1607
330
1608
330
1609
330
160A
330
160B
330
160C
330
160D
330
160E
330
160F
330
1610
330
1611
330
1612
330
1613
330
1614
330
1615
330
1616
330
1617
330
1618
330
1619
330
161A
330
161B
330
161C
330
161D
330
161E
330
1620
330
1622
330
1623
330
1624
330
1625
330
1626
330
1627
330
1628
330
1629
330
162A
330
162B
330
162C
330
162D
330
162E
330
162F
330
1630
330
1632
330
1633
330
1634
330
1635
330
1636
330
1637
330
1638
330
1639
330
1640
330
1641
330
1642
330
1643
330
1645
330
1647
330
1649
330
164A
330
164B
330
164C
330
164E
330
1650
330
1651
330
1652
330
1653
330
1654
330
1655
330
1656
330
1657
330
1658
330
1659
330
165A
330
165C
330
165D
330
165E
330
165F
330
1662
330
1663
330
1664
330
1665
330
1666
330
1667
330
1668
330
1669
330
166A
330
166B
330
166C
330
166D
330
166E
330
1671
330
1674
330
1675
330
1677
330
1678
330
1679
330
167F
330
1680
330
1681
330
1682
330
1683
330
1687
330
1688
330
1689
330
168A
330
168B
330
168C
330
168D
330
168E
330
168F
330
1690
330
1691
330
1692
330
1695
330
1696
330
1697
330
1698
330
169A
330
169B
330
169C
330
169D
330
169E
330
169F
330
16A0
330
16A1
330
16A2
330
16A3
330
16A4
330
16A5
330
16A6
330
16A7
330
16A8
330
16A9
330
16AA
330
16AB
330
16AC
330
16AD
330
16AE
330
16AF
330
16B0
330
16B1
330
16B2
330
16B3
330
16B4
330
16B5
330
16B6
330
16B7
330
16B8
330
16B9
330
16BC
330
16BD
330
16BE
330
16BF
330
16C0
330
16C1
330
16C4
330
16C5
330
16C6
330
16C7
330
16C8
330
16CA
330
16CB
330
16CC
330
16D1
330
16D2
330
16DD
330
16DF
330
16E0
330
16E1
330
16E2
330
16E3
330
16E5
330
16E6
330
16E7
  0
IDBUFFER
  5
45B4
330
0
100
AcDbIdBuffer
330
1D2
330
1D5
330
1255
  0
IDBUFFER
  5
45B5
330
0
100
AcDbIdBuffer
330
1660
330
166F
330
1670
330
1676
330
16CE
330
16ED
330
16FD
330
1716
330
172A
330
1747
330
1749
330
1760
330
1761
330
1762
330
1764
330
1765
330
1767
330
1768
330
176B
330
176C
330
176E
330
3D26
330
15AF
330
15C6
330
15D0
330
15E7
330
15E8
330
15F1
330
15F2
330
163C
330
163D
330
163E
330
1644
330
1646
330
1648
330
164D
330
164F
330
165B
  0
IDBUFFER
  5
45B6
330
0
100
AcDbIdBuffer
330
16DC
330
16DE
330
16E4
330
1746
330
3D08
330
3D09
330
3D0C
330
3D0D
330
3D0E
330
3D0F
330
3D10
330
3D11
330
3D12
330
3D13
330
3D14
330
3D15
330
3D16
330
3D18
330
3D19
330
3D1A
330
3D1B
330
3D1C
330
3D1D
330
3D1E
330
3D20
330
3D21
330
3D22
330
3D23
330
3D24
330
3D27
330
3D31
330
3D34
330
15B5
330
15B8
330
15B9
330
15C2
330
15E5
330
1631
330
163F
330
1661
330
167C
330
1685
330
1686
330
1693
330
1694
330
16BA
330
16BB
330
16DB
  0
IDBUFFER
  5
45B7
330
0
100
AcDbIdBuffer
330
3D0A
330
3D25
  0
ENDSEC
  0
EOF
