  0
SECTION
  2
HEADER
  9
$ACADVER
  1
AC1014
  9
$ACADMAINTVER
 70
     9
  9
$DWGCODEPAGE
  3
ANSI_1252
  9
$INSBASE
 10
0.0
 20
0.0
 30
0.0
  9
$EXTMIN
 10
200.1120852267626
 20
149.2598825013267
 30
-0.00000001
  9
$EXTMAX
 10
1064.408154892383
 20
339.0300879519734
 30
0.00000001
  9
$LIMMIN
 10
0.0
 20
0.0
  9
$LIMMAX
 10
1250.0
 20
500.0
  9
$ORTHOMODE
 70
     1
  9
$REGENMODE
 70
     1
  9
$FILLMODE
 70
     1
  9
$QTEXTMODE
 70
     0
  9
$MIRRTEXT
 70
     1
  9
$DRAGMODE
 70
     2
  9
$LTSCALE
 40
1.0
  9
$OSMODE
 70
   545
  9
$ATTMODE
 70
     1
  9
$TEXTSIZE
 40
10.0
  9
$TRACEWID
 40
1.0
  9
$TEXTSTYLE
  7
STANDARD
  9
$CLAYER
  8
0
  9
$CELTYPE
  6
BYLAYER
  9
$CECOLOR
 62
   256
  9
$CELTSCALE
 40
10.0
  9
$DELOBJ
 70
     1
  9
$DISPSILH
 70
     0
  9
$DIMSCALE
 40
1.0
  9
$DIMASZ
 40
7.0
  9
$DIMEXO
 40
0.0
  9
$DIMDLI
 40
7.0
  9
$DIMRND
 40
0.0
  9
$DIMDLE
 40
0.0
  9
$DIMEXE
 40
1.25
  9
$DIMTP
 40
0.0
  9
$DIMTM
 40
0.0
  9
$DIMTXT
 40
10.0
  9
$DIMCEN
 40
0.0
  9
$DIMTSZ
 40
0.0
  9
$DIMTOL
 70
     0
  9
$DIMLIM
 70
     0
  9
$DIMTIH
 70
     0
  9
$DIMTOH
 70
     0
  9
$DIMSE1
 70
     0
  9
$DIMSE2
 70
     0
  9
$DIMTAD
 70
     1
  9
$DIMZIN
 70
     8
  9
$DIMBLK
  1

  9
$DIMASO
 70
     1
  9
$DIMSHO
 70
     1
  9
$DIMPOST
  1

  9
$DIMAPOST
  1

  9
$DIMALT
 70
     0
  9
$DIMALTD
 70
     2
  9
$DIMALTF
 40
25.4
  9
$DIMLFAC
 40
1.0
  9
$DIMTOFL
 70
     1
  9
$DIMTVP
 40
0.0
  9
$DIMTIX
 70
     0
  9
$DIMSOXD
 70
     0
  9
$DIMSAH
 70
     0
  9
$DIMBLK1
  1

  9
$DIMBLK2
  1

  9
$DIMSTYLE
  2
ISO-25
  9
$DIMCLRD
 70
   256
  9
$DIMCLRE
 70
   256
  9
$DIMCLRT
 70
   256
  9
$DIMTFAC
 40
1.0
  9
$DIMGAP
 40
4.0
  9
$DIMJUST
 70
     0
  9
$DIMSD1
 70
     0
  9
$DIMSD2
 70
     0
  9
$DIMTOLJ
 70
     1
  9
$DIMTZIN
 70
     8
  9
$DIMALTZ
 70
     0
  9
$DIMALTTZ
 70
     0
  9
$DIMFIT
 70
     0
  9
$DIMUPT
 70
     1
  9
$DIMUNIT
 70
     2
  9
$DIMDEC
 70
     4
  9
$DIMTDEC
 70
     4
  9
$DIMALTU
 70
     2
  9
$DIMALTTD
 70
     2
  9
$DIMTXSTY
  7
STANDARD
  9
$DIMAUNIT
 70
     0
  9
$LUNITS
 70
     2
  9
$LUPREC
 70
     4
  9
$SKETCHINC
 40
1.0
  9
$FILLETRAD
 40
2.5
  9
$AUNITS
 70
     0
  9
$AUPREC
 70
     0
  9
$MENU
  1
.
  9
$ELEVATION
 40
0.0
  9
$PELEVATION
 40
0.0
  9
$THICKNESS
 40
0.0
  9
$LIMCHECK
 70
     0
  9
$BLIPMODE
 70
     0
  9
$CHAMFERA
 40
2.0
  9
$CHAMFERB
 40
2.0
  9
$CHAMFERC
 40
0.0
  9
$CHAMFERD
 40
0.0
  9
$SKPOLY
 70
     0
  9
$TDCREATE
 40
2450848.795139884
  9
$TDUPDATE
 40
2452067.575721204
  9
$TDINDWG
 40
1.9815049537
  9
$TDUSRTIMER
 40
1.9815049537
  9
$USRTIMER
 70
     1
  9
$ANGBASE
 50
0.0
  9
$ANGDIR
 70
     0
  9
$PDMODE
 70
     0
  9
$PDSIZE
 40
0.0
  9
$PLINEWID
 40
0.5
  9
$COORDS
 70
     0
  9
$SPLFRAME
 70
     0
  9
$SPLINETYPE
 70
     6
  9
$SPLINESEGS
 70
     8
  9
$ATTDIA
 70
     1
  9
$ATTREQ
 70
     1
  9
$HANDLING
 70
 12289
  9
$HANDSEED
  5
460A
  9
$SURFTAB1
 70
     6
  9
$SURFTAB2
 70
     6
  9
$SURFTYPE
 70
     6
  9
$SURFU
 70
     6
  9
$SURFV
 70
     6
  9
$UCSNAME
  2

  9
$UCSORG
 10
0.0
 20
0.0
 30
0.0
  9
$UCSXDIR
 10
1.0
 20
0.0
 30
0.0
  9
$UCSYDIR
 10
0.0
 20
1.0
 30
0.0
  9
$PUCSNAME
  2

  9
$PUCSORG
 10
0.0
 20
0.0
 30
0.0
  9
$PUCSXDIR
 10
1.0
 20
0.0
 30
0.0
  9
$PUCSYDIR
 10
0.0
 20
1.0
 30
0.0
  9
$USERI1
 70
     0
  9
$USERI2
 70
     0
  9
$USERI3
 70
     0
  9
$USERI4
 70
     0
  9
$USERI5
 70
     0
  9
$USERR1
 40
0.0
  9
$USERR2
 40
0.0
  9
$USERR3
 40
0.0
  9
$USERR4
 40
0.0
  9
$USERR5
 40
0.0
  9
$WORLDVIEW
 70
     1
  9
$SHADEDGE
 70
     3
  9
$SHADEDIF
 70
    70
  9
$TILEMODE
 70
     1
  9
$MAXACTVP
 70
    16
  9
$PINSBASE
 10
0.0
 20
0.0
 30
0.0
  9
$PLIMCHECK
 70
     0
  9
$PEXTMIN
 10
1.000000000000000E+20
 20
1.000000000000000E+20
 30
1.000000000000000E+20
  9
$PEXTMAX
 10
-1.000000000000000E+20
 20
-1.000000000000000E+20
 30
-1.000000000000000E+20
  9
$PLIMMIN
 10
0.0
 20
0.0
  9
$PLIMMAX
 10
420.0
 20
297.0
  9
$UNITMODE
 70
     0
  9
$VISRETAIN
 70
     0
  9
$PLINEGEN
 70
     0
  9
$PSLTSCALE
 70
     0
  9
$TREEDEPTH
 70
  3020
  9
$PICKSTYLE
 70
     3
  9
$CMLSTYLE
  2
STANDARD
  9
$CMLJUST
 70
     0
  9
$CMLSCALE
 40
1.0
  9
$PROXYGRAPHICS
 70
     1
  9
$MEASUREMENT
 70
     0
  0
ENDSEC
  0
SECTION
  2
CLASSES
  0
CLASS
  1
IDBUFFER
  2
AcDbIdBuffer
  3
AutoCAD 2000
 90
        0
280
     0
281
     0
  0
CLASS
  1
LWPOLYLINE
  2
AcDbPolyline
  3
AutoCAD 2000
 90
        0
280
     0
281
     1
  0
CLASS
  1
DICTIONARYVAR
  2
AcDbDictionaryVar
  3
AutoCAD 2000
 90
        0
280
     0
281
     0
  0
CLASS
  1
HATCH
  2
AcDbHatch
  3
AutoCAD 2000
 90
        0
280
     0
281
     1
  0
CLASS
  1
ACMESTATEMGR
  2
AcMeStateMgr
  3
AcMeServices
 90
        0
280
     0
281
     0
  0
CLASS
  1
ACMESCOPE
  2
AcMeScope
  3
AcMeServices
 90
        0
280
     0
281
     0
  0
CLASS
  1
ACMECOMMANDHISTORY
  2
AcMeCommandHistory
  3
AcMeServices
 90
        0
280
     0
281
     0
  0
CLASS
  1
ACRFINSADJUSTERMGR
  2
AcRfInsAdjusterMgr
  3
AcMeServices
 90
        0
280
     0
281
     0
  0
CLASS
  1
ACMEDRAWINGMAN
  2
AcMeDrawingMan
  3
AcMeServices
 90
        0
280
     0
281
     0
  0
CLASS
  1
AMATTR
  2
AcMeAttribute
  3
AcMeServices
 90
        0
280
     0
281
     0
  0
CLASS
  1
ACMEBOMCOLUMN
  2
AcMeBOMColumn
  3
AcMeServices
 90
        0
280
     0
281
     0
  0
CLASS
  1
ACANBOMCONF
  2
AcMeBOMConf
  3
AcMeServices
 90
        0
280
     0
281
     0
  0
CLASS
  1
ACMEBOMTABLE
  2
AcMeBOMTable
  3
AcMeServices
 90
        0
280
     0
281
     0
  0
CLASS
  1
ACMEBOMENTRY
  2
AcMeBOMEntry
  3
AcMeServices
 90
        0
280
     0
281
     0
  0
CLASS
  1
ACMEVIEW
  2
AcMeView
  3
AcMeServices
 90
        0
280
     0
281
     0
  0
CLASS
  1
LAYER_INDEX
  2
AcDbLayerIndex
  3
AutoCAD 2000
 90
        0
280
     0
281
     0
  0
CLASS
  1
ACIMSYSVARMAN
  2
AcImSysVarManager
  3
AcMeServices
 90
        0
280
     0
281
     0
  0
CLASS
  1
ACIMINTSYSVAR
  2
AcImIntSysVar
  3
AcMeServices
 90
        0
280
     0
281
     0
  0
CLASS
  1
ACIMSTRSYSVAR
  2
AcImStrSysVar
  3
AcMeServices
 90
        0
280
     0
281
     0
  0
CLASS
  1
ACMSTANDARDJIS
  2
AcmStandardJIS
  3
"AcmSymBB|Product Description: AutoCAD Mechanical 2000|Company: Autodesk"
 90
        0
280
     0
281
     0
  0
CLASS
  1
ACMSTANDARDANSI
  2
AcmStandardANSI
  3
"AcmSymBB|Product Description: AutoCAD Mechanical 2000|Company: Autodesk"
 90
        0
280
     0
281
     0
  0
CLASS
  1
ACMSTANDARDBSI
  2
AcmStandardBSI
  3
"AcmSymBB|Product Description: AutoCAD Mechanical 2000|Company: Autodesk"
 90
        0
280
     0
281
     0
  0
CLASS
  1
ACMSTANDARDDIN
  2
AcmStandardDIN
  3
"AcmSymBB|Product Description: AutoCAD Mechanical 2000|Company: Autodesk"
 90
        0
280
     0
281
     0
  0
CLASS
  1
ACMSTANDARDISO
  2
AcmStandardISO
  3
"AcmSymBB|Product Description: AutoCAD Mechanical 2000|Company: Autodesk"
 90
        0
280
     0
281
     0
  0
CLASS
  1
ACDBDICTIONARYWDFLT
  2
AcDbDictionaryWithDefault
  3
AutoCAD 2000
 90
        0
280
     0
281
     0
  0
CLASS
  1
ACDBPLACEHOLDER
  2
AcDbPlaceHolder
  3
AutoCAD 2000
 90
        0
280
     0
281
     0
  0
CLASS
  1
LAYOUT
  2
AcDbLayout
  3
AutoCAD 2000
 90
        0
280
     0
281
     0
  0
CLASS
  1
ACME_DOCUMENT
  2
AcMeDbDoc
  3
AcMeServices
 90
        0
280
     0
281
     0
  0
CLASS
  1
AMGSETTINGSOBJ
  2
AmgSettingsObj
  3
"AcadM|Product Description: AutoCAD Mechanical 2000|Company: Autodesk"
 90
        0
280
     0
281
     0
  0
CLASS
  1
ACIMREALSYSVAR
  2
AcImRealSysVar
  3
AcMeServices
 90
        0
280
     0
281
     0
  0
CLASS
  1
ACDBENTITYCACHE
  2
AcMeEntityCache
  3
AcMeServices
 90
        0
280
     0
281
     0
  0
CLASS
  1
GSMANAGER
  2
AcMeGSManager
  3
AcMeServices
 90
        0
280
     0
281
     0
  0
CLASS
  1
AmdtInternalReactor
  2
AmdtInternalReactor
  3
AcMeServices
 90
        0
280
     0
281
     0
  0
CLASS
  1
ACME_DATABASE
  2
AcMeDbDatabase
  3
AcMeServices
 90
        0
280
     0
281
     0
  0
CLASS
  1
ACMDATADICTIONARY
  2
AcmDataDictionary
  3
"AcmSymBB|Product Description: AutoCAD Mechanical 2000|Company: Autodesk"
 90
        0
280
     0
281
     0
  0
CLASS
  1
ACMDATAENTRYBLOCK
  2
AcmDataEntryBlock
  3
"AcmSymBB|Product Description: AutoCAD Mechanical 2000|Company: Autodesk"
 90
        0
280
     0
281
     0
  0
CLASS
  1
ACMSURFSTANDARDJIS
  2
AcmSurfTextStdJIS
  3
"AcmSymBB|Product Description: AutoCAD Mechanical 2000|Company: Autodesk"
 90
        0
280
     0
281
     0
  0
CLASS
  1
ACMFCFSTANDARDJIS
  2
AcmFCFStdJIS
  3
"AcmSymBB|Product Description: AutoCAD Mechanical 2000|Company: Autodesk"
 90
        0
280
     0
281
     0
  0
CLASS
  1
ACMWELDSTANDARDJIS
  2
AcmWeldingStdJIS
  3
"AcmSymBB|Product Description: AutoCAD Mechanical 2000|Company: Autodesk"
 90
        0
280
     0
281
     0
  0
CLASS
  1
ACMIDSTANDARDJIS
  2
AcmIdStdJIS
  3
"AcmSymBB|Product Description: AutoCAD Mechanical 2000|Company: Autodesk"
 90
        0
280
     0
281
     0
  0
CLASS
  1
ACMDATUMSTANDARDJIS
  2
AcmDatumStdJIS
  3
"AcmSymBB|Product Description: AutoCAD Mechanical 2000|Company: Autodesk"
 90
        0
280
     0
281
     0
  0
CLASS
  1
ACMBOMSTANDARDJIS
  2
AcmBOMStdJIS
  3
"AcmSymBB|Product Description: AutoCAD Mechanical 2000|Company: Autodesk"
 90
        0
280
     0
281
     0
  0
CLASS
  1
AMGOBJPROPCFG
  2
AmgObjPropCfg
  3
"AmgLay|Product Description: AutoCAD Mechanical 2000|Company: Autodesk"
 90
        1
280
     0
281
     0
  0
CLASS
  1
ACMSURFSTANDARDANSI
  2
AcmSurfTextStdANSI
  3
"AcmSymBB|Product Description: AutoCAD Mechanical 2000|Company: Autodesk"
 90
        0
280
     0
281
     0
  0
CLASS
  1
ACMFCFSTANDARDANSI
  2
AcmFCFStdANSI
  3
"AcmSymBB|Product Description: AutoCAD Mechanical 2000|Company: Autodesk"
 90
        0
280
     0
281
     0
  0
CLASS
  1
ACMWELDSTANDARDANSI
  2
AcmWeldingStdANSI
  3
"AcmSymBB|Product Description: AutoCAD Mechanical 2000|Company: Autodesk"
 90
        0
280
     0
281
     0
  0
CLASS
  1
ACMIDSTANDARDANSI
  2
AcmIdStdANSI
  3
"AcmSymBB|Product Description: AutoCAD Mechanical 2000|Company: Autodesk"
 90
        0
280
     0
281
     0
  0
CLASS
  1
ACMDATUMSTANDARDANSI
  2
AcmDatumStdANSI
  3
"AcmSymBB|Product Description: AutoCAD Mechanical 2000|Company: Autodesk"
 90
        0
280
     0
281
     0
  0
CLASS
  1
ACMBOMSTANDARDANSI
  2
AcmBOMStdANSI
  3
"AcmSymBB|Product Description: AutoCAD Mechanical 2000|Company: Autodesk"
 90
        0
280
     0
281
     0
  0
CLASS
  1
ACMSURFSTANDARDBSI
  2
AcmSurfTextStdBSI
  3
"AcmSymBB|Product Description: AutoCAD Mechanical 2000|Company: Autodesk"
 90
        0
280
     0
281
     0
  0
CLASS
  1
ACMFCFSTANDARDBSI
  2
AcmFCFStdBSI
  3
"AcmSymBB|Product Description: AutoCAD Mechanical 2000|Company: Autodesk"
 90
        0
280
     0
281
     0
  0
CLASS
  1
ACMWELDSTANDARDBSI
  2
AcmWeldingStdBSI
  3
"AcmSymBB|Product Description: AutoCAD Mechanical 2000|Company: Autodesk"
 90
        0
280
     0
281
     0
  0
CLASS
  1
ACMIDSTANDARDBSI
  2
AcmIdStdBSI
  3
"AcmSymBB|Product Description: AutoCAD Mechanical 2000|Company: Autodesk"
 90
        0
280
     0
281
     0
  0
CLASS
  1
ACMDATUMSTANDARDBSI
  2
AcmDatumStdBSI
  3
"AcmSymBB|Product Description: AutoCAD Mechanical 2000|Company: Autodesk"
 90
        0
280
     0
281
     0
  0
CLASS
  1
ACMBOMSTANDARDBSI
  2
AcmBOMStdBSI
  3
"AcmSymBB|Product Description: AutoCAD Mechanical 2000|Company: Autodesk"
 90
        0
280
     0
281
     0
  0
CLASS
  1
AMDTEDGESTANDARDDIN
  2
AmdtEdgeStdDIN
  3
"AcmSymBB|Product Description: AutoCAD Mechanical 2000|Company: Autodesk"
 90
        0
280
     0
281
     0
  0
CLASS
  1
ACMSURFSTANDARDDIN
  2
AcmSurfTextStdDIN
  3
"AcmSymBB|Product Description: AutoCAD Mechanical 2000|Company: Autodesk"
 90
        0
280
     0
281
     0
  0
CLASS
  1
ACMFCFSTANDARDDIN
  2
AcmFCFStdDIN
  3
"AcmSymBB|Product Description: AutoCAD Mechanical 2000|Company: Autodesk"
 90
        0
280
     0
281
     0
  0
CLASS
  1
ACMWELDSTANDARDDIN
  2
AcmWeldingStdDIN
  3
"AcmSymBB|Product Description: AutoCAD Mechanical 2000|Company: Autodesk"
 90
        0
280
     0
281
     0
  0
CLASS
  1
ACMIDSTANDARDDIN
  2
AcmIdStdDIN
  3
"AcmSymBB|Product Description: AutoCAD Mechanical 2000|Company: Autodesk"
 90
        0
280
     0
281
     0
  0
CLASS
  1
ACMDATUMSTANDARDDIN
  2
AcmDatumStdDIN
  3
"AcmSymBB|Product Description: AutoCAD Mechanical 2000|Company: Autodesk"
 90
        0
280
     0
281
     0
  0
CLASS
  1
ACMBOMSTANDARDDIN
  2
AcmBOMStdDIN
  3
"AcmSymBB|Product Description: AutoCAD Mechanical 2000|Company: Autodesk"
 90
        0
280
     0
281
     0
  0
CLASS
  1
AMDTEDGESTANDARDISO
  2
AmdtEdgeStdISO
  3
"AcmSymBB|Product Description: AutoCAD Mechanical 2000|Company: Autodesk"
 90
        0
280
     0
281
     0
  0
CLASS
  1
ACMSURFSTANDARDISO
  2
AcmSurfTextStdISO
  3
"AcmSymBB|Product Description: AutoCAD Mechanical 2000|Company: Autodesk"
 90
        0
280
     0
281
     0
  0
CLASS
  1
ACMFCFSTANDARDISO
  2
AcmFCFStdISO
  3
"AcmSymBB|Product Description: AutoCAD Mechanical 2000|Company: Autodesk"
 90
        0
280
     0
281
     0
  0
CLASS
  1
ACMWELDSTANDARDISO
  2
AcmWeldingStdISO
  3
"AcmSymBB|Product Description: AutoCAD Mechanical 2000|Company: Autodesk"
 90
        0
280
     0
281
     0
  0
CLASS
  1
ACMIDSTANDARDISO
  2
AcmIdStdISO
  3
"AcmSymBB|Product Description: AutoCAD Mechanical 2000|Company: Autodesk"
 90
        0
280
     0
281
     0
  0
CLASS
  1
ACMDATUMSTANDARDISO
  2
AcmDatumStdISO
  3
"AcmSymBB|Product Description: AutoCAD Mechanical 2000|Company: Autodesk"
 90
        0
280
     0
281
     0
  0
CLASS
  1
ACMBOMSTANDARDISO
  2
AcmBOMStdISO
  3
"AcmSymBB|Product Description: AutoCAD Mechanical 2000|Company: Autodesk"
 90
        0
280
     0
281
     0
  0
CLASS
  1
ACAMGFILTERDAT
  2
AcAmgFilterDat
  3
"AcadM|Product Description: AutoCAD Mechanical 2000|Company: Autodesk"
 90
        0
280
     0
281
     0
  0
CLASS
  1
ACMDIMBREAKPERSREACTOR
  2
AcmDimBreakPersReactor
  3
AutoCadMServices
 90
     1023
280
     0
281
     0
  0
CLASS
  1
LONG_TRANSACTION
  2
AcDbLongTransaction
  3
AutoCAD 2000
 90
        0
280
     0
281
     0
  0
CLASS
  1
LWPOLYLINE
  2
AcDbPolyline
  3
AutoCAD 2000
 90
        0
280
     0
281
     1
  0
CLASS
  1
HATCH
  2
AcDbHatch
  3
AutoCAD 2000
 90
        0
280
     0
281
     1
  0
CLASS
  1
XRECORD
  2
AcDbXrecord
  3
AutoCAD 2000
 90
        0
280
     0
281
     0
  0
ENDSEC
  0
SECTION
  2
TABLES
  0
TABLE
  2
VPORT
  5
13
330
0
100
AcDbSymbolTable
 70
     4
  0
VPORT
  5
45E5
330
13
100
AcDbSymbolTableRecord
100
AcDbViewportTableRecord
  2
*ACTIVE
 70
     0
 10
0.0
 20
0.0
 11
1.0
 21
1.0
 12
640.1625960771545
 22
240.1896360641448
 13
0.0
 23
0.0
 14
10.0
 24
10.0
 15
50.0
 25
50.0
 16
0.0
 26
0.0
 36
1.0
 17
0.0
 27
0.0
 37
0.0
 40
487.3887454554315
 41
1.981912144702842
 42
50.0
 43
0.0
 44
0.0
 50
0.0
 51
0.0
 71
     0
 72
   100
 73
     1
 74
     0
 75
     0
 76
     0
 77
     0
 78
     0
  0
ENDTAB
  0
TABLE
  2
LTYPE
  5
E
330
0
100
AcDbSymbolTable
 70
    19
  0
LTYPE
  5
F
330
E
100
AcDbSymbolTableRecord
100
AcDbLinetypeTableRecord
  2
BYBLOCK
 70
     0
  3

 72
    65
 73
     0
 40
0.0
  0
LTYPE
  5
10
330
E
100
AcDbSymbolTableRecord
100
AcDbLinetypeTableRecord
  2
BYLAYER
 70
     0
  3

 72
    65
 73
     0
 40
0.0
  0
LTYPE
  5
6
330
E
100
AcDbSymbolTableRecord
100
AcDbLinetypeTableRecord
  2
CONTINUOUS
 70
     0
  3
Solid line
 72
    65
 73
     0
 40
0.0
  0
LTYPE
  5
25
330
E
100
AcDbSymbolTableRecord
100
AcDbLinetypeTableRecord
  2
MITTE
 70
     0
  3
____ _ ____ _ ____ _ ____ _ ____ _ ____ _ ____ 
 72
    65
 73
     4
 40
2.0
 49
1.25
 74
     0
 49
-0.25
 74
     0
 49
0.25
 74
     0
 49
-0.25
 74
     0
  0
LTYPE
  5
6A
330
E
100
AcDbSymbolTableRecord
100
AcDbLinetypeTableRecord
  2
STRICHLINIE
 70
     0
  3
Strichlinie __ __ __ __ __ __ __ __ __ __ __ __
 72
    65
 73
     2
 40
0.75
 49
0.5
 74
     0
 49
-0.25
 74
     0
  0
LTYPE
  5
279
330
E
100
AcDbSymbolTableRecord
100
AcDbLinetypeTableRecord
  2
ACJISTGB
 70
     0
  3
__ . . __ . .
 72
    65
 73
     6
 40
9.0
 49
4.0
 74
     0
 49
-1.0
 74
     0
 49
1.0
 74
     0
 49
-1.0
 74
     0
 49
1.0
 74
     0
 49
-1.0
 74
     0
  0
LTYPE
  5
27A
330
E
100
AcDbSymbolTableRecord
100
AcDbLinetypeTableRecord
  2
ACJISTGL
 70
     0
  3
_ _ _ _ _
 72
    65
 73
     2
 40
3.0
 49
2.0
 74
     0
 49
-1.0
 74
     0
  0
LTYPE
  5
27D
330
E
100
AcDbSymbolTableRecord
100
AcDbLinetypeTableRecord
  2
ACANSTGB
 70
     0
  3
__ . . __ . .
 72
    65
 73
     6
 40
0.35433070866
 49
0.15748031496
 74
     0
 49
-0.03937007874
 74
     0
 49
0.03937007874
 74
     0
 49
-0.03937007874
 74
     0
 49
0.03937007874
 74
     0
 49
-0.03937007874
 74
     0
  0
LTYPE
  5
27E
330
E
100
AcDbSymbolTableRecord
100
AcDbLinetypeTableRecord
  2
ACANSTGL
 70
     0
  3
_ _ _ _ _
 72
    65
 73
     2
 40
0.11811023622
 49
0.07874015748
 74
     0
 49
-0.03937007874
 74
     0
  0
LTYPE
  5
281
330
E
100
AcDbSymbolTableRecord
100
AcDbLinetypeTableRecord
  2
ACBSIWELD
 70
     0
  3
_ _ _ _ _
 72
    65
 73
     2
 40
2.0
 49
2.0
 74
     0
 49
-1.0
 74
     0
  0
LTYPE
  5
282
330
E
100
AcDbSymbolTableRecord
100
AcDbLinetypeTableRecord
  2
ACBSITGB
 70
     0
  3
__ . . __ . .
 72
    65
 73
     6
 40
9.0
 49
4.0
 74
     0
 49
-1.0
 74
     0
 49
1.0
 74
     0
 49
-1.0
 74
     0
 49
1.0
 74
     0
 49
-1.0
 74
     0
  0
LTYPE
  5
283
330
E
100
AcDbSymbolTableRecord
100
AcDbLinetypeTableRecord
  2
ACBSITGL
 70
     0
  3
_ _ _ _ _
 72
    65
 73
     2
 40
3.0
 49
2.0
 74
     0
 49
-1.0
 74
     0
  0
LTYPE
  5
286
330
E
100
AcDbSymbolTableRecord
100
AcDbLinetypeTableRecord
  2
ACDINWELD
 70
     0
  3
_ _ _ _ _
 72
    65
 73
     2
 40
2.0
 49
2.0
 74
     0
 49
-1.0
 74
     0
  0
LTYPE
  5
287
330
E
100
AcDbSymbolTableRecord
100
AcDbLinetypeTableRecord
  2
ACDINTGB
 70
     0
  3
__ . . __ . .
 72
    65
 73
     6
 40
9.0
 49
4.0
 74
     0
 49
-1.0
 74
     0
 49
1.0
 74
     0
 49
-1.0
 74
     0
 49
1.0
 74
     0
 49
-1.0
 74
     0
  0
LTYPE
  5
288
330
E
100
AcDbSymbolTableRecord
100
AcDbLinetypeTableRecord
  2
ACDINTGL
 70
     0
  3
_ _ _ _ _
 72
    65
 73
     2
 40
3.0
 49
2.0
 74
     0
 49
-1.0
 74
     0
  0
LTYPE
  5
28B
330
E
100
AcDbSymbolTableRecord
100
AcDbLinetypeTableRecord
  2
ACISOWELD
 70
     0
  3
_ _ _ _ _
 72
    65
 73
     2
 40
2.0
 49
2.0
 74
     0
 49
-1.0
 74
     0
  0
LTYPE
  5
28C
330
E
100
AcDbSymbolTableRecord
100
AcDbLinetypeTableRecord
  2
ACISOTGB
 70
     0
  3
__ . . __ . .
 72
    65
 73
     6
 40
9.0
 49
4.0
 74
     0
 49
-1.0
 74
     0
 49
1.0
 74
     0
 49
-1.0
 74
     0
 49
1.0
 74
     0
 49
-1.0
 74
     0
  0
LTYPE
  5
28D
330
E
100
AcDbSymbolTableRecord
100
AcDbLinetypeTableRecord
  2
ACISOTGL
 70
     0
  3
_ _ _ _ _
 72
    65
 73
     2
 40
3.0
 49
2.0
 74
     0
 49
-1.0
 74
     0
  0
LTYPE
  5
2D1
330
E
100
AcDbSymbolTableRecord
100
AcDbLinetypeTableRecord
  2
AMCONSTR
 70
     0
  3
_______________________
 72
    65
 73
     2
 40
9999.0
 49
9999.0
 74
     0
 49
0.0
 74
     0
  0
LTYPE
  5
2D7
330
E
100
AcDbSymbolTableRecord
100
AcDbLinetypeTableRecord
  2
PHANTOM2
 70
     0
  3
Phantom (.5x) ___ _ _ ___ _ _ ___ _ _ ___ _ _
 72
    65
 73
     6
 40
1.25
 49
0.625
 74
     0
 49
-0.125
 74
     0
 49
0.125
 74
     0
 49
-0.125
 74
     0
 49
0.125
 74
     0
 49
-0.125
 74
     0
  0
LTYPE
  5
2D8
330
E
100
AcDbSymbolTableRecord
100
AcDbLinetypeTableRecord
  2
AMZIGZAG2
 70
     0
  3
/\/-/\/-/\/-/\/-/\/-/\/
 72
    65
 73
     2
 40
0.4401
 49
0.0001
 74
     4
 75
   135
340
2D5
 46
0.0016
 50
0.0
 44
0.0
 45
0.0
 49
-0.4400000000000001
 74
     0
  0
ENDTAB
  0
TABLE
  2
LAYER
  5
B
330
0
100
AcDbSymbolTable
 70
     6
  0
LAYER
  5
5
330
B
100
AcDbSymbolTableRecord
100
AcDbLayerTableRecord
  2
0
 70
     0
 62
     7
  6
CONTINUOUS
  0
LAYER
  5
2B
330
B
100
AcDbSymbolTableRecord
100
AcDbLayerTableRecord
  2
BEM
 70
     0
 62
     1
  6
CONTINUOUS
  0
LAYER
  5
24
330
B
100
AcDbSymbolTableRecord
100
AcDbLayerTableRecord
  2
MITTE
 70
     0
 62
     6
  6
MITTE
  0
LAYER
  5
27
330
B
100
AcDbSymbolTableRecord
100
AcDbLayerTableRecord
  2
LINIE
 70
     0
 62
     6
  6
CONTINUOUS
  0
LAYER
  5
34
330
B
100
AcDbSymbolTableRecord
100
AcDbLayerTableRecord
  2
DEFPOINTS
 70
     0
 62
     7
  6
CONTINUOUS
  0
LAYER
  5
3C5E
330
B
100
AcDbSymbolTableRecord
100
AcDbLayerTableRecord
  2
SCHRAFF
 70
     0
 62
    62
  6
CONTINUOUS
  0
ENDTAB
  0
TABLE
  2
STYLE
  5
C
330
0
100
AcDbSymbolTable
 70
    12
  0
STYLE
  5
D
330
C
100
AcDbSymbolTableRecord
100
AcDbTextStyleTableRecord
  2
STANDARD
 70
     0
 40
0.0
 41
1.0
 50
0.0
 71
     0
 42
10.0
  3
romans.shx
  4

  0
STYLE
  5
277
330
C
100
AcDbSymbolTableRecord
100
AcDbTextStyleTableRecord
  2
ACJISTS
 70
     0
 40
1.0
 41
1.0
 50
0.0
 71
     0
 42
10.0
  3
isocp.shx
  4
bigfont.shx
  0
STYLE
  5
278
330
C
100
AcDbSymbolTableRecord
100
AcDbTextStyleTableRecord
  2
ACJISGDT
 70
     0
 40
0.0
 41
1.0
 50
0.0
 71
     0
 42
10.0
  3
amgdt.shx
  4

  0
STYLE
  5
27B
330
C
100
AcDbSymbolTableRecord
100
AcDbTextStyleTableRecord
  2
ACANSTSB
 70
     0
 40
1.0
 41
1.0
 50
0.0
 71
     0
 42
10.0
  3
romans.shx
  4

  0
STYLE
  5
27C
330
C
100
AcDbSymbolTableRecord
100
AcDbTextStyleTableRecord
  2
ACANSGDT
 70
     0
 40
0.0
 41
1.0
 50
0.0
 71
     0
 42
10.0
  3
amgdt.shx
  4

  0
STYLE
  5
27F
330
C
100
AcDbSymbolTableRecord
100
AcDbTextStyleTableRecord
  2
ACBSITS
 70
     0
 40
1.0
 41
1.0
 50
0.0
 71
     0
 42
10.0
  3
isocp.shx
  4

  0
STYLE
  5
280
330
C
100
AcDbSymbolTableRecord
100
AcDbTextStyleTableRecord
  2
ACBSIGDT
 70
     0
 40
0.0
 41
1.0
 50
0.0
 71
     0
 42
10.0
  3
amgdt.shx
  4

  0
STYLE
  5
284
330
C
100
AcDbSymbolTableRecord
100
AcDbTextStyleTableRecord
  2
ACDINTS
 70
     0
 40
1.0
 41
1.0
 50
0.0
 71
     0
 42
10.0
  3
isocp.shx
  4

  0
STYLE
  5
285
330
C
100
AcDbSymbolTableRecord
100
AcDbTextStyleTableRecord
  2
ACDINGDT
 70
     0
 40
0.0
 41
1.0
 50
0.0
 71
     0
 42
10.0
  3
amgdt.shx
  4

  0
STYLE
  5
289
330
C
100
AcDbSymbolTableRecord
100
AcDbTextStyleTableRecord
  2
ACISOTS
 70
     0
 40
1.0
 41
1.0
 50
0.0
 71
     0
 42
10.0
  3
isocp.shx
  4

  0
STYLE
  5
28A
330
C
100
AcDbSymbolTableRecord
100
AcDbTextStyleTableRecord
  2
ACISOGDT
 70
     0
 40
0.0
 41
1.0
 50
0.0
 71
     0
 42
10.0
  3
amgdt.shx
  4

  0
STYLE
  5
2D5
330
C
100
AcDbSymbolTableRecord
100
AcDbTextStyleTableRecord
  2

 70
     1
 40
0.0
 41
1.0
 50
0.0
 71
     0
 42
10.0
  3
ltypeshp.shx
  4

  0
ENDTAB
  0
TABLE
  2
VIEW
  5
11
330
0
100
AcDbSymbolTable
 70
     0
  0
ENDTAB
  0
TABLE
  2
UCS
  5
12
330
0
100
AcDbSymbolTable
 70
     0
  0
ENDTAB
  0
TABLE
  2
APPID
  5
15
330
0
100
AcDbSymbolTable
 70
     3
  0
APPID
  5
16
330
15
100
AcDbSymbolTableRecord
100
AcDbRegAppTableRecord
  2
ACAD
 70
     0
  0
APPID
  5
254
330
15
100
AcDbSymbolTableRecord
100
AcDbRegAppTableRecord
  2
MCAD_NO_VIS
 70
     0
  0
APPID
  5
2B5
330
15
100
AcDbSymbolTableRecord
100
AcDbRegAppTableRecord
  2
ACAD_TEMP_GRAPHIC
 70
     0
  0
ENDTAB
  0
TABLE
  2
DIMSTYLE
  5
17
330
0
100
AcDbSymbolTable
 70
     1
  0
DIMSTYLE
105
1D
330
17
100
AcDbSymbolTableRecord
100
AcDbDimStyleTableRecord
  2
ISO-25
 70
     0
  3

  4

  5

  6

  7

 40
1.0
 41
7.0
 42
0.0
 43
7.0
 44
1.25
 45
0.0
 46
0.0
 47
0.0
 48
0.0
140
10.0
141
0.0
142
0.0
143
25.4
144
0.5
145
0.0
146
1.0
147
4.0
 71
     0
 72
     0
 73
     0
 74
     0
 75
     0
 76
     0
 77
     1
 78
     8
170
     0
171
     2
172
     1
173
     0
174
     0
175
     0
176
   256
177
   256
178
   256
270
     2
271
     4
272
     4
273
     2
274
     2
340
D
275
     0
280
     0
281
     0
282
     0
283
     1
284
     8
285
     0
286
     0
287
     3
288
     1
  0
ENDTAB
  0
TABLE
  2
BLOCK_RECORD
  5
1
330
0
100
AcDbSymbolTable
 70
     1
  0
BLOCK_RECORD
  5
2
102
{ACAD_XDICTIONARY
360
3
102
}
330
1
100
AcDbSymbolTableRecord
100
AcDbBlockTableRecord
  2
*MODEL_SPACE
  0
BLOCK_RECORD
  5
8
102
{ACAD_XDICTIONARY
360
4608
102
}
330
1
100
AcDbSymbolTableRecord
100
AcDbBlockTableRecord
  2
*PAPER_SPACE
  0
BLOCK_RECORD
  5
3D54
330
1
100
AcDbSymbolTableRecord
100
AcDbBlockTableRecord
  2
*X0
  0
ENDTAB
  0
ENDSEC
  0
SECTION
  2
BLOCKS
  0
BLOCK
  5
4
330
2
100
AcDbEntity
  8
0
100
AcDbBlockBegin
  2
*MODEL_SPACE
 70
     0
 10
0.0
 20
0.0
 30
0.0
  3
*MODEL_SPACE
  1

  0
ENDBLK
  5
7
330
2
100
AcDbEntity
  8
0
100
AcDbBlockEnd
  0
BLOCK
  5
9
330
8
100
AcDbEntity
 67
     1
  8
0
100
AcDbBlockBegin
  2
*PAPER_SPACE
 70
     0
 10
0.0
 20
0.0
 30
0.0
  3
*PAPER_SPACE
  1

  0
ENDBLK
  5
A
330
8
100
AcDbEntity
 67
     1
  8
0
100
AcDbBlockEnd
  0
BLOCK
  5
3F93
330
3D54
100
AcDbEntity
  8
0
 48
10.0
100
AcDbBlockBegin
  2
*X0
 70
     1
 10
0.0
 20
0.0
 30
0.0
  3
*X0
  1

  0
LINE
  5
3D55
330
3D54
100
AcDbEntity
  8
0
 62
     0
 48
10.0
100
AcDbLine
 10
98.35104377251177
 20
163.0876864723723
 30
0.0
 11
98.44746191396474
 21
163.2025931388402
 31
0.0
  0
LINE
  5
3D56
330
3D54
100
AcDbEntity
  8
0
 62
     0
 48
10.0
100
AcDbLine
 10
99.50806146994754
 20
164.4665664699865
 30
0.0
 11
99.60447961140053
 21
164.5814731364543
 31
0.0
  0
LINE
  5
3D57
330
3D54
100
AcDbEntity
  8
0
 62
     0
 48
10.0
100
AcDbLine
 10
100.6650791673833
 20
165.8454464676006
 30
0.0
 11
100.72699073486
 21
165.9192298005641
 31
0.0
  0
LINE
  5
3D58
330
3D54
100
AcDbEntity
  8
0
 62
     0
 48
10.0
100
AcDbLine
 10
100.72699073486
 20
165.9192298005642
 30
0.0
 11
100.7614973088362
 21
165.9603531340685
 31
0.0
  0
LINE
  5
3D59
330
3D54
100
AcDbEntity
  8
0
 62
     0
 48
10.0
100
AcDbLine
 10
101.822096864819
 20
167.2243264652148
 30
0.0
 11
101.918515006272
 21
167.3392331316826
 31
0.0
  0
LINE
  5
3D5A
330
3D54
100
AcDbEntity
  8
0
 62
     0
 48
10.0
100
AcDbLine
 10
102.9791145622548
 20
168.6032064628289
 30
0.0
 11
103.0755327037078
 21
168.7181131292968
 31
0.0
  0
LINE
  5
3D5B
330
3D54
100
AcDbEntity
  8
0
 62
     0
 48
10.0
100
AcDbLine
 10
98.62854644027748
 20
161.583302204793
 30
0.0
 11
98.72496458173047
 21
161.6982088712608
 31
0.0
  0
LINE
  5
3D5C
330
3D54
100
AcDbEntity
  8
0
 62
     0
 48
10.0
100
AcDbLine
 10
99.78556413771327
 20
162.9621822024071
 30
0.0
 11
99.88198227916626
 21
163.077088868875
 31
0.0
  0
LINE
  5
3D5D
330
3D54
100
AcDbEntity
  8
0
 62
     0
 48
10.0
100
AcDbLine
 10
100.942581835149
 20
164.3410622000213
 30
0.0
 11
101.038999976602
 21
164.4559688664891
 31
0.0
  0
LINE
  5
3D5E
330
3D54
100
AcDbEntity
  8
0
 62
     0
 48
10.0
100
AcDbLine
 10
102.0995995325848
 20
165.7199421976354
 30
0.0
 11
102.1960176740377
 21
165.8348488641033
 31
0.0
  0
LINE
  5
3D5F
330
3D54
100
AcDbEntity
  8
0
 62
     0
 48
10.0
100
AcDbLine
 10
103.2566172300205
 20
167.0988221952496
 30
0.0
 11
103.3530353714735
 21
167.2137288617174
 31
0.0
  0
LINE
  5
3D60
330
3D54
100
AcDbEntity
  8
0
 62
     0
 48
10.0
100
AcDbLine
 10
100.063066805479
 20
161.4577979348278
 30
0.0
 11
100.1594849469319
 21
161.5727046012956
 31
0.0
  0
LINE
  5
3D61
330
3D54
100
AcDbEntity
  8
0
 62
     0
 48
10.0
100
AcDbLine
 10
101.2200845029147
 20
162.8366779324419
 30
0.0
 11
101.3165026443677
 21
162.9515845989098
 31
0.0
  0
LINE
  5
3D62
330
3D54
100
AcDbEntity
  8
0
 62
     0
 48
10.0
100
AcDbLine
 10
102.3771022003505
 20
164.2155579300561
 30
0.0
 11
102.4735203418035
 21
164.3304645965239
 31
0.0
  0
LINE
  5
3D63
330
3D54
100
AcDbEntity
  8
0
 62
     0
 48
10.0
100
AcDbLine
 10
101.5436325231569
 20
161.3871683790986
 30
0.0
 11
101.5940053121334
 21
161.4472003313304
 31
0.0
  0
LINE
  5
3D64
330
3D54
100
AcDbEntity
  8
0
 62
     0
 48
10.0
100
AcDbLine
 10
102.6546048681162
 20
162.7111736624768
 30
0.0
 11
102.7510230095692
 21
162.8260803289446
 31
0.0
  0
LINE
  5
3D65
330
3D54
100
AcDbEntity
  8
0
 62
     0
 48
10.0
100
AcDbLine
 10
98.07354110474603
 20
164.5920707399517
 30
0.0
 11
98.16995924619902
 21
164.7069774064195
 31
0.0
  0
LINE
  5
3D66
330
3D54
100
AcDbEntity
  8
0
 62
     0
 48
10.0
100
AcDbLine
 10
99.2305588021818
 20
165.9709507375658
 30
0.0
 11
99.32697694363479
 21
166.0858574040337
 31
0.0
  0
LINE
  5
3D67
330
3D54
100
AcDbEntity
  8
0
 62
     0
 48
10.0
100
AcDbLine
 10
100.3875764996175
 20
167.34983073518
 30
0.0
 11
100.4839946410705
 21
167.4647374016478
 31
0.0
  0
LINE
  5
3D68
330
3D54
100
AcDbEntity
  8
0
 62
     0
 48
10.0
100
AcDbLine
 10
101.5445941970533
 20
168.7287107327942
 30
0.0
 11
101.6410123385063
 21
168.843617399262
 31
0.0
  0
LINE
  5
3D69
330
3D54
100
AcDbEntity
  8
0
 62
     0
 48
10.0
100
AcDbLine
 10
102.7016118944891
 20
170.1075907304083
 30
0.0
 11
102.7980300359421
 21
170.2224973968762
 31
0.0
  0
LINE
  5
3D6A
330
3D54
100
AcDbEntity
  8
0
 62
     0
 48
10.0
100
AcDbLine
 10
98.95305613441607
 20
167.4753350051452
 30
0.0
 11
99.04947427586904
 21
167.590241671613
 31
0.0
  0
LINE
  5
3D6B
330
3D54
100
AcDbEntity
  8
0
 62
     0
 48
10.0
100
AcDbLine
 10
100.1100738318518
 20
168.8542150027593
 30
0.0
 11
100.2064919733048
 21
168.9691216692272
 31
0.0
  0
LINE
  5
3D6C
330
3D54
100
AcDbEntity
  8
0
 62
     0
 48
10.0
100
AcDbLine
 10
101.2670915292876
 20
170.2330950003735
 30
0.0
 11
101.3635096707405
 21
170.3480016668414
 31
0.0
  0
LINE
  5
3D6D
330
3D54
100
AcDbEntity
  8
0
 62
     0
 48
10.0
100
AcDbLine
 10
102.4241092267233
 20
171.6119749979877
 30
0.0
 11
102.5205273681763
 21
171.7268816644555
 31
0.0
  0
LINE
  5
3D6E
330
3D54
100
AcDbEntity
  8
0
 62
     0
 48
10.0
100
AcDbLine
 10
98.67555346665033
 20
168.9797192727245
 30
0.0
 11
98.77197160810332
 21
169.0946259391924
 31
0.0
  0
LINE
  5
3D6F
330
3D54
100
AcDbEntity
  8
0
 62
     0
 48
10.0
100
AcDbLine
 10
99.8325711640861
 20
170.3585992703387
 30
0.0
 11
99.92898930553909
 21
170.4735059368065
 31
0.0
  0
LINE
  5
3D70
330
3D54
100
AcDbEntity
  8
0
 62
     0
 48
10.0
100
AcDbLine
 10
100.9895888615218
 20
171.7374792679528
 30
0.0
 11
101.0860070029748
 21
171.8523859344207
 31
0.0
  0
LINE
  5
3D71
330
3D54
100
AcDbEntity
  8
0
 62
     0
 48
10.0
100
AcDbLine
 10
102.1466065589576
 20
173.116359265567
 30
0.0
 11
102.2430247004106
 21
173.2312659320348
 31
0.0
  0
LINE
  5
3D72
330
3D54
100
AcDbEntity
  8
0
 62
     0
 48
10.0
100
AcDbLine
 10
98.43297771752247
 20
170.5257278210688
 30
0.0
 11
98.49446894033755
 21
170.5990102067717
 31
0.0
  0
LINE
  5
3D73
330
3D54
100
AcDbEntity
  8
0
 62
     0
 48
10.0
100
AcDbLine
 10
99.55506849632035
 20
171.862983537918
 30
0.0
 11
99.65148663777334
 21
171.9778902043859
 31
0.0
  0
LINE
  5
3D74
330
3D54
100
AcDbEntity
  8
0
 62
     0
 48
10.0
100
AcDbLine
 10
100.7120861937561
 20
173.2418635355322
 30
0.0
 11
100.72699073486
 21
173.2596260759387
 31
0.0
  0
LINE
  5
3D75
330
3D54
100
AcDbEntity
  8
0
 62
     0
 48
10.0
100
AcDbLine
 10
100.72699073486
 20
173.2596260759388
 30
0.0
 11
100.808504335209
 21
173.356770202
 31
0.0
  0
LINE
  5
3D76
330
3D54
100
AcDbEntity
  8
0
 62
     0
 48
10.0
100
AcDbLine
 10
99.2775658285546
 20
173.3673678054974
 30
0.0
 11
99.29418048256046
 21
173.3871683790986
 31
0.0
  0
LINE
  5
3D77
330
3D54
100
AcDbEntity
  8
0
 62
     0
 48
10.0
100
AcDbLine
 10
98.9530562033004
 20
167.475335021393
 30
0.0
 11
99.07259956707141
 21
167.4648763322633
 31
0.0
  0
LINE
  5
3D78
330
3D54
100
AcDbEntity
  8
0
 62
     0
 48
10.0
100
AcDbLine
 10
100.3875765685525
 20
167.3498307518364
 30
0.0
 11
100.5071199323235
 21
167.3393720627067
 31
0.0
  0
LINE
  5
3D79
330
3D54
100
AcDbEntity
  8
0
 62
     0
 48
10.0
100
AcDbLine
 10
101.8220969338046
 20
167.2243264822798
 30
0.0
 11
101.9416402975756
 21
167.21386779315
 31
0.0
  0
LINE
  5
3D7A
330
3D54
100
AcDbEntity
  8
0
 62
     0
 48
10.0
100
AcDbLine
 10
103.2566172990567
 20
167.0988222127231
 30
0.0
 11
103.3741750844858
 21
167.0885372391889
 31
0.0
  0
LINE
  5
3D7B
330
3D54
100
AcDbEntity
  8
0
 62
     0
 48
10.0
100
AcDbLine
 10
98.67555353607443
 20
168.979719288793
 30
0.0
 11
98.79509689984544
 21
168.9692605996634
 31
0.0
  0
LINE
  5
3D7C
330
3D54
100
AcDbEntity
  8
0
 62
     0
 48
10.0
100
AcDbLine
 10
100.1100739013265
 20
168.8542150192364
 30
0.0
 11
100.2296172650975
 21
168.8437563301067
 31
0.0
  0
LINE
  5
3D7D
330
3D54
100
AcDbEntity
  8
0
 62
     0
 48
10.0
100
AcDbLine
 10
101.5445942665786
 20
168.7287107496798
 30
0.0
 11
101.6641376303496
 21
168.7182520605501
 31
0.0
  0
LINE
  5
3D7E
330
3D54
100
AcDbEntity
  8
0
 62
     0
 48
10.0
100
AcDbLine
 10
102.9791146318307
 20
168.6032064801232
 30
0.0
 11
103.0986579956017
 21
168.5927477909935
 31
0.0
  0
LINE
  5
3D7F
330
3D54
100
AcDbEntity
  8
0
 62
     0
 48
10.0
100
AcDbLine
 10
98.42842775252039
 20
170.4814459232385
 30
0.0
 11
98.51759423261938
 21
170.4736448670634
 31
0.0
  0
LINE
  5
3D80
330
3D54
100
AcDbEntity
  8
0
 62
     0
 48
10.0
100
AcDbLine
 10
99.8325712341005
 20
170.3585992866365
 30
0.0
 11
99.95211459787151
 21
170.3481405975067
 31
0.0
  0
LINE
  5
3D81
330
3D54
100
AcDbEntity
  8
0
 62
     0
 48
10.0
100
AcDbLine
 10
101.2670915993526
 20
170.2330950170798
 30
0.0
 11
101.3866349631236
 21
170.2226363279501
 31
0.0
  0
LINE
  5
3D82
330
3D54
100
AcDbEntity
  8
0
 62
     0
 48
10.0
100
AcDbLine
 10
102.7016119646047
 20
170.1075907475232
 30
0.0
 11
102.8211553283757
 21
170.0971320583934
 31
0.0
  0
LINE
  5
3D83
330
3D54
100
AcDbEntity
  8
0
 62
     0
 48
10.0
100
AcDbLine
 10
99.55506856687449
 20
171.8629835540365
 30
0.0
 11
99.67461193064551
 21
171.8525248649068
 31
0.0
  0
LINE
  5
3D84
330
3D54
100
AcDbEntity
  8
0
 62
     0
 48
10.0
100
AcDbLine
 10
100.9895889321266
 20
171.7374792844798
 30
0.0
 11
101.1091322958976
 21
171.7270205953501
 31
0.0
  0
LINE
  5
3D85
330
3D54
100
AcDbEntity
  8
0
 62
     0
 48
10.0
100
AcDbLine
 10
102.4241092973787
 20
171.6119750149232
 30
0.0
 11
102.5436526611497
 21
171.6015163257935
 31
0.0
  0
LINE
  5
3D86
330
3D54
100
AcDbEntity
  8
0
 62
     0
 48
10.0
100
AcDbLine
 10
99.27756589964852
 20
173.3673678214365
 30
0.0
 11
99.39710926341954
 21
173.3569091323068
 31
0.0
  0
LINE
  5
3D87
330
3D54
100
AcDbEntity
  8
0
 62
     0
 48
10.0
100
AcDbLine
 10
100.7120862649006
 20
173.2418635518799
 30
0.0
 11
100.72699073486
 21
173.2405595797226
 31
0.0
  0
LINE
  5
3D88
330
3D54
100
AcDbEntity
  8
0
 62
     0
 48
10.0
100
AcDbLine
 10
100.72699073486
 20
173.2405595797225
 30
0.0
 11
100.8316296286716
 21
173.2314048627501
 31
0.0
  0
LINE
  5
3D89
330
3D54
100
AcDbEntity
  8
0
 62
     0
 48
10.0
100
AcDbLine
 10
102.1466066301527
 20
173.1163592823232
 30
0.0
 11
102.2661499939237
 21
173.1059005931935
 31
0.0
  0
LINE
  5
3D8A
330
3D54
100
AcDbEntity
  8
0
 62
     0
 48
10.0
100
AcDbLine
 10
99.2305588705264
 20
165.970950753993
 30
0.0
 11
99.35010223429742
 21
165.9604920648633
 31
0.0
  0
LINE
  5
3D8B
330
3D54
100
AcDbEntity
  8
0
 62
     0
 48
10.0
100
AcDbLine
 10
100.6650792357785
 20
165.8454464844364
 30
0.0
 11
100.72699073486
 21
165.8400299301248
 31
0.0
  0
LINE
  5
3D8C
330
3D54
100
AcDbEntity
  8
0
 62
     0
 48
10.0
100
AcDbLine
 10
100.72699073486
 20
165.8400299301248
 30
0.0
 11
100.7846225995495
 21
165.8349877953066
 31
0.0
  0
LINE
  5
3D8D
330
3D54
100
AcDbEntity
  8
0
 62
     0
 48
10.0
100
AcDbLine
 10
102.0995996010306
 20
165.7199422148797
 30
0.0
 11
102.2191429648016
 21
165.70948352575
 31
0.0
  0
LINE
  5
3D8E
330
3D54
100
AcDbEntity
  8
0
 62
     0
 48
10.0
100
AcDbLine
 10
98.0735411725003
 20
164.5920707561496
 30
0.0
 11
98.19308453627131
 21
164.5816120670199
 31
0.0
  0
LINE
  5
3D8F
330
3D54
100
AcDbEntity
  8
0
 62
     0
 48
10.0
100
AcDbLine
 10
99.50806153775243
 20
164.466566486593
 30
0.0
 11
99.62760490152344
 21
164.4561077974633
 31
0.0
  0
LINE
  5
3D90
330
3D54
100
AcDbEntity
  8
0
 62
     0
 48
10.0
100
AcDbLine
 10
100.9425819030045
 20
164.3410622170363
 30
0.0
 11
101.0621252667755
 21
164.3306035279066
 31
0.0
  0
LINE
  5
3D91
330
3D54
100
AcDbEntity
  8
0
 62
     0
 48
10.0
100
AcDbLine
 10
102.3771022682566
 20
164.2155579474797
 30
0.0
 11
102.4966456320276
 21
164.20509925835
 31
0.0
  0
LINE
  5
3D92
330
3D54
100
AcDbEntity
  8
0
 62
     0
 48
10.0
100
AcDbLine
 10
98.35104383972627
 20
163.0876864887496
 30
0.0
 11
98.47058720349728
 21
163.0772277996199
 31
0.0
  0
LINE
  5
3D93
330
3D54
100
AcDbEntity
  8
0
 62
     0
 48
10.0
100
AcDbLine
 10
99.7855642049784
 20
162.962182219193
 30
0.0
 11
99.90510756874941
 21
162.9517235300633
 31
0.0
  0
LINE
  5
3D94
330
3D54
100
AcDbEntity
  8
0
 62
     0
 48
10.0
100
AcDbLine
 10
101.2200845702305
 20
162.8366779496364
 30
0.0
 11
101.3396279340015
 21
162.8262192605066
 31
0.0
  0
LINE
  5
3D95
330
3D54
100
AcDbEntity
  8
0
 62
     0
 48
10.0
100
AcDbLine
 10
102.6546049354826
 20
162.7111736800797
 30
0.0
 11
102.7741482992536
 21
162.70071499095
 31
0.0
  0
LINE
  5
3D96
330
3D54
100
AcDbEntity
  8
0
 62
     0
 48
10.0
100
AcDbLine
 10
98.62854650695226
 20
161.5833022213496
 30
0.0
 11
98.74808987072327
 21
161.5728435322199
 31
0.0
  0
LINE
  5
3D97
330
3D54
100
AcDbEntity
  8
0
 62
     0
 48
10.0
100
AcDbLine
 10
100.0630668722043
 20
161.457797951793
 30
0.0
 11
100.1826102359754
 21
161.4473392626632
 31
0.0
  0
LINE
  5
3D98
330
3D54
100
AcDbEntity
  8
0
 62
     0
 48
10.0
100
AcDbLine
 10
101.6051892029216
 20
161.3871683790987
 30
0.0
 11
101.5941304023094
 21
161.4471200855588
 31
0.0
  0
LINE
  5
3D99
330
3D54
100
AcDbEntity
  8
0
 62
     0
 48
10.0
100
AcDbLine
 10
101.3397540336111
 20
162.8261391963499
 30
0.0
 11
101.3166289099096
 21
162.9515045661246
 31
0.0
  0
LINE
  5
3D9A
330
3D54
100
AcDbEntity
  8
0
 62
     0
 48
10.0
100
AcDbLine
 10
101.0622525412112
 20
164.3305236769157
 30
0.0
 11
101.0391274175097
 21
164.4558890466903
 31
0.0
  0
LINE
  5
3D9B
330
3D54
100
AcDbEntity
  8
0
 62
     0
 48
10.0
100
AcDbLine
 10
100.7847510488113
 20
165.8349081574814
 30
0.0
 11
100.7616259251098
 21
165.9602735272561
 31
0.0
  0
LINE
  5
3D9C
330
3D54
100
AcDbEntity
  8
0
 62
     0
 48
10.0
100
AcDbLine
 10
100.5072495564115
 20
167.3392926380472
 30
0.0
 11
100.48412443271
 21
167.4646580078218
 31
0.0
  0
LINE
  5
3D9D
330
3D54
100
AcDbEntity
  8
0
 62
     0
 48
10.0
100
AcDbLine
 10
100.2297480640117
 20
168.8436771186129
 30
0.0
 11
100.2066229403101
 21
168.9690424883876
 31
0.0
  0
LINE
  5
3D9E
330
3D54
100
AcDbEntity
  8
0
 62
     0
 48
10.0
100
AcDbLine
 10
99.95224657161184
 20
170.3480615991787
 30
0.0
 11
99.92912144791032
 21
170.4734269689534
 31
0.0
  0
LINE
  5
3D9F
330
3D54
100
AcDbEntity
  8
0
 62
     0
 48
10.0
100
AcDbLine
 10
99.67474507921197
 20
171.8524460797445
 30
0.0
 11
99.65161995551046
 21
171.9778114495191
 31
0.0
  0
LINE
  5
3DA0
330
3D54
100
AcDbEntity
  8
0
 62
     0
 48
10.0
100
AcDbLine
 10
99.3972435868121
 20
173.3568305603102
 30
0.0
 11
99.39164741768202
 21
173.3871683790986
 31
0.0
  0
LINE
  5
3DA1
330
3D54
100
AcDbEntity
  8
0
 62
     0
 48
10.0
100
AcDbLine
 10
102.774274289439
 20
162.700633799906
 30
0.0
 11
102.7511491657375
 21
162.8259991696807
 31
0.0
  0
LINE
  5
3DA2
330
3D54
100
AcDbEntity
  8
0
 62
     0
 48
10.0
100
AcDbLine
 10
102.4967727970391
 20
164.2050182804718
 30
0.0
 11
102.4736476733376
 21
164.3303836502465
 31
0.0
  0
LINE
  5
3DA3
330
3D54
100
AcDbEntity
  8
0
 62
     0
 48
10.0
100
AcDbLine
 10
102.2192713046393
 20
165.7094027610376
 30
0.0
 11
102.1961461809377
 21
165.8347681308122
 31
0.0
  0
LINE
  5
3DA4
330
3D54
100
AcDbEntity
  8
0
 62
     0
 48
10.0
100
AcDbLine
 10
101.9417698122394
 20
167.2137872416033
 30
0.0
 11
101.9186446885379
 21
167.339152611378
 31
0.0
  0
LINE
  5
3DA5
330
3D54
100
AcDbEntity
  8
0
 62
     0
 48
10.0
100
AcDbLine
 10
101.6642683198395
 20
168.7181717221691
 30
0.0
 11
101.641143196138
 21
168.8435370919437
 31
0.0
  0
LINE
  5
3DA6
330
3D54
100
AcDbEntity
  8
0
 62
     0
 48
10.0
100
AcDbLine
 10
101.3867668274397
 20
170.2225562027348
 30
0.0
 11
101.3636417037382
 21
170.3479215725095
 31
0.0
  0
LINE
  5
3DA7
330
3D54
100
AcDbEntity
  8
0
 62
     0
 48
10.0
100
AcDbLine
 10
101.1092653350398
 20
171.7269406833006
 30
0.0
 11
101.0861402113383
 21
171.8523060530753
 31
0.0
  0
LINE
  5
3DA8
330
3D54
100
AcDbEntity
  8
0
 62
     0
 48
10.0
100
AcDbLine
 10
100.83176384264
 20
173.2313251638664
 30
0.0
 11
100.8086387189384
 21
173.356690533641
 31
0.0
  0
LINE
  5
3DA9
330
3D54
100
AcDbEntity
  8
0
 62
     0
 48
10.0
100
AcDbLine
 10
103.3715748000164
 20
167.1138441440004
 30
0.0
 11
103.3531649443658
 21
167.2136472149341
 31
0.0
  0
LINE
  5
3DAA
330
3D54
100
AcDbEntity
  8
0
 62
     0
 48
10.0
100
AcDbLine
 10
103.0987885756675
 20
168.5926663257253
 30
0.0
 11
103.075663451966
 21
168.7180316954999
 31
0.0
  0
LINE
  5
3DAB
330
3D54
100
AcDbEntity
  8
0
 62
     0
 48
10.0
100
AcDbLine
 10
102.8212870832676
 20
170.097050806291
 30
0.0
 11
102.7981619595661
 21
170.2224161760657
 31
0.0
  0
LINE
  5
3DAC
330
3D54
100
AcDbEntity
  8
0
 62
     0
 48
10.0
100
AcDbLine
 10
102.5437855908678
 20
171.6014352868568
 30
0.0
 11
102.5206604671662
 21
171.7268006566314
 31
0.0
  0
LINE
  5
3DAD
330
3D54
100
AcDbEntity
  8
0
 62
     0
 48
10.0
100
AcDbLine
 10
102.2662840984679
 20
173.1058197674225
 30
0.0
 11
102.2431589747664
 21
173.2311851371972
 31
0.0
  0
LINE
  5
3DAE
330
3D54
100
AcDbEntity
  8
0
 62
     0
 48
10.0
100
AcDbLine
 10
100.182735270183
 20
161.447260112228
 30
0.0
 11
100.1596101464815
 21
161.5726254820026
 31
0.0
  0
LINE
  5
3DAF
330
3D54
100
AcDbEntity
  8
0
 62
     0
 48
10.0
100
AcDbLine
 10
99.90523377778322
 20
162.9516445927938
 30
0.0
 11
99.8821086540817
 21
163.0770099625684
 31
0.0
  0
LINE
  5
3DB0
330
3D54
100
AcDbEntity
  8
0
 62
     0
 48
10.0
100
AcDbLine
 10
99.62773228538335
 20
164.4560290733595
 30
0.0
 11
99.60460716168183
 21
164.5813944431341
 31
0.0
  0
LINE
  5
3DB1
330
3D54
100
AcDbEntity
  8
0
 62
     0
 48
10.0
100
AcDbLine
 10
99.35023079298348
 20
165.9604135539253
 30
0.0
 11
99.32710566928196
 21
166.0857789236999
 31
0.0
  0
LINE
  5
3DB2
330
3D54
100
AcDbEntity
  8
0
 62
     0
 48
10.0
100
AcDbLine
 10
99.07272930058361
 20
167.464798034491
 30
0.0
 11
99.0496041768821
 21
167.5901634042657
 31
0.0
  0
LINE
  5
3DB3
330
3D54
100
AcDbEntity
  8
0
 62
     0
 48
10.0
100
AcDbLine
 10
98.79522780818376
 20
168.9691825150568
 30
0.0
 11
98.77210268448223
 21
169.0945478848314
 31
0.0
  0
LINE
  5
3DB4
330
3D54
100
AcDbEntity
  8
0
 62
     0
 48
10.0
100
AcDbLine
 10
98.5177263157839
 20
170.4735669956226
 30
0.0
 11
98.49460119208238
 21
170.5989323653972
 31
0.0
  0
LINE
  5
3DB5
330
3D54
100
AcDbEntity
  8
0
 62
     0
 48
10.0
100
AcDbLine
 10
98.74821501435516
 20
161.5727655086718
 30
0.0
 11
98.72508989065364
 21
161.6981308784465
 31
0.0
  0
LINE
  5
3DB6
330
3D54
100
AcDbEntity
  8
0
 62
     0
 48
10.0
100
AcDbLine
 10
98.47071352195529
 20
163.0771499892376
 30
0.0
 11
98.44758839825377
 21
163.2025153590122
 31
0.0
  0
LINE
  5
3DB7
330
3D54
100
AcDbEntity
  8
0
 62
     0
 48
10.0
100
AcDbLine
 10
98.19321202955542
 20
164.5815344698034
 30
0.0
 11
98.17008690585391
 21
164.706899839578
 31
0.0
  0
LINE
  5
3DB8
330
3D54
100
AcDbEntity
  8
0
 62
     0
 48
10.0
100
AcDbLine
 10
98.31834089388953
 20
164.2038888008513
 30
0.0
 11
98.47411788475195
 21
164.366241900969
 31
0.0
  0
LINE
  5
3DB9
330
3D54
100
AcDbEntity
  8
0
 62
     0
 48
10.0
100
AcDbLine
 10
100.1876647842385
 20
166.1521260022645
 30
0.0
 11
100.3434417751009
 21
166.3144791023823
 31
0.0
  0
LINE
  5
3DBA
330
3D54
100
AcDbEntity
  8
0
 62
     0
 48
10.0
100
AcDbLine
 10
102.0569886745875
 20
168.1003632036778
 30
0.0
 11
102.21276566545
 21
168.2627163037955
 31
0.0
  0
LINE
  5
3DBB
330
3D54
100
AcDbEntity
  8
0
 62
     0
 48
10.0
100
AcDbLine
 10
98.58349910079187
 20
161.92461357078
 30
0.0
 11
98.73927609165429
 21
162.0869666708978
 31
0.0
  0
LINE
  5
3DBC
330
3D54
100
AcDbEntity
  8
0
 62
     0
 48
10.0
100
AcDbLine
 10
100.4528229911408
 20
163.8728507721932
 30
0.0
 11
100.6085999820033
 21
164.035203872311
 31
0.0
  0
LINE
  5
3DBD
330
3D54
100
AcDbEntity
  8
0
 62
     0
 48
10.0
100
AcDbLine
 10
102.3221468814898
 20
165.8210879736065
 30
0.0
 11
102.4779238723522
 21
165.9834410737242
 31
0.0
  0
LINE
  5
3DBE
330
3D54
100
AcDbEntity
  8
0
 62
     0
 48
10.0
100
AcDbLine
 10
100.7179811980431
 20
161.593575542122
 30
0.0
 11
100.72699073486
 21
161.6029654155863
 31
0.0
  0
LINE
  5
3DBF
330
3D54
100
AcDbEntity
  8
0
 62
     0
 48
10.0
100
AcDbLine
 10
100.72699073486
 20
161.6029654155863
 30
0.0
 11
100.8737581889055
 21
161.7559286422397
 31
0.0
  0
LINE
  5
3DC0
330
3D54
100
AcDbEntity
  8
0
 62
     0
 48
10.0
100
AcDbLine
 10
102.5873050883921
 20
163.5418127435352
 30
0.0
 11
102.7430820792545
 21
163.704165843653
 31
0.0
  0
LINE
  5
3DC1
330
3D54
100
AcDbEntity
  8
0
 62
     0
 48
10.0
100
AcDbLine
 10
102.9720459900694
 20
161.3871683790986
 30
0.0
 11
103.0082402861568
 21
161.4248906135817
 31
0.0
  0
LINE
  5
3DC2
330
3D54
100
AcDbEntity
  8
0
 62
     0
 48
10.0
100
AcDbLine
 10
98.05318268698727
 20
166.4831640309225
 30
0.0
 11
98.2089596778497
 21
166.6455171310403
 31
0.0
  0
LINE
  5
3DC3
330
3D54
100
AcDbEntity
  8
0
 62
     0
 48
10.0
100
AcDbLine
 10
99.92250657733627
 20
168.4314012323358
 30
0.0
 11
100.0782835681987
 21
168.5937543324535
 31
0.0
  0
LINE
  5
3DC4
330
3D54
100
AcDbEntity
  8
0
 62
     0
 48
10.0
100
AcDbLine
 10
101.7918304676852
 20
170.379638433749
 30
0.0
 11
101.9476074585477
 21
170.5419915338668
 31
0.0
  0
LINE
  5
3DC5
330
3D54
100
AcDbEntity
  8
0
 62
     0
 48
10.0
100
AcDbLine
 10
99.65734837043399
 20
170.710676462407
 30
0.0
 11
99.81312536129641
 21
170.8730295625248
 31
0.0
  0
LINE
  5
3DC6
330
3D54
100
AcDbEntity
  8
0
 62
     0
 48
10.0
100
AcDbLine
 10
101.526672260783
 20
172.6589136638203
 30
0.0
 11
101.6824492516454
 21
172.821266763938
 31
0.0
  0
LINE
  5
3DC7
330
3D54
100
AcDbEntity
  8
0
 62
     0
 48
10.0
100
AcDbLine
 10
99.39219016353174
 20
172.9899516924783
 30
0.0
 11
99.54796715439416
 21
173.1523047925961
 31
0.0
  0
LINE
  5
3DC8
330
3D54
100
AcDbEntity
  8
0
 62
     0
 48
10.0
100
AcDbLine
 10
100.8959813784587
 20
161.5659029505792
 30
0.0
 11
100.8738850095258
 21
161.7558425703686
 31
0.0
  0
LINE
  5
3DC9
330
3D54
100
AcDbEntity
  8
0
 62
     0
 48
10.0
100
AcDbLine
 10
100.6308249900908
 20
163.8451780543032
 30
0.0
 11
100.6087286211579
 21
164.0351176740927
 31
0.0
  0
LINE
  5
3DCA
330
3D54
100
AcDbEntity
  8
0
 62
     0
 48
10.0
100
AcDbLine
 10
100.3656686017229
 20
166.1244531580273
 30
0.0
 11
100.34357223279
 21
166.3143927778167
 31
0.0
  0
LINE
  5
3DCB
330
3D54
100
AcDbEntity
  8
0
 62
     0
 48
10.0
100
AcDbLine
 10
100.100512213355
 20
168.4037282617513
 30
0.0
 11
100.0784158444222
 21
168.5936678815408
 31
0.0
  0
LINE
  5
3DCC
330
3D54
100
AcDbEntity
  8
0
 62
     0
 48
10.0
100
AcDbLine
 10
99.83535582498717
 20
170.6830033654754
 30
0.0
 11
99.81325945605433
 21
170.8729429852648
 31
0.0
  0
LINE
  5
3DCD
330
3D54
100
AcDbEntity
  8
0
 62
     0
 48
10.0
100
AcDbLine
 10
99.57019943661929
 20
172.9622784691994
 30
0.0
 11
99.54810306768644
 21
173.1522180889889
 31
0.0
  0
LINE
  5
3DCE
330
3D54
100
AcDbEntity
  8
0
 62
     0
 48
10.0
100
AcDbLine
 10
103.0127450059934
 20
161.3871683790986
 30
0.0
 11
103.0083668089911
 21
161.4248032084455
 31
0.0
  0
LINE
  5
3DCF
330
3D54
100
AcDbEntity
  8
0
 62
     0
 48
10.0
100
AcDbLine
 10
102.7653067895561
 20
163.5141386923801
 30
0.0
 11
102.7432104206232
 21
163.7040783121695
 31
0.0
  0
LINE
  5
3DD0
330
3D54
100
AcDbEntity
  8
0
 62
     0
 48
10.0
100
AcDbLine
 10
102.5001504011882
 20
165.7934137961041
 30
0.0
 11
102.4780540322554
 21
165.9833534158936
 31
0.0
  0
LINE
  5
3DD1
330
3D54
100
AcDbEntity
  8
0
 62
     0
 48
10.0
100
AcDbLine
 10
102.2349940128203
 20
168.0726888998282
 30
0.0
 11
102.2128976438875
 21
168.2626285196176
 31
0.0
  0
LINE
  5
3DD2
330
3D54
100
AcDbEntity
  8
0
 62
     0
 48
10.0
100
AcDbLine
 10
101.9698376244524
 20
170.3519640035522
 30
0.0
 11
101.9477412555196
 21
170.5419036233417
 31
0.0
  0
LINE
  5
3DD3
330
3D54
100
AcDbEntity
  8
0
 62
     0
 48
10.0
100
AcDbLine
 10
101.7046812360846
 20
172.6312391072763
 30
0.0
 11
101.6825848671517
 21
172.8211787270657
 31
0.0
  0
LINE
  5
3DD4
330
3D54
100
AcDbEntity
  8
0
 62
     0
 48
10.0
100
AcDbLine
 10
98.76149957899343
 20
161.8969423125023
 30
0.0
 11
98.73940321006058
 21
162.0868819322918
 31
0.0
  0
LINE
  5
3DD5
330
3D54
100
AcDbEntity
  8
0
 62
     0
 48
10.0
100
AcDbLine
 10
98.49634319062554
 20
164.1762174162264
 30
0.0
 11
98.47424682169268
 21
164.3661570360158
 31
0.0
  0
LINE
  5
3DD6
330
3D54
100
AcDbEntity
  8
0
 62
     0
 48
10.0
100
AcDbLine
 10
98.23118680225766
 20
166.4554925199504
 30
0.0
 11
98.20909043332481
 21
166.6454321397399
 31
0.0
  0
LINE
  5
3DD7
330
3D54
100
AcDbEntity
  8
0
 62
     0
 48
10.0
100
AcDbLine
 10
98.05318267745223
 20
166.4831640511927
 30
0.0
 11
98.23105618556622
 21
166.455577548855
 31
0.0
  0
LINE
  5
3DD8
330
3D54
100
AcDbEntity
  8
0
 62
     0
 48
10.0
100
AcDbLine
 10
100.18766477482
 20
166.1521260231411
 30
0.0
 11
100.365538282934
 21
166.1245395208034
 31
0.0
  0
LINE
  5
3DD9
330
3D54
100
AcDbEntity
  8
0
 62
     0
 48
10.0
100
AcDbLine
 10
102.3221468721878
 20
165.8210879950894
 30
0.0
 11
102.5000203803018
 21
165.7935014927518
 31
0.0
  0
LINE
  5
3DDA
330
3D54
100
AcDbEntity
  8
0
 62
     0
 48
10.0
100
AcDbLine
 10
99.92250656771947
 20
168.4314012530433
 30
0.0
 11
100.1003800758334
 21
168.4038147507056
 31
0.0
  0
LINE
  5
3DDB
330
3D54
100
AcDbEntity
  8
0
 62
     0
 48
10.0
100
AcDbLine
 10
102.0569886650873
 20
168.1003632249917
 30
0.0
 11
102.2348621732012
 21
168.072776722654
 31
0.0
  0
LINE
  5
3DDC
330
3D54
100
AcDbEntity
  8
0
 62
     0
 48
10.0
100
AcDbLine
 10
99.65734836061891
 20
170.7106764829456
 30
0.0
 11
99.8352218687329
 21
170.683089980608
 31
0.0
  0
LINE
  5
3DDD
330
3D54
100
AcDbEntity
  8
0
 62
     0
 48
10.0
100
AcDbLine
 10
101.7918304579867
 20
170.379638454894
 30
0.0
 11
101.9697039661007
 21
170.3520519525563
 31
0.0
  0
LINE
  5
3DDE
330
3D54
100
AcDbEntity
  8
0
 62
     0
 48
10.0
100
AcDbLine
 10
99.39219015351834
 20
172.9899517128478
 30
0.0
 11
99.57006366163234
 21
172.9623652105101
 31
0.0
  0
LINE
  5
3DDF
330
3D54
100
AcDbEntity
  8
0
 62
     0
 48
10.0
100
AcDbLine
 10
101.5266722508861
 20
172.6589136847962
 30
0.0
 11
101.7045457590001
 21
172.6313271824585
 31
0.0
  0
LINE
  5
3DE0
330
3D54
100
AcDbEntity
  8
0
 62
     0
 48
10.0
100
AcDbLine
 10
98.31834088455275
 20
164.2038888212904
 30
0.0
 11
98.49621439266675
 21
164.1763023189528
 31
0.0
  0
LINE
  5
3DE1
330
3D54
100
AcDbEntity
  8
0
 62
     0
 48
10.0
100
AcDbLine
 10
100.4528229819205
 20
163.8728507932388
 30
0.0
 11
100.6306964900345
 21
163.8452642909012
 31
0.0
  0
LINE
  5
3DE2
330
3D54
100
AcDbEntity
  8
0
 62
     0
 48
10.0
100
AcDbLine
 10
102.5873050792883
 20
163.5418127651872
 30
0.0
 11
102.7651785874023
 21
163.5142262628496
 31
0.0
  0
LINE
  5
3DE3
330
3D54
100
AcDbEntity
  8
0
 62
     0
 48
10.0
100
AcDbLine
 10
98.58349909165331
 20
161.9246135913881
 30
0.0
 11
98.76137259976729
 21
161.8970270890505
 31
0.0
  0
LINE
  5
3DE4
330
3D54
100
AcDbEntity
  8
0
 62
     0
 48
10.0
100
AcDbLine
 10
100.7179811890211
 20
161.5935755633365
 30
0.0
 11
100.72699073486
 21
161.592178267809
 31
0.0
  0
LINE
  5
3DE5
330
3D54
100
AcDbEntity
  8
0
 62
     0
 48
10.0
100
AcDbLine
 10
100.72699073486
 20
161.592178267809
 30
0.0
 11
100.8958546971351
 21
161.5659890609989
 31
0.0
  0
LINE
  5
3DE6
330
3D54
100
AcDbEntity
  8
0
 62
     0
 48
10.0
100
AcDbLine
 10
98.08259527241595
 20
165.4871161079986
 30
0.0
 11
98.22263233639054
 21
165.5408713004304
 31
0.0
  0
LINE
  5
3DE7
330
3D54
100
AcDbEntity
  8
0
 62
     0
 48
10.0
100
AcDbLine
 10
99.7630400401109
 20
166.1321784171802
 30
0.0
 11
99.90307710408549
 21
166.185933609612
 31
0.0
  0
LINE
  5
3DE8
330
3D54
100
AcDbEntity
  8
0
 62
     0
 48
10.0
100
AcDbLine
 10
101.4434848078058
 20
166.7772407263617
 30
0.0
 11
101.5835218717804
 21
166.8309959187935
 31
0.0
  0
LINE
  5
3DE9
330
3D54
100
AcDbEntity
  8
0
 62
     0
 48
10.0
100
AcDbLine
 10
103.1239295755008
 20
167.4223030355432
 30
0.0
 11
103.2639666394753
 21
167.476058227975
 31
0.0
  0
LINE
  5
3DEA
330
3D54
100
AcDbEntity
  8
0
 62
     0
 48
10.0
100
AcDbLine
 10
99.27640937665287
 20
164.681878326668
 30
0.0
 11
99.41644644062744
 21
164.7356335190997
 31
0.0
  0
LINE
  5
3DEB
330
3D54
100
AcDbEntity
  8
0
 62
     0
 48
10.0
100
AcDbLine
 10
100.9568541443478
 20
165.3269406358495
 30
0.0
 11
101.0968912083224
 21
165.3806958282813
 31
0.0
  0
LINE
  5
3DEC
330
3D54
100
AcDbEntity
  8
0
 62
     0
 48
10.0
100
AcDbLine
 10
102.6372989120428
 20
165.972002945031
 30
0.0
 11
102.7773359760173
 21
166.0257581374628
 31
0.0
  0
LINE
  5
3DED
330
3D54
100
AcDbEntity
  8
0
 62
     0
 48
10.0
100
AcDbLine
 10
98.78977871319484
 20
163.2315782361557
 30
0.0
 11
98.92981577716941
 21
163.2853334285876
 31
0.0
  0
LINE
  5
3DEE
330
3D54
100
AcDbEntity
  8
0
 62
     0
 48
10.0
100
AcDbLine
 10
100.4702234808897
 20
163.8766405453373
 30
0.0
 11
100.6102605448643
 21
163.9303957377691
 31
0.0
  0
LINE
  5
3DEF
330
3D54
100
AcDbEntity
  8
0
 62
     0
 48
10.0
100
AcDbLine
 10
102.1506682485847
 20
164.5217028545188
 30
0.0
 11
102.2907053125593
 21
164.5754580469506
 31
0.0
  0
LINE
  5
3DF0
330
3D54
100
AcDbEntity
  8
0
 62
     0
 48
10.0
100
AcDbLine
 10
98.3031480497368
 20
161.7812781456435
 30
0.0
 11
98.44318511371136
 21
161.8350333380753
 31
0.0
  0
LINE
  5
3DF1
330
3D54
100
AcDbEntity
  8
0
 62
     0
 48
10.0
100
AcDbLine
 10
99.98359281743175
 20
162.426340454825
 30
0.0
 11
100.1236298814063
 21
162.4800956472568
 31
0.0
  0
LINE
  5
3DF2
330
3D54
100
AcDbEntity
  8
0
 62
     0
 48
10.0
100
AcDbLine
 10
101.6640375851267
 20
163.0714027640066
 30
0.0
 11
101.8040746491013
 21
163.1251579564384
 31
0.0
  0
LINE
  5
3DF3
330
3D54
100
AcDbEntity
  8
0
 62
     0
 48
10.0
100
AcDbLine
 10
103.3444823528216
 20
163.7164650731881
 30
0.0
 11
103.4845194167962
 21
163.77022026562
 31
0.0
  0
LINE
  5
3DF4
330
3D54
100
AcDbEntity
  8
0
 62
     0
 48
10.0
100
AcDbLine
 10
101.1774069216686
 20
161.6211026734944
 30
0.0
 11
101.3174439856432
 21
161.6748578659262
 31
0.0
  0
LINE
  5
3DF5
330
3D54
100
AcDbEntity
  8
0
 62
     0
 48
10.0
100
AcDbLine
 10
102.8578516893636
 20
162.2661649826759
 30
0.0
 11
102.9978887533382
 21
162.3199201751077
 31
0.0
  0
LINE
  5
3DF6
330
3D54
100
AcDbEntity
  8
0
 62
     0
 48
10.0
100
AcDbLine
 10
98.56922593587398
 20
166.9374161985109
 30
0.0
 11
98.70926299984855
 21
166.9911713909427
 31
0.0
  0
LINE
  5
3DF7
330
3D54
100
AcDbEntity
  8
0
 62
     0
 48
10.0
100
AcDbLine
 10
100.2496707035689
 20
167.5824785076924
 30
0.0
 11
100.3897077675435
 21
167.6362337001242
 31
0.0
  0
LINE
  5
3DF8
330
3D54
100
AcDbEntity
  8
0
 62
     0
 48
10.0
100
AcDbLine
 10
101.9301154712639
 20
168.2275408168739
 30
0.0
 11
102.0701525352385
 21
168.2812960093057
 31
0.0
  0
LINE
  5
3DF9
330
3D54
100
AcDbEntity
  8
0
 62
     0
 48
10.0
100
AcDbLine
 10
99.05585659933203
 20
168.3877162890231
 30
0.0
 11
99.19589366330662
 21
168.4414714814549
 31
0.0
  0
LINE
  5
3DFA
330
3D54
100
AcDbEntity
  8
0
 62
     0
 48
10.0
100
AcDbLine
 10
100.736301367027
 20
169.0327785982046
 30
0.0
 11
100.8763384310015
 21
169.0865337906364
 31
0.0
  0
LINE
  5
3DFB
330
3D54
100
AcDbEntity
  8
0
 62
     0
 48
10.0
100
AcDbLine
 10
102.4167461347219
 20
169.6778409073861
 30
0.0
 11
102.5567831986965
 21
169.7315960998179
 31
0.0
  0
LINE
  5
3DFC
330
3D54
100
AcDbEntity
  8
0
 62
     0
 48
10.0
100
AcDbLine
 10
99.54248726279006
 20
169.8380163795353
 30
0.0
 11
99.68252432676464
 21
169.8917715719671
 31
0.0
  0
LINE
  5
3DFD
330
3D54
100
AcDbEntity
  8
0
 62
     0
 48
10.0
100
AcDbLine
 10
101.222932030485
 20
170.4830786887168
 30
0.0
 11
101.3629690944596
 21
170.5368338811486
 31
0.0
  0
LINE
  5
3DFE
330
3D54
100
AcDbEntity
  8
0
 62
     0
 48
10.0
100
AcDbLine
 10
102.90337679818
 20
171.1281409978983
 30
0.0
 11
102.9569911398281
 21
171.1487216154191
 31
0.0
  0
LINE
  5
3DFF
330
3D54
100
AcDbEntity
  8
0
 62
     0
 48
10.0
100
AcDbLine
 10
98.4490110802127
 20
170.6817702803413
 30
0.0
 11
98.48871022252772
 21
170.6970093532978
 31
0.0
  0
LINE
  5
3E00
330
3D54
100
AcDbEntity
  8
0
 62
     0
 48
10.0
100
AcDbLine
 10
100.029117926248
 20
171.2883164700475
 30
0.0
 11
100.1691549902226
 21
171.3420716624793
 31
0.0
  0
LINE
  5
3E01
330
3D54
100
AcDbEntity
  8
0
 62
     0
 48
10.0
100
AcDbLine
 10
101.709562693943
 20
171.9333787792291
 30
0.0
 11
101.8495997579176
 21
171.9871339716609
 31
0.0
  0
LINE
  5
3E02
330
3D54
100
AcDbEntity
  8
0
 62
     0
 48
10.0
100
AcDbLine
 10
98.83530382201117
 20
172.0935542513782
 30
0.0
 11
98.97534088598575
 21
172.14730944381
 31
0.0
  0
LINE
  5
3E03
330
3D54
100
AcDbEntity
  8
0
 62
     0
 48
10.0
100
AcDbLine
 10
100.5157485897061
 20
172.7386165605597
 30
0.0
 11
100.6557856536806
 21
172.7923717529915
 31
0.0
  0
LINE
  5
3E04
330
3D54
100
AcDbEntity
  8
0
 62
     0
 48
10.0
100
AcDbLine
 10
102.1961933574011
 20
173.3836788697413
 30
0.0
 11
102.2052838400689
 21
173.3871683790986
 31
0.0
  0
LINE
  5
3E05
330
3D54
100
AcDbEntity
  8
0
 62
     0
 48
10.0
100
AcDbLine
 10
99.05585665719607
 20
168.3877162434308
 30
0.0
 11
99.15534116590269
 21
168.3206130950143
 31
0.0
  0
LINE
  5
3E06
330
3D54
100
AcDbEntity
  8
0
 62
     0
 48
10.0
100
AcDbLine
 10
100.2496707616753
 20
167.5824784624329
 30
0.0
 11
100.3491552703819
 21
167.5153753140165
 31
0.0
  0
LINE
  5
3E07
330
3D54
100
AcDbEntity
  8
0
 62
     0
 48
10.0
100
AcDbLine
 10
101.4434848661545
 20
166.7772406814351
 30
0.0
 11
101.5429693748612
 21
166.7101375330186
 31
0.0
  0
LINE
  5
3E08
330
3D54
100
AcDbEntity
  8
0
 62
     0
 48
10.0
100
AcDbLine
 10
102.6372989706338
 20
165.9720029004372
 30
0.0
 11
102.7367834793404
 21
165.9048997520207
 31
0.0
  0
LINE
  5
3E09
330
3D54
100
AcDbEntity
  8
0
 62
     0
 48
10.0
100
AcDbLine
 10
98.43880677060223
 20
170.5824582646676
 30
0.0
 11
98.44815772526658
 21
170.5761509661059
 31
0.0
  0
LINE
  5
3E0A
330
3D54
100
AcDbEntity
  8
0
 62
     0
 48
10.0
100
AcDbLine
 10
99.54248732103922
 20
169.8380163335245
 30
0.0
 11
99.64197182974583
 21
169.7709131851081
 31
0.0
  0
LINE
  5
3E0B
330
3D54
100
AcDbEntity
  8
0
 62
     0
 48
10.0
100
AcDbLine
 10
100.7363014255185
 20
169.0327785525267
 30
0.0
 11
100.8357859342251
 21
168.9656754041102
 31
0.0
  0
LINE
  5
3E0C
330
3D54
100
AcDbEntity
  8
0
 62
     0
 48
10.0
100
AcDbLine
 10
101.9301155299977
 20
168.2275407715288
 30
0.0
 11
102.0296000387043
 21
168.1604376231123
 31
0.0
  0
LINE
  5
3E0D
330
3D54
100
AcDbEntity
  8
0
 62
     0
 48
10.0
100
AcDbLine
 10
103.123929634477
 20
167.4223029905309
 30
0.0
 11
103.2234141431836
 21
167.3551998421144
 31
0.0
  0
LINE
  5
3E0E
330
3D54
100
AcDbEntity
  8
0
 62
     0
 48
10.0
100
AcDbLine
 10
98.83530388040313
 20
172.0935542046161
 30
0.0
 11
98.93478838910974
 21
172.0264510561996
 31
0.0
  0
LINE
  5
3E0F
330
3D54
100
AcDbEntity
  8
0
 62
     0
 48
10.0
100
AcDbLine
 10
100.0291179848823
 20
171.2883164236182
 30
0.0
 11
100.1286024935889
 21
171.2212132752017
 31
0.0
  0
LINE
  5
3E10
330
3D54
100
AcDbEntity
  8
0
 62
     0
 48
10.0
100
AcDbLine
 10
101.2229320893616
 20
170.4830786426204
 30
0.0
 11
101.3224165980682
 21
170.4159754942039
 31
0.0
  0
LINE
  5
3E11
330
3D54
100
AcDbEntity
  8
0
 62
     0
 48
10.0
100
AcDbLine
 10
102.4167461938409
 20
169.6778408616225
 30
0.0
 11
102.5162307025475
 21
169.610737713206
 31
0.0
  0
LINE
  5
3E12
330
3D54
100
AcDbEntity
  8
0
 62
     0
 48
10.0
100
AcDbLine
 10
100.5157486487255
 20
172.738616513712
 30
0.0
 11
100.6152331574321
 21
172.6715133652955
 31
0.0
  0
LINE
  5
3E13
330
3D54
100
AcDbEntity
  8
0
 62
     0
 48
10.0
100
AcDbLine
 10
101.7095627532048
 20
171.9333787327141
 30
0.0
 11
101.8090472619114
 21
171.8662755842976
 31
0.0
  0
LINE
  5
3E14
330
3D54
100
AcDbEntity
  8
0
 62
     0
 48
10.0
100
AcDbLine
 10
102.903376857684
 20
171.1281409517162
 30
0.0
 11
102.9632557549114
 21
171.0877521255573
 31
0.0
  0
LINE
  5
3E15
330
3D54
100
AcDbEntity
  8
0
 62
     0
 48
10.0
100
AcDbLine
 10
102.1961934170479
 20
173.3836788228078
 30
0.0
 11
102.2956779257546
 21
173.3165756743913
 31
0.0
  0
LINE
  5
3E16
330
3D54
100
AcDbEntity
  8
0
 62
     0
 48
10.0
100
AcDbLine
 10
98.56922599335291
 20
166.9374161533372
 30
0.0
 11
98.66871050205952
 21
166.8703130049207
 31
0.0
  0
LINE
  5
3E17
330
3D54
100
AcDbEntity
  8
0
 62
     0
 48
10.0
100
AcDbLine
 10
99.76304009783218
 20
166.1321783723393
 30
0.0
 11
99.86252460653879
 21
166.0650752239228
 31
0.0
  0
LINE
  5
3E18
330
3D54
100
AcDbEntity
  8
0
 62
     0
 48
10.0
100
AcDbLine
 10
100.9568542023114
 20
165.3269405913414
 30
0.0
 11
101.056338711018
 21
165.259837442925
 31
0.0
  0
LINE
  5
3E19
330
3D54
100
AcDbEntity
  8
0
 62
     0
 48
10.0
100
AcDbLine
 10
102.1506683067906
 20
164.5217028103436
 30
0.0
 11
102.2501528154972
 21
164.4545996619271
 31
0.0
  0
LINE
  5
3E1A
330
3D54
100
AcDbEntity
  8
0
 62
     0
 48
10.0
100
AcDbLine
 10
103.3444824112699
 20
163.7164650293457
 30
0.0
 11
103.4439669199765
 21
163.6493618809292
 31
0.0
  0
LINE
  5
3E1B
330
3D54
100
AcDbEntity
  8
0
 62
     0
 48
10.0
100
AcDbLine
 10
98.08259532950975
 20
165.4871160632434
 30
0.0
 11
98.18207983821636
 21
165.4200129148269
 31
0.0
  0
LINE
  5
3E1C
330
3D54
100
AcDbEntity
  8
0
 62
     0
 48
10.0
100
AcDbLine
 10
99.276409433989
 20
164.6818782822455
 30
0.0
 11
99.37589394269561
 21
164.614775133829
 31
0.0
  0
LINE
  5
3E1D
330
3D54
100
AcDbEntity
  8
0
 62
     0
 48
10.0
100
AcDbLine
 10
100.4702235384682
 20
163.8766405012477
 30
0.0
 11
100.5697080471748
 21
163.8095373528312
 31
0.0
  0
LINE
  5
3E1E
330
3D54
100
AcDbEntity
  8
0
 62
     0
 48
10.0
100
AcDbLine
 10
101.6640376429475
 20
163.0714027202498
 30
0.0
 11
101.7635221516541
 21
163.0042995718333
 31
0.0
  0
LINE
  5
3E1F
330
3D54
100
AcDbEntity
  8
0
 62
     0
 48
10.0
100
AcDbLine
 10
102.8578517474267
 20
162.2661649392519
 30
0.0
 11
102.9573362561334
 21
162.1990617908354
 31
0.0
  0
LINE
  5
3E20
330
3D54
100
AcDbEntity
  8
0
 62
     0
 48
10.0
100
AcDbLine
 10
98.78977877014586
 20
163.2315781921519
 30
0.0
 11
98.88926327885247
 21
163.1644750437354
 31
0.0
  0
LINE
  5
3E21
330
3D54
100
AcDbEntity
  8
0
 62
     0
 48
10.0
100
AcDbLine
 10
99.98359287462513
 20
162.426340411154
 30
0.0
 11
100.0830773833317
 21
162.3592372627375
 31
0.0
  0
LINE
  5
3E22
330
3D54
100
AcDbEntity
  8
0
 62
     0
 48
10.0
100
AcDbLine
 10
101.1774069791043
 20
161.6211026301561
 30
0.0
 11
101.2768914878109
 21
161.5539994817396
 31
0.0
  0
LINE
  5
3E23
330
3D54
100
AcDbEntity
  8
0
 62
     0
 48
10.0
100
AcDbLine
 10
98.3031481063027
 20
161.7812781020582
 30
0.0
 11
98.40263261500929
 21
161.7141749536417
 31
0.0
  0
LINE
  5
3E24
330
3D54
100
AcDbEntity
  8
0
 62
     0
 48
10.0
100
AcDbLine
 10
98.40275806286673
 20
161.714097873231
 30
0.0
 11
98.44331071125983
 21
161.8349561786685
 31
0.0
  0
LINE
  5
3E25
330
3D54
100
AcDbEntity
  8
0
 62
     0
 48
10.0
100
AcDbLine
 10
98.88938985758079
 20
163.1643975801966
 30
0.0
 11
98.92994250597389
 21
163.2852558856342
 31
0.0
  0
LINE
  5
3E26
330
3D54
100
AcDbEntity
  8
0
 62
     0
 48
10.0
100
AcDbLine
 10
99.37602165229485
 20
164.6146972871622
 30
0.0
 11
99.41657430068794
 21
164.7355555925998
 31
0.0
  0
LINE
  5
3E27
330
3D54
100
AcDbEntity
  8
0
 62
     0
 48
10.0
100
AcDbLine
 10
99.86265344700889
 20
166.0649969941279
 30
0.0
 11
99.903206095402
 21
166.1858552995655
 31
0.0
  0
LINE
  5
3E28
330
3D54
100
AcDbEntity
  8
0
 62
     0
 48
10.0
100
AcDbLine
 10
100.3492852417229
 20
167.5152967010935
 30
0.0
 11
100.389837890116
 21
167.6361550065311
 31
0.0
  0
LINE
  5
3E29
330
3D54
100
AcDbEntity
  8
0
 62
     0
 48
10.0
100
AcDbLine
 10
100.8359170364369
 20
168.9655964080593
 30
0.0
 11
100.87646968483
 21
169.0864547134968
 31
0.0
  0
LINE
  5
3E2A
330
3D54
100
AcDbEntity
  8
0
 62
     0
 48
10.0
100
AcDbLine
 10
101.322548831151
 20
170.4158961150249
 30
0.0
 11
101.3631014795441
 21
170.5367544204625
 31
0.0
  0
LINE
  5
3E2B
330
3D54
100
AcDbEntity
  8
0
 62
     0
 48
10.0
100
AcDbLine
 10
101.8091806258651
 20
171.8661958219905
 30
0.0
 11
101.8497332742581
 21
171.9870541274281
 31
0.0
  0
LINE
  5
3E2C
330
3D54
100
AcDbEntity
  8
0
 62
     0
 48
10.0
100
AcDbLine
 10
102.2958124205791
 20
173.3164955289562
 30
0.0
 11
102.3195259025147
 21
173.3871683790986
 31
0.0
  0
LINE
  5
3E2D
330
3D54
100
AcDbEntity
  8
0
 62
     0
 48
10.0
100
AcDbLine
 10
100.0832033200296
 20
162.3591588666509
 30
0.0
 11
100.1237559684227
 21
162.4800171720885
 31
0.0
  0
LINE
  5
3E2E
330
3D54
100
AcDbEntity
  8
0
 62
     0
 48
10.0
100
AcDbLine
 10
100.5698351147437
 20
163.8094585736165
 30
0.0
 11
100.6103877631368
 21
163.9303168790541
 31
0.0
  0
LINE
  5
3E2F
330
3D54
100
AcDbEntity
  8
0
 62
     0
 48
10.0
100
AcDbLine
 10
101.0564669094578
 20
165.2597582805822
 30
0.0
 11
101.0970195578509
 21
165.3806165860198
 31
0.0
  0
LINE
  5
3E30
330
3D54
100
AcDbEntity
  8
0
 62
     0
 48
10.0
100
AcDbLine
 10
101.5430987041718
 20
166.7100579875478
 30
0.0
 11
101.5836513525649
 21
166.8309162929854
 31
0.0
  0
LINE
  5
3E31
330
3D54
100
AcDbEntity
  8
0
 62
     0
 48
10.0
100
AcDbLine
 10
102.0297304988859
 20
168.1603576945135
 30
0.0
 11
102.070283147279
 21
168.2812159999511
 31
0.0
  0
LINE
  5
3E32
330
3D54
100
AcDbEntity
  8
0
 62
     0
 48
10.0
100
AcDbLine
 10
102.5163622935999
 20
169.6106574014791
 30
0.0
 11
102.556914941993
 21
169.7315157069167
 31
0.0
  0
LINE
  5
3E33
330
3D54
100
AcDbEntity
  8
0
 62
     0
 48
10.0
100
AcDbLine
 10
101.2770167824786
 20
161.5539201531051
 30
0.0
 11
101.3175694308717
 21
161.6747784585427
 31
0.0
  0
LINE
  5
3E34
330
3D54
100
AcDbEntity
  8
0
 62
     0
 48
10.0
100
AcDbLine
 10
101.7636485771926
 20
163.0042198600708
 30
0.0
 11
101.8042012255857
 21
163.1250781655084
 31
0.0
  0
LINE
  5
3E35
330
3D54
100
AcDbEntity
  8
0
 62
     0
 48
10.0
100
AcDbLine
 10
102.2502803719067
 20
164.4545195670364
 30
0.0
 11
102.2908330202998
 21
164.575377872474
 31
0.0
  0
LINE
  5
3E36
330
3D54
100
AcDbEntity
  8
0
 62
     0
 48
10.0
100
AcDbLine
 10
102.7369121666207
 20
165.904819274002
 30
0.0
 11
102.7774648150139
 21
166.0256775794396
 31
0.0
  0
LINE
  5
3E37
330
3D54
100
AcDbEntity
  8
0
 62
     0
 48
10.0
100
AcDbLine
 10
103.2235439613348
 20
167.3551189809677
 30
0.0
 11
103.2640966097279
 21
167.4759772864053
 31
0.0
  0
LINE
  5
3E38
330
3D54
100
AcDbEntity
  8
0
 62
     0
 48
10.0
100
AcDbLine
 10
102.9574620396416
 20
162.198981146525
 30
0.0
 11
102.9980146880347
 21
162.3198394519626
 31
0.0
  0
LINE
  5
3E39
330
3D54
100
AcDbEntity
  8
0
 62
     0
 48
10.0
100
AcDbLine
 10
103.4440938343556
 20
163.6492808534907
 30
0.0
 11
103.4846464827487
 21
163.7701391589282
 31
0.0
  0
LINE
  5
3E3A
330
3D54
100
AcDbEntity
  8
0
 62
     0
 48
10.0
100
AcDbLine
 10
98.18220818984592
 20
165.419936000708
 30
0.0
 11
98.22276083823901
 21
165.5407943061456
 31
0.0
  0
LINE
  5
3E3B
330
3D54
100
AcDbEntity
  8
0
 62
     0
 48
10.0
100
AcDbLine
 10
98.66883998455996
 20
166.8702357076736
 30
0.0
 11
98.70939263295307
 21
166.9910940131112
 31
0.0
  0
LINE
  5
3E3C
330
3D54
100
AcDbEntity
  8
0
 62
     0
 48
10.0
100
AcDbLine
 10
99.15547177927402
 20
168.3205354146393
 30
0.0
 11
99.19602442766713
 21
168.4413937200769
 31
0.0
  0
LINE
  5
3E3D
330
3D54
100
AcDbEntity
  8
0
 62
     0
 48
10.0
100
AcDbLine
 10
99.64210357398808
 20
169.7708351216049
 30
0.0
 11
99.68265622238119
 21
169.8916934270425
 31
0.0
  0
LINE
  5
3E3E
330
3D54
100
AcDbEntity
  8
0
 62
     0
 48
10.0
100
AcDbLine
 10
100.1287353687021
 20
171.2211348285705
 30
0.0
 11
100.1692880170952
 21
171.3419931340081
 31
0.0
  0
LINE
  5
3E3F
330
3D54
100
AcDbEntity
  8
0
 62
     0
 48
10.0
100
AcDbLine
 10
100.6153671634161
 20
172.6714345355362
 30
0.0
 11
100.6559198118093
 21
172.7922928409738
 31
0.0
  0
LINE
  5
3E40
330
3D54
100
AcDbEntity
  8
0
 62
     0
 48
10.0
100
AcDbLine
 10
98.44829011153915
 20
170.5760738351507
 30
0.0
 11
98.48884275993226
 21
170.6969321405883
 31
0.0
  0
LINE
  5
3E41
330
3D54
100
AcDbEntity
  8
0
 62
     0
 48
10.0
100
AcDbLine
 10
98.93492190625321
 20
172.0263735421164
 30
0.0
 11
98.97547455464632
 21
172.147231847554
 31
0.0
  0
LINE
  5
3E42
330
3D54
100
AcDbEntity
  8
0
 62
     0
 48
10.0
100
AcDbLine
 10
98.87955476242396
 20
165.8235396206003
 30
0.0
 11
98.87955476242396
 21
165.8235396206003
 31
0.0
  0
LINE
  5
3E43
330
3D54
100
AcDbEntity
  8
0
 62
     0
 48
10.0
100
AcDbLine
 10
99.94264823841421
 20
166.639279935472
 30
0.0
 11
99.94264823841421
 21
166.639279935472
 31
0.0
  0
LINE
  5
3E44
330
3D54
100
AcDbEntity
  8
0
 62
     0
 48
10.0
100
AcDbLine
 10
100.9938414143001
 20
167.4458888289085
 30
0.0
 11
100.9938414143001
 21
167.4458888289085
 31
0.0
  0
LINE
  5
3E45
330
3D54
100
AcDbEntity
  8
0
 62
     0
 48
10.0
100
AcDbLine
 10
102.0283741700398
 20
168.2397137323359
 30
0.0
 11
102.0283741700398
 21
168.2397137323359
 31
0.0
  0
LINE
  5
3E46
330
3D54
100
AcDbEntity
  8
0
 62
     0
 48
10.0
100
AcDbLine
 10
103.0914676460301
 20
169.0554540472076
 30
0.0
 11
103.0914676460301
 21
169.0554540472076
 31
0.0
  0
LINE
  5
3E47
330
3D54
100
AcDbEntity
  8
0
 62
     0
 48
10.0
100
AcDbLine
 10
98.90387447305849
 20
166.4893273282629
 30
0.0
 11
98.90387447305849
 21
166.4893273282629
 31
0.0
  0
LINE
  5
3E48
330
3D54
100
AcDbEntity
  8
0
 62
     0
 48
10.0
100
AcDbLine
 10
99.96696794904876
 20
167.3050676431346
 30
0.0
 11
99.96696794904876
 21
167.3050676431346
 31
0.0
  0
LINE
  5
3E49
330
3D54
100
AcDbEntity
  8
0
 62
     0
 48
10.0
100
AcDbLine
 10
101.0181611249346
 20
168.1116765365712
 30
0.0
 11
101.0181611249346
 21
168.1116765365712
 31
0.0
  0
LINE
  5
3E4A
330
3D54
100
AcDbEntity
  8
0
 62
     0
 48
10.0
100
AcDbLine
 10
102.0526938806744
 20
168.9055014399986
 30
0.0
 11
102.0526938806744
 21
168.9055014399986
 31
0.0
  0
LINE
  5
3E4B
330
3D54
100
AcDbEntity
  8
0
 62
     0
 48
10.0
100
AcDbLine
 10
98.92819418369311
 20
167.1551150359256
 30
0.0
 11
98.92819418369311
 21
167.1551150359256
 31
0.0
  0
LINE
  5
3E4C
330
3D54
100
AcDbEntity
  8
0
 62
     0
 48
10.0
100
AcDbLine
 10
99.99128765968336
 20
167.9708553507972
 30
0.0
 11
99.99128765968336
 21
167.9708553507972
 31
0.0
  0
LINE
  5
3E4D
330
3D54
100
AcDbEntity
  8
0
 62
     0
 48
10.0
100
AcDbLine
 10
101.0424808355692
 20
168.7774642442338
 30
0.0
 11
101.0424808355692
 21
168.7774642442338
 31
0.0
  0
LINE
  5
3E4E
330
3D54
100
AcDbEntity
  8
0
 62
     0
 48
10.0
100
AcDbLine
 10
102.077013591309
 20
169.5712891476611
 30
0.0
 11
102.077013591309
 21
169.5712891476611
 31
0.0
  0
LINE
  5
3E4F
330
3D54
100
AcDbEntity
  8
0
 62
     0
 48
10.0
100
AcDbLine
 10
98.95251389432766
 20
167.8209027435882
 30
0.0
 11
98.95251389432766
 21
167.8209027435882
 31
0.0
  0
LINE
  5
3E50
330
3D54
100
AcDbEntity
  8
0
 62
     0
 48
10.0
100
AcDbLine
 10
100.0156073703179
 20
168.6366430584598
 30
0.0
 11
100.0156073703179
 21
168.6366430584598
 31
0.0
  0
LINE
  5
3E51
330
3D54
100
AcDbEntity
  8
0
 62
     0
 48
10.0
100
AcDbLine
 10
101.0668005462038
 20
169.4432519518964
 30
0.0
 11
101.0668005462038
 21
169.4432519518964
 31
0.0
  0
LINE
  5
3E52
330
3D54
100
AcDbEntity
  8
0
 62
     0
 48
10.0
100
AcDbLine
 10
102.1013333019435
 20
170.2370768553238
 30
0.0
 11
102.1013333019435
 21
170.2370768553238
 31
0.0
  0
LINE
  5
3E53
330
3D54
100
AcDbEntity
  8
0
 62
     0
 48
10.0
100
AcDbLine
 10
98.97683360496225
 20
168.4866904512508
 30
0.0
 11
98.97683360496225
 21
168.4866904512508
 31
0.0
  0
LINE
  5
3E54
330
3D54
100
AcDbEntity
  8
0
 62
     0
 48
10.0
100
AcDbLine
 10
100.0399270809525
 20
169.3024307661225
 30
0.0
 11
100.0399270809525
 21
169.3024307661225
 31
0.0
  0
LINE
  5
3E55
330
3D54
100
AcDbEntity
  8
0
 62
     0
 48
10.0
100
AcDbLine
 10
101.0911202568383
 20
170.109039659559
 30
0.0
 11
101.0911202568383
 21
170.109039659559
 31
0.0
  0
LINE
  5
3E56
330
3D54
100
AcDbEntity
  8
0
 62
     0
 48
10.0
100
AcDbLine
 10
102.1256530125781
 20
170.9028645629864
 30
0.0
 11
102.1256530125781
 21
170.9028645629864
 31
0.0
  0
LINE
  5
3E57
330
3D54
100
AcDbEntity
  8
0
 62
     0
 48
10.0
100
AcDbLine
 10
99.00115331559684
 20
169.1524781589134
 30
0.0
 11
99.00115331559684
 21
169.1524781589134
 31
0.0
  0
LINE
  5
3E58
330
3D54
100
AcDbEntity
  8
0
 62
     0
 48
10.0
100
AcDbLine
 10
100.064246791587
 20
169.9682184737851
 30
0.0
 11
100.064246791587
 21
169.9682184737851
 31
0.0
  0
LINE
  5
3E59
330
3D54
100
AcDbEntity
  8
0
 62
     0
 48
10.0
100
AcDbLine
 10
101.1154399674729
 20
170.7748273672217
 30
0.0
 11
101.1154399674729
 21
170.7748273672217
 31
0.0
  0
LINE
  5
3E5A
330
3D54
100
AcDbEntity
  8
0
 62
     0
 48
10.0
100
AcDbLine
 10
102.1499727232127
 20
171.5686522706491
 30
0.0
 11
102.1499727232127
 21
171.5686522706491
 31
0.0
  0
LINE
  5
3E5B
330
3D54
100
AcDbEntity
  8
0
 62
     0
 48
10.0
100
AcDbLine
 10
99.0254730262314
 20
169.818265866576
 30
0.0
 11
99.0254730262314
 21
169.818265866576
 31
0.0
  0
LINE
  5
3E5C
330
3D54
100
AcDbEntity
  8
0
 62
     0
 48
10.0
100
AcDbLine
 10
100.0885665022216
 20
170.6340061814477
 30
0.0
 11
100.0885665022216
 21
170.6340061814477
 31
0.0
  0
LINE
  5
3E5D
330
3D54
100
AcDbEntity
  8
0
 62
     0
 48
10.0
100
AcDbLine
 10
101.1397596781075
 20
171.4406150748843
 30
0.0
 11
101.1397596781075
 21
171.4406150748843
 31
0.0
  0
LINE
  5
3E5E
330
3D54
100
AcDbEntity
  8
0
 62
     0
 48
10.0
100
AcDbLine
 10
102.1742924338473
 20
172.2344399783117
 30
0.0
 11
102.1742924338473
 21
172.2344399783117
 31
0.0
  0
LINE
  5
3E5F
330
3D54
100
AcDbEntity
  8
0
 62
     0
 48
10.0
100
AcDbLine
 10
99.04979273686599
 20
170.4840535742386
 30
0.0
 11
99.04979273686599
 21
170.4840535742386
 31
0.0
  0
LINE
  5
3E60
330
3D54
100
AcDbEntity
  8
0
 62
     0
 48
10.0
100
AcDbLine
 10
100.1128862128562
 20
171.2997938891103
 30
0.0
 11
100.1128862128562
 21
171.2997938891103
 31
0.0
  0
LINE
  5
3E61
330
3D54
100
AcDbEntity
  8
0
 62
     0
 48
10.0
100
AcDbLine
 10
101.1640793887421
 20
172.1064027825469
 30
0.0
 11
101.1640793887421
 21
172.1064027825469
 31
0.0
  0
LINE
  5
3E62
330
3D54
100
AcDbEntity
  8
0
 62
     0
 48
10.0
100
AcDbLine
 10
102.1986121444819
 20
172.9002276859743
 30
0.0
 11
102.1986121444819
 21
172.9002276859743
 31
0.0
  0
LINE
  5
3E63
330
3D54
100
AcDbEntity
  8
0
 62
     0
 48
10.0
100
AcDbLine
 10
99.07411244750058
 20
171.1498412819013
 30
0.0
 11
99.07411244750058
 21
171.1498412819013
 31
0.0
  0
LINE
  5
3E64
330
3D54
100
AcDbEntity
  8
0
 62
     0
 48
10.0
100
AcDbLine
 10
100.1372059234908
 20
171.965581596773
 30
0.0
 11
100.1372059234908
 21
171.965581596773
 31
0.0
  0
LINE
  5
3E65
330
3D54
100
AcDbEntity
  8
0
 62
     0
 48
10.0
100
AcDbLine
 10
101.1883990993767
 20
172.7721904902095
 30
0.0
 11
101.1883990993767
 21
172.7721904902095
 31
0.0
  0
LINE
  5
3E66
330
3D54
100
AcDbEntity
  8
0
 62
     0
 48
10.0
100
AcDbLine
 10
99.09843215813518
 20
171.8156289895639
 30
0.0
 11
99.09843215813518
 21
171.8156289895639
 31
0.0
  0
LINE
  5
3E67
330
3D54
100
AcDbEntity
  8
0
 62
     0
 48
10.0
100
AcDbLine
 10
100.1615256341254
 20
172.6313693044356
 30
0.0
 11
100.1615256341254
 21
172.6313693044356
 31
0.0
  0
LINE
  5
3E68
330
3D54
100
AcDbEntity
  8
0
 62
     0
 48
10.0
100
AcDbLine
 10
99.12275186876975
 20
172.4814166972265
 30
0.0
 11
99.12275186876975
 21
172.4814166972265
 31
0.0
  0
LINE
  5
3E69
330
3D54
100
AcDbEntity
  8
0
 62
     0
 48
10.0
100
AcDbLine
 10
100.18584534476
 20
173.2971570120982
 30
0.0
 11
100.18584534476
 21
173.2971570120982
 31
0.0
  0
LINE
  5
3E6A
330
3D54
100
AcDbEntity
  8
0
 62
     0
 48
10.0
100
AcDbLine
 10
99.14707157940434
 20
173.1472044048891
 30
0.0
 11
99.14707157940434
 21
173.1472044048891
 31
0.0
  0
LINE
  5
3E6B
330
3D54
100
AcDbEntity
  8
0
 62
     0
 48
10.0
100
AcDbLine
 10
97.82070229604959
 20
164.3639270095103
 30
0.0
 11
97.82070229604959
 21
164.3639270095103
 31
0.0
  0
LINE
  5
3E6C
330
3D54
100
AcDbEntity
  8
0
 62
     0
 48
10.0
100
AcDbLine
 10
98.85523505178937
 20
165.1577519129377
 30
0.0
 11
98.85523505178937
 21
165.1577519129377
 31
0.0
  0
LINE
  5
3E6D
330
3D54
100
AcDbEntity
  8
0
 62
     0
 48
10.0
100
AcDbLine
 10
99.91832852777962
 20
165.9734922278094
 30
0.0
 11
99.91832852777962
 21
165.9734922278094
 31
0.0
  0
LINE
  5
3E6E
330
3D54
100
AcDbEntity
  8
0
 62
     0
 48
10.0
100
AcDbLine
 10
100.9695217036654
 20
166.7801011212459
 30
0.0
 11
100.9695217036654
 21
166.7801011212459
 31
0.0
  0
LINE
  5
3E6F
330
3D54
100
AcDbEntity
  8
0
 62
     0
 48
10.0
100
AcDbLine
 10
102.0040544594052
 20
167.5739260246733
 30
0.0
 11
102.0040544594052
 21
167.5739260246733
 31
0.0
  0
LINE
  5
3E70
330
3D54
100
AcDbEntity
  8
0
 62
     0
 48
10.0
100
AcDbLine
 10
103.0671479353955
 20
168.389666339545
 30
0.0
 11
103.0671479353955
 21
168.389666339545
 31
0.0
  0
LINE
  5
3E71
330
3D54
100
AcDbEntity
  8
0
 62
     0
 48
10.0
100
AcDbLine
 10
97.79638258541503
 20
163.6981393018477
 30
0.0
 11
97.79638258541503
 21
163.6981393018477
 31
0.0
  0
LINE
  5
3E72
330
3D54
100
AcDbEntity
  8
0
 62
     0
 48
10.0
100
AcDbLine
 10
98.83091534115481
 20
164.4919642052751
 30
0.0
 11
98.83091534115481
 21
164.4919642052751
 31
0.0
  0
LINE
  5
3E73
330
3D54
100
AcDbEntity
  8
0
 62
     0
 48
10.0
100
AcDbLine
 10
99.89400881714507
 20
165.3077045201467
 30
0.0
 11
99.89400881714507
 21
165.3077045201467
 31
0.0
  0
LINE
  5
3E74
330
3D54
100
AcDbEntity
  8
0
 62
     0
 48
10.0
100
AcDbLine
 10
100.9452019930308
 20
166.1143134135833
 30
0.0
 11
100.9452019930308
 21
166.1143134135833
 31
0.0
  0
LINE
  5
3E75
330
3D54
100
AcDbEntity
  8
0
 62
     0
 48
10.0
100
AcDbLine
 10
101.9797347487706
 20
166.9081383170107
 30
0.0
 11
101.9797347487706
 21
166.9081383170107
 31
0.0
  0
LINE
  5
3E76
330
3D54
100
AcDbEntity
  8
0
 62
     0
 48
10.0
100
AcDbLine
 10
103.0428282247609
 20
167.7238786318824
 30
0.0
 11
103.0428282247609
 21
167.7238786318824
 31
0.0
  0
LINE
  5
3E77
330
3D54
100
AcDbEntity
  8
0
 62
     0
 48
10.0
100
AcDbLine
 10
97.77206287478044
 20
163.0323515941851
 30
0.0
 11
97.77206287478044
 21
163.0323515941851
 31
0.0
  0
LINE
  5
3E78
330
3D54
100
AcDbEntity
  8
0
 62
     0
 48
10.0
100
AcDbLine
 10
98.80659563052022
 20
163.8261764976125
 30
0.0
 11
98.80659563052022
 21
163.8261764976125
 31
0.0
  0
LINE
  5
3E79
330
3D54
100
AcDbEntity
  8
0
 62
     0
 48
10.0
100
AcDbLine
 10
99.86968910651048
 20
164.6419168124841
 30
0.0
 11
99.86968910651048
 21
164.6419168124841
 31
0.0
  0
LINE
  5
3E7A
330
3D54
100
AcDbEntity
  8
0
 62
     0
 48
10.0
100
AcDbLine
 10
100.9208822823963
 20
165.4485257059207
 30
0.0
 11
100.9208822823963
 21
165.4485257059207
 31
0.0
  0
LINE
  5
3E7B
330
3D54
100
AcDbEntity
  8
0
 62
     0
 48
10.0
100
AcDbLine
 10
101.9554150381361
 20
166.2423506093481
 30
0.0
 11
101.9554150381361
 21
166.2423506093481
 31
0.0
  0
LINE
  5
3E7C
330
3D54
100
AcDbEntity
  8
0
 62
     0
 48
10.0
100
AcDbLine
 10
103.0185085141263
 20
167.0580909242197
 30
0.0
 11
103.0185085141263
 21
167.0580909242197
 31
0.0
  0
LINE
  5
3E7D
330
3D54
100
AcDbEntity
  8
0
 62
     0
 48
10.0
100
AcDbLine
 10
97.74774316414585
 20
162.3665638865225
 30
0.0
 11
97.74774316414585
 21
162.3665638865225
 31
0.0
  0
LINE
  5
3E7E
330
3D54
100
AcDbEntity
  8
0
 62
     0
 48
10.0
100
AcDbLine
 10
98.78227591988562
 20
163.1603887899498
 30
0.0
 11
98.78227591988562
 21
163.1603887899498
 31
0.0
  0
LINE
  5
3E7F
330
3D54
100
AcDbEntity
  8
0
 62
     0
 48
10.0
100
AcDbLine
 10
99.84536939587588
 20
163.9761291048215
 30
0.0
 11
99.84536939587588
 21
163.9761291048215
 31
0.0
  0
LINE
  5
3E80
330
3D54
100
AcDbEntity
  8
0
 62
     0
 48
10.0
100
AcDbLine
 10
100.8965625717617
 20
164.782737998258
 30
0.0
 11
100.8965625717617
 21
164.782737998258
 31
0.0
  0
LINE
  5
3E81
330
3D54
100
AcDbEntity
  8
0
 62
     0
 48
10.0
100
AcDbLine
 10
101.9310953275015
 20
165.5765629016854
 30
0.0
 11
101.9310953275015
 21
165.5765629016854
 31
0.0
  0
LINE
  5
3E82
330
3D54
100
AcDbEntity
  8
0
 62
     0
 48
10.0
100
AcDbLine
 10
102.9941888034917
 20
166.3923032165571
 30
0.0
 11
102.9941888034917
 21
166.3923032165571
 31
0.0
  0
LINE
  5
3E83
330
3D54
100
AcDbEntity
  8
0
 62
     0
 48
10.0
100
AcDbLine
 10
97.72342345351127
 20
161.7007761788598
 30
0.0
 11
97.72342345351127
 21
161.7007761788598
 31
0.0
  0
LINE
  5
3E84
330
3D54
100
AcDbEntity
  8
0
 62
     0
 48
10.0
100
AcDbLine
 10
98.75795620925105
 20
162.4946010822872
 30
0.0
 11
98.75795620925105
 21
162.4946010822872
 31
0.0
  0
LINE
  5
3E85
330
3D54
100
AcDbEntity
  8
0
 62
     0
 48
10.0
100
AcDbLine
 10
99.82104968524131
 20
163.3103413971589
 30
0.0
 11
99.82104968524131
 21
163.3103413971589
 31
0.0
  0
LINE
  5
3E86
330
3D54
100
AcDbEntity
  8
0
 62
     0
 48
10.0
100
AcDbLine
 10
100.8722428611271
 20
164.1169502905954
 30
0.0
 11
100.8722428611271
 21
164.1169502905954
 31
0.0
  0
LINE
  5
3E87
330
3D54
100
AcDbEntity
  8
0
 62
     0
 48
10.0
100
AcDbLine
 10
101.9067756168669
 20
164.9107751940228
 30
0.0
 11
101.9067756168669
 21
164.9107751940228
 31
0.0
  0
LINE
  5
3E88
330
3D54
100
AcDbEntity
  8
0
 62
     0
 48
10.0
100
AcDbLine
 10
102.9698690928572
 20
165.7265155088945
 30
0.0
 11
102.9698690928572
 21
165.7265155088945
 31
0.0
  0
LINE
  5
3E89
330
3D54
100
AcDbEntity
  8
0
 62
     0
 48
10.0
100
AcDbLine
 10
98.73363649861644
 20
161.8288133746245
 30
0.0
 11
98.73363649861644
 21
161.8288133746245
 31
0.0
  0
LINE
  5
3E8A
330
3D54
100
AcDbEntity
  8
0
 62
     0
 48
10.0
100
AcDbLine
 10
99.79672997460671
 20
162.6445536894962
 30
0.0
 11
99.79672997460671
 21
162.6445536894962
 31
0.0
  0
LINE
  5
3E8B
330
3D54
100
AcDbEntity
  8
0
 62
     0
 48
10.0
100
AcDbLine
 10
100.8479231504925
 20
163.4511625829328
 30
0.0
 11
100.8479231504925
 21
163.4511625829328
 31
0.0
  0
LINE
  5
3E8C
330
3D54
100
AcDbEntity
  8
0
 62
     0
 48
10.0
100
AcDbLine
 10
101.8824559062323
 20
164.2449874863602
 30
0.0
 11
101.8824559062323
 21
164.2449874863602
 31
0.0
  0
LINE
  5
3E8D
330
3D54
100
AcDbEntity
  8
0
 62
     0
 48
10.0
100
AcDbLine
 10
102.9455493822226
 20
165.0607278012319
 30
0.0
 11
102.9455493822226
 21
165.0607278012319
 31
0.0
  0
LINE
  5
3E8E
330
3D54
100
AcDbEntity
  8
0
 62
     0
 48
10.0
100
AcDbLine
 10
99.77241026397212
 20
161.9787659818336
 30
0.0
 11
99.77241026397212
 21
161.9787659818336
 31
0.0
  0
LINE
  5
3E8F
330
3D54
100
AcDbEntity
  8
0
 62
     0
 48
10.0
100
AcDbLine
 10
100.823603439858
 20
162.7853748752702
 30
0.0
 11
100.823603439858
 21
162.7853748752702
 31
0.0
  0
LINE
  5
3E90
330
3D54
100
AcDbEntity
  8
0
 62
     0
 48
10.0
100
AcDbLine
 10
101.8581361955977
 20
163.5791997786975
 30
0.0
 11
101.8581361955977
 21
163.5791997786975
 31
0.0
  0
LINE
  5
3E91
330
3D54
100
AcDbEntity
  8
0
 62
     0
 48
10.0
100
AcDbLine
 10
102.921229671588
 20
164.3949400935692
 30
0.0
 11
102.921229671588
 21
164.3949400935692
 31
0.0
  0
LINE
  5
3E92
330
3D54
100
AcDbEntity
  8
0
 62
     0
 48
10.0
100
AcDbLine
 10
100.7992837292234
 20
162.1195871676075
 30
0.0
 11
100.7992837292234
 21
162.1195871676075
 31
0.0
  0
LINE
  5
3E93
330
3D54
100
AcDbEntity
  8
0
 62
     0
 48
10.0
100
AcDbLine
 10
101.8338164849632
 20
162.9134120710349
 30
0.0
 11
101.8338164849632
 21
162.9134120710349
 31
0.0
  0
LINE
  5
3E94
330
3D54
100
AcDbEntity
  8
0
 62
     0
 48
10.0
100
AcDbLine
 10
102.8969099609534
 20
163.7291523859066
 30
0.0
 11
102.8969099609534
 21
163.7291523859066
 31
0.0
  0
LINE
  5
3E95
330
3D54
100
AcDbEntity
  8
0
 62
     0
 48
10.0
100
AcDbLine
 10
100.7749640185888
 20
161.4537994599449
 30
0.0
 11
100.7749640185888
 21
161.4537994599449
 31
0.0
  0
LINE
  5
3E96
330
3D54
100
AcDbEntity
  8
0
 62
     0
 48
10.0
100
AcDbLine
 10
101.8094967743286
 20
162.2476243633723
 30
0.0
 11
101.8094967743286
 21
162.2476243633723
 31
0.0
  0
LINE
  5
3E97
330
3D54
100
AcDbEntity
  8
0
 62
     0
 48
10.0
100
AcDbLine
 10
102.8725902503188
 20
163.063364678244
 30
0.0
 11
102.8725902503188
 21
163.063364678244
 31
0.0
  0
LINE
  5
3E98
330
3D54
100
AcDbEntity
  8
0
 62
     0
 48
10.0
100
AcDbLine
 10
101.785177063694
 20
161.5818366557097
 30
0.0
 11
101.785177063694
 21
161.5818366557097
 31
0.0
  0
LINE
  5
3E99
330
3D54
100
AcDbEntity
  8
0
 62
     0
 48
10.0
100
AcDbLine
 10
102.8482705396843
 20
162.3975769705814
 30
0.0
 11
102.8482705396843
 21
162.3975769705814
 31
0.0
  0
LINE
  5
3E9A
330
3D54
100
AcDbEntity
  8
0
 62
     0
 48
10.0
100
AcDbLine
 10
102.8239508290497
 20
161.7317892629188
 30
0.0
 11
102.8239508290497
 21
161.7317892629188
 31
0.0
  0
LINE
  5
3E9B
330
3D54
100
AcDbEntity
  8
0
 62
     0
 48
10.0
100
AcDbLine
 10
103.850824294301
 20
161.8726104486927
 30
0.0
 11
103.850824294301
 21
161.8726104486927
 31
0.0
  0
LINE
  5
3E9C
330
3D54
100
AcDbEntity
  8
0
 62
     0
 48
10.0
100
AcDbLine
 10
98.22376020448764
 20
166.9163660556127
 30
0.0
 11
98.22376020448764
 21
166.9163660556127
 31
0.0
  0
LINE
  5
3E9D
330
3D54
100
AcDbEntity
  8
0
 62
     0
 48
10.0
100
AcDbLine
 10
99.48686095787786
 20
167.0826564245011
 30
0.0
 11
99.48686095787786
 21
167.0826564245011
 31
0.0
  0
LINE
  5
3E9E
330
3D54
100
AcDbEntity
  8
0
 62
     0
 48
10.0
100
AcDbLine
 10
99.98754061287165
 20
167.1485721515722
 30
0.0
 11
99.98754061287165
 21
167.1485721515722
 31
0.0
  0
LINE
  5
3E9F
330
3D54
100
AcDbEntity
  8
0
 62
     0
 48
10.0
100
AcDbLine
 10
100.7450044869612
 20
167.2482941624283
 30
0.0
 11
100.7450044869612
 21
167.2482941624283
 31
0.0
  0
LINE
  5
3EA0
330
3D54
100
AcDbEntity
  8
0
 62
     0
 48
10.0
100
AcDbLine
 10
102.0081052403514
 20
167.4145845313166
 30
0.0
 11
102.0081052403514
 21
167.4145845313166
 31
0.0
  0
LINE
  5
3EA1
330
3D54
100
AcDbEntity
  8
0
 62
     0
 48
10.0
100
AcDbLine
 10
102.5087848953452
 20
167.4805002583877
 30
0.0
 11
102.5087848953452
 21
167.4805002583877
 31
0.0
  0
LINE
  5
3EA2
330
3D54
100
AcDbEntity
  8
0
 62
     0
 48
10.0
100
AcDbLine
 10
103.2662487694348
 20
167.5802222692439
 30
0.0
 11
103.2662487694348
 21
167.5802222692439
 31
0.0
  0
LINE
  5
3EA3
330
3D54
100
AcDbEntity
  8
0
 62
     0
 48
10.0
100
AcDbLine
 10
98.74989927937194
 20
167.7051894793774
 30
0.0
 11
98.74989927937194
 21
167.7051894793774
 31
0.0
  0
LINE
  5
3EA4
330
3D54
100
AcDbEntity
  8
0
 62
     0
 48
10.0
100
AcDbLine
 10
100.0130000327621
 20
167.8714798482658
 30
0.0
 11
100.0130000327621
 21
167.8714798482658
 31
0.0
  0
LINE
  5
3EA5
330
3D54
100
AcDbEntity
  8
0
 62
     0
 48
10.0
100
AcDbLine
 10
100.5136796877559
 20
167.9373955753369
 30
0.0
 11
100.5136796877559
 21
167.9373955753369
 31
0.0
  0
LINE
  5
3EA6
330
3D54
100
AcDbEntity
  8
0
 62
     0
 48
10.0
100
AcDbLine
 10
101.2711435618455
 20
168.037117586193
 30
0.0
 11
101.2711435618455
 21
168.037117586193
 31
0.0
  0
LINE
  5
3EA7
330
3D54
100
AcDbEntity
  8
0
 62
     0
 48
10.0
100
AcDbLine
 10
102.5342443152357
 20
168.2034079550814
 30
0.0
 11
102.5342443152357
 21
168.2034079550814
 31
0.0
  0
LINE
  5
3EA8
330
3D54
100
AcDbEntity
  8
0
 62
     0
 48
10.0
100
AcDbLine
 10
103.0349239702295
 20
168.2693236821525
 30
0.0
 11
103.0349239702295
 21
168.2693236821525
 31
0.0
  0
LINE
  5
3EA9
330
3D54
100
AcDbEntity
  8
0
 62
     0
 48
10.0
100
AcDbLine
 10
98.51857448016664
 20
168.394290892286
 30
0.0
 11
98.51857448016664
 21
168.394290892286
 31
0.0
  0
LINE
  5
3EAA
330
3D54
100
AcDbEntity
  8
0
 62
     0
 48
10.0
100
AcDbLine
 10
99.27603835425623
 20
168.4940129031421
 30
0.0
 11
99.27603835425623
 21
168.4940129031421
 31
0.0
  0
LINE
  5
3EAB
330
3D54
100
AcDbEntity
  8
0
 62
     0
 48
10.0
100
AcDbLine
 10
100.5391391076464
 20
168.6603032720305
 30
0.0
 11
100.5391391076464
 21
168.6603032720305
 31
0.0
  0
LINE
  5
3EAC
330
3D54
100
AcDbEntity
  8
0
 62
     0
 48
10.0
100
AcDbLine
 10
101.0398187626402
 20
168.7262189991016
 30
0.0
 11
101.0398187626402
 21
168.7262189991016
 31
0.0
  0
LINE
  5
3EAD
330
3D54
100
AcDbEntity
  8
0
 62
     0
 48
10.0
100
AcDbLine
 10
101.7972826367298
 20
168.8259410099577
 30
0.0
 11
101.7972826367298
 21
168.8259410099577
 31
0.0
  0
LINE
  5
3EAE
330
3D54
100
AcDbEntity
  8
0
 62
     0
 48
10.0
100
AcDbLine
 10
103.06038339012
 20
168.9922313788461
 30
0.0
 11
103.06038339012
 21
168.9922313788461
 31
0.0
  0
LINE
  5
3EAF
330
3D54
100
AcDbEntity
  8
0
 62
     0
 48
10.0
100
AcDbLine
 10
98.54403390005714
 20
169.1171985889796
 30
0.0
 11
98.54403390005714
 21
169.1171985889796
 31
0.0
  0
LINE
  5
3EB0
330
3D54
100
AcDbEntity
  8
0
 62
     0
 48
10.0
100
AcDbLine
 10
99.04471355505092
 20
169.1831143160507
 30
0.0
 11
99.04471355505092
 21
169.1831143160507
 31
0.0
  0
LINE
  5
3EB1
330
3D54
100
AcDbEntity
  8
0
 62
     0
 48
10.0
100
AcDbLine
 10
99.80217742914051
 20
169.2828363269068
 30
0.0
 11
99.80217742914051
 21
169.2828363269068
 31
0.0
  0
LINE
  5
3EB2
330
3D54
100
AcDbEntity
  8
0
 62
     0
 48
10.0
100
AcDbLine
 10
101.0652781825307
 20
169.4491266957952
 30
0.0
 11
101.0652781825307
 21
169.4491266957952
 31
0.0
  0
LINE
  5
3EB3
330
3D54
100
AcDbEntity
  8
0
 62
     0
 48
10.0
100
AcDbLine
 10
101.5659578375245
 20
169.5150424228663
 30
0.0
 11
101.5659578375245
 21
169.5150424228663
 31
0.0
  0
LINE
  5
3EB4
330
3D54
100
AcDbEntity
  8
0
 62
     0
 48
10.0
100
AcDbLine
 10
102.3234217116141
 20
169.6147644337225
 30
0.0
 11
102.3234217116141
 21
169.6147644337225
 31
0.0
  0
LINE
  5
3EB5
330
3D54
100
AcDbEntity
  8
0
 62
     0
 48
10.0
100
AcDbLine
 10
99.07017297494146
 20
169.9060220127443
 30
0.0
 11
99.07017297494146
 21
169.9060220127443
 31
0.0
  0
LINE
  5
3EB6
330
3D54
100
AcDbEntity
  8
0
 62
     0
 48
10.0
100
AcDbLine
 10
99.57085262993523
 20
169.9719377398154
 30
0.0
 11
99.57085262993523
 21
169.9719377398154
 31
0.0
  0
LINE
  5
3EB7
330
3D54
100
AcDbEntity
  8
0
 62
     0
 48
10.0
100
AcDbLine
 10
100.3283165040248
 20
170.0716597506715
 30
0.0
 11
100.3283165040248
 21
170.0716597506715
 31
0.0
  0
LINE
  5
3EB8
330
3D54
100
AcDbEntity
  8
0
 62
     0
 48
10.0
100
AcDbLine
 10
101.591417257415
 20
170.2379501195599
 30
0.0
 11
101.591417257415
 21
170.2379501195599
 31
0.0
  0
LINE
  5
3EB9
330
3D54
100
AcDbEntity
  8
0
 62
     0
 48
10.0
100
AcDbLine
 10
102.0920969124088
 20
170.303865846631
 30
0.0
 11
102.0920969124088
 21
170.303865846631
 31
0.0
  0
LINE
  5
3EBA
330
3D54
100
AcDbEntity
  8
0
 62
     0
 48
10.0
100
AcDbLine
 10
102.8495607864984
 20
170.4035878574871
 30
0.0
 11
102.8495607864984
 21
170.4035878574871
 31
0.0
  0
LINE
  5
3EBB
330
3D54
100
AcDbEntity
  8
0
 62
     0
 48
10.0
100
AcDbLine
 10
99.59631204982574
 20
170.694845436509
 30
0.0
 11
99.59631204982574
 21
170.694845436509
 31
0.0
  0
LINE
  5
3EBC
330
3D54
100
AcDbEntity
  8
0
 62
     0
 48
10.0
100
AcDbLine
 10
100.0969917048195
 20
170.7607611635801
 30
0.0
 11
100.0969917048195
 21
170.7607611635801
 31
0.0
  0
LINE
  5
3EBD
330
3D54
100
AcDbEntity
  8
0
 62
     0
 48
10.0
100
AcDbLine
 10
100.8544555789091
 20
170.8604831744363
 30
0.0
 11
100.8544555789091
 21
170.8604831744363
 31
0.0
  0
LINE
  5
3EBE
330
3D54
100
AcDbEntity
  8
0
 62
     0
 48
10.0
100
AcDbLine
 10
102.1175563322993
 20
171.0267735433247
 30
0.0
 11
102.1175563322993
 21
171.0267735433247
 31
0.0
  0
LINE
  5
3EBF
330
3D54
100
AcDbEntity
  8
0
 62
     0
 48
10.0
100
AcDbLine
 10
102.6182359872931
 20
171.0926892703958
 30
0.0
 11
102.6182359872931
 21
171.0926892703958
 31
0.0
  0
LINE
  5
3EC0
330
3D54
100
AcDbEntity
  8
0
 62
     0
 48
10.0
100
AcDbLine
 10
98.85935037131984
 20
171.3173784913854
 30
0.0
 11
98.85935037131984
 21
171.3173784913854
 31
0.0
  0
LINE
  5
3EC1
330
3D54
100
AcDbEntity
  8
0
 62
     0
 48
10.0
100
AcDbLine
 10
100.12245112471
 20
171.4836688602737
 30
0.0
 11
100.12245112471
 21
171.4836688602737
 31
0.0
  0
LINE
  5
3EC2
330
3D54
100
AcDbEntity
  8
0
 62
     0
 48
10.0
100
AcDbLine
 10
100.6231307797038
 20
171.5495845873449
 30
0.0
 11
100.6231307797038
 21
171.5495845873449
 31
0.0
  0
LINE
  5
3EC3
330
3D54
100
AcDbEntity
  8
0
 62
     0
 48
10.0
100
AcDbLine
 10
101.3805946537934
 20
171.649306598201
 30
0.0
 11
101.3805946537934
 21
171.649306598201
 31
0.0
  0
LINE
  5
3EC4
330
3D54
100
AcDbEntity
  8
0
 62
     0
 48
10.0
100
AcDbLine
 10
102.6436954071836
 20
171.8155969670893
 30
0.0
 11
102.6436954071836
 21
171.8155969670893
 31
0.0
  0
LINE
  5
3EC5
330
3D54
100
AcDbEntity
  8
0
 62
     0
 48
10.0
100
AcDbLine
 10
98.62802557211452
 20
172.006479904294
 30
0.0
 11
98.62802557211452
 21
172.006479904294
 31
0.0
  0
LINE
  5
3EC6
330
3D54
100
AcDbEntity
  8
0
 62
     0
 48
10.0
100
AcDbLine
 10
99.38548944620411
 20
172.1062019151502
 30
0.0
 11
99.38548944620411
 21
172.1062019151502
 31
0.0
  0
LINE
  5
3EC7
330
3D54
100
AcDbEntity
  8
0
 62
     0
 48
10.0
100
AcDbLine
 10
100.6485901995943
 20
172.2724922840385
 30
0.0
 11
100.6485901995943
 21
172.2724922840385
 31
0.0
  0
LINE
  5
3EC8
330
3D54
100
AcDbEntity
  8
0
 62
     0
 48
10.0
100
AcDbLine
 10
101.1492698545881
 20
172.3384080111096
 30
0.0
 11
101.1492698545881
 21
172.3384080111096
 31
0.0
  0
LINE
  5
3EC9
330
3D54
100
AcDbEntity
  8
0
 62
     0
 48
10.0
100
AcDbLine
 10
101.9067337286777
 20
172.4381300219657
 30
0.0
 11
101.9067337286777
 21
172.4381300219657
 31
0.0
  0
LINE
  5
3ECA
330
3D54
100
AcDbEntity
  8
0
 62
     0
 48
10.0
100
AcDbLine
 10
99.15416464699882
 20
172.7953033280588
 30
0.0
 11
99.15416464699882
 21
172.7953033280588
 31
0.0
  0
LINE
  5
3ECB
330
3D54
100
AcDbEntity
  8
0
 62
     0
 48
10.0
100
AcDbLine
 10
99.91162852108843
 20
172.8950253389149
 30
0.0
 11
99.91162852108843
 21
172.8950253389149
 31
0.0
  0
LINE
  5
3ECC
330
3D54
100
AcDbEntity
  8
0
 62
     0
 48
10.0
100
AcDbLine
 10
101.1747292744786
 20
173.0613157078033
 30
0.0
 11
101.1747292744786
 21
173.0613157078033
 31
0.0
  0
LINE
  5
3ECD
330
3D54
100
AcDbEntity
  8
0
 62
     0
 48
10.0
100
AcDbLine
 10
101.6754089294724
 20
173.1272314348744
 30
0.0
 11
101.6754089294724
 21
173.1272314348744
 31
0.0
  0
LINE
  5
3ECE
330
3D54
100
AcDbEntity
  8
0
 62
     0
 48
10.0
100
AcDbLine
 10
102.432872803562
 20
173.2269534457305
 30
0.0
 11
102.432872803562
 21
173.2269534457305
 31
0.0
  0
LINE
  5
3ECF
330
3D54
100
AcDbEntity
  8
0
 62
     0
 48
10.0
100
AcDbLine
 10
98.96072188299356
 20
166.2938330007363
 30
0.0
 11
98.96072188299356
 21
166.2938330007363
 31
0.0
  0
LINE
  5
3ED0
330
3D54
100
AcDbEntity
  8
0
 62
     0
 48
10.0
100
AcDbLine
 10
99.46140153798733
 20
166.3597487278074
 30
0.0
 11
99.46140153798733
 21
166.3597487278074
 31
0.0
  0
LINE
  5
3ED1
330
3D54
100
AcDbEntity
  8
0
 62
     0
 48
10.0
100
AcDbLine
 10
100.2188654120769
 20
166.4594707386636
 30
0.0
 11
100.2188654120769
 21
166.4594707386636
 31
0.0
  0
LINE
  5
3ED2
330
3D54
100
AcDbEntity
  8
0
 62
     0
 48
10.0
100
AcDbLine
 10
101.4819661654671
 20
166.625761107552
 30
0.0
 11
101.4819661654671
 21
166.625761107552
 31
0.0
  0
LINE
  5
3ED3
330
3D54
100
AcDbEntity
  8
0
 62
     0
 48
10.0
100
AcDbLine
 10
101.9826458204609
 20
166.6916768346231
 30
0.0
 11
101.9826458204609
 21
166.6916768346231
 31
0.0
  0
LINE
  5
3ED4
330
3D54
100
AcDbEntity
  8
0
 62
     0
 48
10.0
100
AcDbLine
 10
102.7401096945505
 20
166.7913988454792
 30
0.0
 11
102.7401096945505
 21
166.7913988454792
 31
0.0
  0
LINE
  5
3ED5
330
3D54
100
AcDbEntity
  8
0
 62
     0
 48
10.0
100
AcDbLine
 10
98.43458280810926
 20
165.5050095769716
 30
0.0
 11
98.43458280810926
 21
165.5050095769716
 31
0.0
  0
LINE
  5
3ED6
330
3D54
100
AcDbEntity
  8
0
 62
     0
 48
10.0
100
AcDbLine
 10
98.93526246310303
 20
165.5709253040427
 30
0.0
 11
98.93526246310303
 21
165.5709253040427
 31
0.0
  0
LINE
  5
3ED7
330
3D54
100
AcDbEntity
  8
0
 62
     0
 48
10.0
100
AcDbLine
 10
99.69272633719263
 20
165.6706473148989
 30
0.0
 11
99.69272633719263
 21
165.6706473148989
 31
0.0
  0
LINE
  5
3ED8
330
3D54
100
AcDbEntity
  8
0
 62
     0
 48
10.0
100
AcDbLine
 10
100.9558270905828
 20
165.8369376837872
 30
0.0
 11
100.9558270905828
 21
165.8369376837872
 31
0.0
  0
LINE
  5
3ED9
330
3D54
100
AcDbEntity
  8
0
 62
     0
 48
10.0
100
AcDbLine
 10
101.4565067455766
 20
165.9028534108584
 30
0.0
 11
101.4565067455766
 21
165.9028534108584
 31
0.0
  0
LINE
  5
3EDA
330
3D54
100
AcDbEntity
  8
0
 62
     0
 48
10.0
100
AcDbLine
 10
102.2139706196662
 20
166.0025754217144
 30
0.0
 11
102.2139706196662
 21
166.0025754217144
 31
0.0
  0
LINE
  5
3EDB
330
3D54
100
AcDbEntity
  8
0
 62
     0
 48
10.0
100
AcDbLine
 10
97.90844373322499
 20
164.7161861532069
 30
0.0
 11
97.90844373322499
 21
164.7161861532069
 31
0.0
  0
LINE
  5
3EDC
330
3D54
100
AcDbEntity
  8
0
 62
     0
 48
10.0
100
AcDbLine
 10
98.40912338821876
 20
164.782101880278
 30
0.0
 11
98.40912338821876
 21
164.782101880278
 31
0.0
  0
LINE
  5
3EDD
330
3D54
100
AcDbEntity
  8
0
 62
     0
 48
10.0
100
AcDbLine
 10
99.16658726230835
 20
164.8818238911341
 30
0.0
 11
99.16658726230835
 21
164.8818238911341
 31
0.0
  0
LINE
  5
3EDE
330
3D54
100
AcDbEntity
  8
0
 62
     0
 48
10.0
100
AcDbLine
 10
100.4296880156985
 20
165.0481142600225
 30
0.0
 11
100.4296880156985
 21
165.0481142600225
 31
0.0
  0
LINE
  5
3EDF
330
3D54
100
AcDbEntity
  8
0
 62
     0
 48
10.0
100
AcDbLine
 10
100.9303676706923
 20
165.1140299870936
 30
0.0
 11
100.9303676706923
 21
165.1140299870936
 31
0.0
  0
LINE
  5
3EE0
330
3D54
100
AcDbEntity
  8
0
 62
     0
 48
10.0
100
AcDbLine
 10
101.6878315447819
 20
165.2137519979497
 30
0.0
 11
101.6878315447819
 21
165.2137519979497
 31
0.0
  0
LINE
  5
3EE1
330
3D54
100
AcDbEntity
  8
0
 62
     0
 48
10.0
100
AcDbLine
 10
102.9509322981721
 20
165.3800423668381
 30
0.0
 11
102.9509322981721
 21
165.3800423668381
 31
0.0
  0
LINE
  5
3EE2
330
3D54
100
AcDbEntity
  8
0
 62
     0
 48
10.0
100
AcDbLine
 10
103.4516119531659
 20
165.4459580939092
 30
0.0
 11
103.4516119531659
 21
165.4459580939092
 31
0.0
  0
LINE
  5
3EE3
330
3D54
100
AcDbEntity
  8
0
 62
     0
 48
10.0
100
AcDbLine
 10
97.88298431333444
 20
163.9932784565133
 30
0.0
 11
97.88298431333444
 21
163.9932784565133
 31
0.0
  0
LINE
  5
3EE4
330
3D54
100
AcDbEntity
  8
0
 62
     0
 48
10.0
100
AcDbLine
 10
98.64044818742405
 20
164.0930004673694
 30
0.0
 11
98.64044818742405
 21
164.0930004673694
 31
0.0
  0
LINE
  5
3EE5
330
3D54
100
AcDbEntity
  8
0
 62
     0
 48
10.0
100
AcDbLine
 10
99.90354894081427
 20
164.2592908362578
 30
0.0
 11
99.90354894081427
 21
164.2592908362578
 31
0.0
  0
LINE
  5
3EE6
330
3D54
100
AcDbEntity
  8
0
 62
     0
 48
10.0
100
AcDbLine
 10
100.404228595808
 20
164.3252065633289
 30
0.0
 11
100.404228595808
 21
164.3252065633289
 31
0.0
  0
LINE
  5
3EE7
330
3D54
100
AcDbEntity
  8
0
 62
     0
 48
10.0
100
AcDbLine
 10
101.1616924698976
 20
164.424928574185
 30
0.0
 11
101.1616924698976
 21
164.424928574185
 31
0.0
  0
LINE
  5
3EE8
330
3D54
100
AcDbEntity
  8
0
 62
     0
 48
10.0
100
AcDbLine
 10
102.4247932232878
 20
164.5912189430734
 30
0.0
 11
102.4247932232878
 21
164.5912189430734
 31
0.0
  0
LINE
  5
3EE9
330
3D54
100
AcDbEntity
  8
0
 62
     0
 48
10.0
100
AcDbLine
 10
102.9254728782816
 20
164.6571346701445
 30
0.0
 11
102.9254728782816
 21
164.6571346701445
 31
0.0
  0
LINE
  5
3EEA
330
3D54
100
AcDbEntity
  8
0
 62
     0
 48
10.0
100
AcDbLine
 10
98.11430911253976
 20
163.3041770436047
 30
0.0
 11
98.11430911253976
 21
163.3041770436047
 31
0.0
  0
LINE
  5
3EEB
330
3D54
100
AcDbEntity
  8
0
 62
     0
 48
10.0
100
AcDbLine
 10
99.37740986592999
 20
163.470467412493
 30
0.0
 11
99.37740986592999
 21
163.470467412493
 31
0.0
  0
LINE
  5
3EEC
330
3D54
100
AcDbEntity
  8
0
 62
     0
 48
10.0
100
AcDbLine
 10
99.87808952092377
 20
163.5363831395642
 30
0.0
 11
99.87808952092377
 21
163.5363831395642
 31
0.0
  0
LINE
  5
3EED
330
3D54
100
AcDbEntity
  8
0
 62
     0
 48
10.0
100
AcDbLine
 10
100.6355533950133
 20
163.6361051504203
 30
0.0
 11
100.6355533950133
 21
163.6361051504203
 31
0.0
  0
LINE
  5
3EEE
330
3D54
100
AcDbEntity
  8
0
 62
     0
 48
10.0
100
AcDbLine
 10
101.8986541484036
 20
163.8023955193087
 30
0.0
 11
101.8986541484036
 21
163.8023955193087
 31
0.0
  0
LINE
  5
3EEF
330
3D54
100
AcDbEntity
  8
0
 62
     0
 48
10.0
100
AcDbLine
 10
102.3993338033973
 20
163.8683112463798
 30
0.0
 11
102.3993338033973
 21
163.8683112463798
 31
0.0
  0
LINE
  5
3EF0
330
3D54
100
AcDbEntity
  8
0
 62
     0
 48
10.0
100
AcDbLine
 10
103.1567976774869
 20
163.9680332572359
 30
0.0
 11
103.1567976774869
 21
163.9680332572359
 31
0.0
  0
LINE
  5
3EF1
330
3D54
100
AcDbEntity
  8
0
 62
     0
 48
10.0
100
AcDbLine
 10
98.85127079104568
 20
162.6816439887283
 30
0.0
 11
98.85127079104568
 21
162.6816439887283
 31
0.0
  0
LINE
  5
3EF2
330
3D54
100
AcDbEntity
  8
0
 62
     0
 48
10.0
100
AcDbLine
 10
99.35195044603945
 20
162.7475597157994
 30
0.0
 11
99.35195044603945
 21
162.7475597157994
 31
0.0
  0
LINE
  5
3EF3
330
3D54
100
AcDbEntity
  8
0
 62
     0
 48
10.0
100
AcDbLine
 10
100.109414320129
 20
162.8472817266555
 30
0.0
 11
100.109414320129
 21
162.8472817266555
 31
0.0
  0
LINE
  5
3EF4
330
3D54
100
AcDbEntity
  8
0
 62
     0
 48
10.0
100
AcDbLine
 10
101.3725150735192
 20
163.0135720955439
 30
0.0
 11
101.3725150735192
 21
163.0135720955439
 31
0.0
  0
LINE
  5
3EF5
330
3D54
100
AcDbEntity
  8
0
 62
     0
 48
10.0
100
AcDbLine
 10
101.873194728513
 20
163.079487822615
 30
0.0
 11
101.873194728513
 21
163.079487822615
 31
0.0
  0
LINE
  5
3EF6
330
3D54
100
AcDbEntity
  8
0
 62
     0
 48
10.0
100
AcDbLine
 10
102.6306586026026
 20
163.1792098334711
 30
0.0
 11
102.6306586026026
 21
163.1792098334711
 31
0.0
  0
LINE
  5
3EF7
330
3D54
100
AcDbEntity
  8
0
 62
     0
 48
10.0
100
AcDbLine
 10
98.3251317161614
 20
161.8928205649636
 30
0.0
 11
98.3251317161614
 21
161.8928205649636
 31
0.0
  0
LINE
  5
3EF8
330
3D54
100
AcDbEntity
  8
0
 62
     0
 48
10.0
100
AcDbLine
 10
98.82581137115517
 20
161.9587362920347
 30
0.0
 11
98.82581137115517
 21
161.9587362920347
 31
0.0
  0
LINE
  5
3EF9
330
3D54
100
AcDbEntity
  8
0
 62
     0
 48
10.0
100
AcDbLine
 10
99.58327524524477
 20
162.0584583028908
 30
0.0
 11
99.58327524524477
 21
162.0584583028908
 31
0.0
  0
LINE
  5
3EFA
330
3D54
100
AcDbEntity
  8
0
 62
     0
 48
10.0
100
AcDbLine
 10
100.8463759986349
 20
162.2247486717792
 30
0.0
 11
100.8463759986349
 21
162.2247486717792
 31
0.0
  0
LINE
  5
3EFB
330
3D54
100
AcDbEntity
  8
0
 62
     0
 48
10.0
100
AcDbLine
 10
101.3470556536287
 20
162.2906643988503
 30
0.0
 11
101.3470556536287
 21
162.2906643988503
 31
0.0
  0
LINE
  5
3EFC
330
3D54
100
AcDbEntity
  8
0
 62
     0
 48
10.0
100
AcDbLine
 10
102.1045195277183
 20
162.3903864097064
 30
0.0
 11
102.1045195277183
 21
162.3903864097064
 31
0.0
  0
LINE
  5
3EFD
330
3D54
100
AcDbEntity
  8
0
 62
     0
 48
10.0
100
AcDbLine
 10
103.3676202811085
 20
162.5566767785947
 30
0.0
 11
103.3676202811085
 21
162.5566767785947
 31
0.0
  0
LINE
  5
3EFE
330
3D54
100
AcDbEntity
  8
0
 62
     0
 48
10.0
100
AcDbLine
 10
100.3202369237506
 20
161.4359252480145
 30
0.0
 11
100.3202369237506
 21
161.4359252480145
 31
0.0
  0
LINE
  5
3EFF
330
3D54
100
AcDbEntity
  8
0
 62
     0
 48
10.0
100
AcDbLine
 10
100.8209165787444
 20
161.5018409750856
 30
0.0
 11
100.8209165787444
 21
161.5018409750856
 31
0.0
  0
LINE
  5
3F00
330
3D54
100
AcDbEntity
  8
0
 62
     0
 48
10.0
100
AcDbLine
 10
101.578380452834
 20
161.6015629859417
 30
0.0
 11
101.578380452834
 21
161.6015629859417
 31
0.0
  0
LINE
  5
3F01
330
3D54
100
AcDbEntity
  8
0
 62
     0
 48
10.0
100
AcDbLine
 10
102.8414812062242
 20
161.7678533548301
 30
0.0
 11
102.8414812062242
 21
161.7678533548301
 31
0.0
  0
LINE
  5
3F02
330
3D54
100
AcDbEntity
  8
0
 62
     0
 48
10.0
100
AcDbLine
 10
103.342160861218
 20
161.8337690819012
 30
0.0
 11
103.342160861218
 21
161.8337690819012
 31
0.0
  0
LINE
  5
3F03
330
3D54
100
AcDbEntity
  8
0
 62
     0
 48
10.0
100
AcDbLine
 10
98.39240440282679
 20
168.8280865683884
 30
0.0
 11
98.39240440282679
 21
168.8280865683884
 31
0.0
  0
LINE
  5
3F04
330
3D54
100
AcDbEntity
  8
0
 62
     0
 48
10.0
100
AcDbLine
 10
100.1382246956594
 20
167.7158763791105
 30
0.0
 11
100.1382246956594
 21
167.7158763791105
 31
0.0
  0
LINE
  5
3F05
330
3D54
100
AcDbEntity
  8
0
 62
     0
 48
10.0
100
AcDbLine
 10
100.5599204185659
 20
167.4472265749371
 30
0.0
 11
100.5599204185659
 21
167.4472265749371
 31
0.0
  0
LINE
  5
3F06
330
3D54
100
AcDbEntity
  8
0
 62
     0
 48
10.0
100
AcDbLine
 10
101.875611074034
 20
166.609039185916
 30
0.0
 11
101.875611074034
 21
166.609039185916
 31
0.0
  0
LINE
  5
3F07
330
3D54
100
AcDbEntity
  8
0
 62
     0
 48
10.0
100
AcDbLine
 10
99.4600492751716
 20
168.7829768249197
 30
0.0
 11
99.4600492751716
 21
168.7829768249197
 31
0.0
  0
LINE
  5
3F08
330
3D54
100
AcDbEntity
  8
0
 62
     0
 48
10.0
100
AcDbLine
 10
101.2058695680042
 20
167.6707666356417
 30
0.0
 11
101.2058695680042
 21
167.6707666356417
 31
0.0
  0
LINE
  5
3F09
330
3D54
100
AcDbEntity
  8
0
 62
     0
 48
10.0
100
AcDbLine
 10
101.6275652909107
 20
167.4021168314683
 30
0.0
 11
101.6275652909107
 21
167.4021168314683
 31
0.0
  0
LINE
  5
3F0A
330
3D54
100
AcDbEntity
  8
0
 62
     0
 48
10.0
100
AcDbLine
 10
102.9432559463788
 20
166.5639294424473
 30
0.0
 11
102.9432559463788
 21
166.5639294424473
 31
0.0
  0
LINE
  5
3F0B
330
3D54
100
AcDbEntity
  8
0
 62
     0
 48
10.0
100
AcDbLine
 10
98.79030776914193
 20
169.8447042746454
 30
0.0
 11
98.79030776914193
 21
169.8447042746454
 31
0.0
  0
LINE
  5
3F0C
330
3D54
100
AcDbEntity
  8
0
 62
     0
 48
10.0
100
AcDbLine
 10
99.21200349204838
 20
169.576054470472
 30
0.0
 11
99.21200349204838
 21
169.576054470472
 31
0.0
  0
LINE
  5
3F0D
330
3D54
100
AcDbEntity
  8
0
 62
     0
 48
10.0
100
AcDbLine
 10
100.5276941475164
 20
168.7378670814509
 30
0.0
 11
100.5276941475164
 21
168.7378670814509
 31
0.0
  0
LINE
  5
3F0E
330
3D54
100
AcDbEntity
  8
0
 62
     0
 48
10.0
100
AcDbLine
 10
102.2735144403491
 20
167.625656892173
 30
0.0
 11
102.2735144403491
 21
167.625656892173
 31
0.0
  0
LINE
  5
3F0F
330
3D54
100
AcDbEntity
  8
0
 62
     0
 48
10.0
100
AcDbLine
 10
102.6952101632555
 20
167.3570070879996
 30
0.0
 11
102.6952101632555
 21
167.3570070879996
 31
0.0
  0
LINE
  5
3F10
330
3D54
100
AcDbEntity
  8
0
 62
     0
 48
10.0
100
AcDbLine
 10
99.85795264148674
 20
169.7995945311766
 30
0.0
 11
99.85795264148674
 21
169.7995945311766
 31
0.0
  0
LINE
  5
3F11
330
3D54
100
AcDbEntity
  8
0
 62
     0
 48
10.0
100
AcDbLine
 10
100.2796483643931
 20
169.5309447270032
 30
0.0
 11
100.2796483643931
 21
169.5309447270032
 31
0.0
  0
LINE
  5
3F12
330
3D54
100
AcDbEntity
  8
0
 62
     0
 48
10.0
100
AcDbLine
 10
101.5953390198612
 20
168.6927573379822
 30
0.0
 11
101.5953390198612
 21
168.6927573379822
 31
0.0
  0
LINE
  5
3F13
330
3D54
100
AcDbEntity
  8
0
 62
     0
 48
10.0
100
AcDbLine
 10
99.17977722099889
 20
170.8666949769858
 30
0.0
 11
99.17977722099889
 21
170.8666949769858
 31
0.0
  0
LINE
  5
3F14
330
3D54
100
AcDbEntity
  8
0
 62
     0
 48
10.0
100
AcDbLine
 10
100.9255975138315
 20
169.7544847877078
 30
0.0
 11
100.9255975138315
 21
169.7544847877078
 31
0.0
  0
LINE
  5
3F15
330
3D54
100
AcDbEntity
  8
0
 62
     0
 48
10.0
100
AcDbLine
 10
101.3472932367379
 20
169.4858349835344
 30
0.0
 11
101.3472932367379
 21
169.4858349835344
 31
0.0
  0
LINE
  5
3F16
330
3D54
100
AcDbEntity
  8
0
 62
     0
 48
10.0
100
AcDbLine
 10
102.662983892206
 20
168.6476475945134
 30
0.0
 11
102.662983892206
 21
168.6476475945134
 31
0.0
  0
LINE
  5
3F17
330
3D54
100
AcDbEntity
  8
0
 62
     0
 48
10.0
100
AcDbLine
 10
98.93173143787556
 20
171.6597726225381
 30
0.0
 11
98.93173143787556
 21
171.6597726225381
 31
0.0
  0
LINE
  5
3F18
330
3D54
100
AcDbEntity
  8
0
 62
     0
 48
10.0
100
AcDbLine
 10
100.2474220933436
 20
170.821585233517
 30
0.0
 11
100.2474220933436
 21
170.821585233517
 31
0.0
  0
LINE
  5
3F19
330
3D54
100
AcDbEntity
  8
0
 62
     0
 48
10.0
100
AcDbLine
 10
101.9932423861763
 20
169.7093750442391
 30
0.0
 11
101.9932423861763
 21
169.7093750442391
 31
0.0
  0
LINE
  5
3F1A
330
3D54
100
AcDbEntity
  8
0
 62
     0
 48
10.0
100
AcDbLine
 10
102.4149381090827
 20
169.4407252400657
 30
0.0
 11
102.4149381090827
 21
169.4407252400657
 31
0.0
  0
LINE
  5
3F1B
330
3D54
100
AcDbEntity
  8
0
 62
     0
 48
10.0
100
AcDbLine
 10
99.57768058731401
 20
171.8833126832427
 30
0.0
 11
99.57768058731401
 21
171.8833126832427
 31
0.0
  0
LINE
  5
3F1C
330
3D54
100
AcDbEntity
  8
0
 62
     0
 48
10.0
100
AcDbLine
 10
99.99937631022046
 20
171.6146628790693
 30
0.0
 11
99.99937631022046
 21
171.6146628790693
 31
0.0
  0
LINE
  5
3F1D
330
3D54
100
AcDbEntity
  8
0
 62
     0
 48
10.0
100
AcDbLine
 10
101.3150669656884
 20
170.7764754900483
 30
0.0
 11
101.3150669656884
 21
170.7764754900483
 31
0.0
  0
LINE
  5
3F1E
330
3D54
100
AcDbEntity
  8
0
 62
     0
 48
10.0
100
AcDbLine
 10
103.0608872585211
 20
169.6642653007703
 30
0.0
 11
103.0608872585211
 21
169.6642653007703
 31
0.0
  0
LINE
  5
3F1F
330
3D54
100
AcDbEntity
  8
0
 62
     0
 48
10.0
100
AcDbLine
 10
98.8995051668261
 20
172.9504131290519
 30
0.0
 11
98.8995051668261
 21
172.9504131290519
 31
0.0
  0
LINE
  5
3F20
330
3D54
100
AcDbEntity
  8
0
 62
     0
 48
10.0
100
AcDbLine
 10
100.6453254596587
 20
171.8382029397739
 30
0.0
 11
100.6453254596587
 21
171.8382029397739
 31
0.0
  0
LINE
  5
3F21
330
3D54
100
AcDbEntity
  8
0
 62
     0
 48
10.0
100
AcDbLine
 10
101.0670211825652
 20
171.5695531356005
 30
0.0
 11
101.0670211825652
 21
171.5695531356005
 31
0.0
  0
LINE
  5
3F22
330
3D54
100
AcDbEntity
  8
0
 62
     0
 48
10.0
100
AcDbLine
 10
102.3827118380333
 20
170.7313657465795
 30
0.0
 11
102.3827118380333
 21
170.7313657465795
 31
0.0
  0
LINE
  5
3F23
330
3D54
100
AcDbEntity
  8
0
 62
     0
 48
10.0
100
AcDbLine
 10
99.96715003917094
 20
172.9053033855831
 30
0.0
 11
99.96715003917094
 21
172.9053033855831
 31
0.0
  0
LINE
  5
3F24
330
3D54
100
AcDbEntity
  8
0
 62
     0
 48
10.0
100
AcDbLine
 10
101.7129703320036
 20
171.7930931963052
 30
0.0
 11
101.7129703320036
 21
171.7930931963052
 31
0.0
  0
LINE
  5
3F25
330
3D54
100
AcDbEntity
  8
0
 62
     0
 48
10.0
100
AcDbLine
 10
102.13466605491
 20
171.5244433921318
 30
0.0
 11
102.13466605491
 21
171.5244433921318
 31
0.0
  0
LINE
  5
3F26
330
3D54
100
AcDbEntity
  8
0
 62
     0
 48
10.0
100
AcDbLine
 10
101.0347949115156
 20
172.8601936421144
 30
0.0
 11
101.0347949115156
 21
172.8601936421144
 31
0.0
  0
LINE
  5
3F27
330
3D54
100
AcDbEntity
  8
0
 62
     0
 48
10.0
100
AcDbLine
 10
102.7806152043483
 20
171.7479834528364
 30
0.0
 11
102.7806152043483
 21
171.7479834528364
 31
0.0
  0
LINE
  5
3F28
330
3D54
100
AcDbEntity
  8
0
 62
     0
 48
10.0
100
AcDbLine
 10
102.1024397838605
 20
172.8150838986456
 30
0.0
 11
102.1024397838605
 21
172.8150838986456
 31
0.0
  0
LINE
  5
3F29
330
3D54
100
AcDbEntity
  8
0
 62
     0
 48
10.0
100
AcDbLine
 10
99.07057982331462
 20
167.7609861225793
 30
0.0
 11
99.07057982331462
 21
167.7609861225793
 31
0.0
  0
LINE
  5
3F2A
330
3D54
100
AcDbEntity
  8
0
 62
     0
 48
10.0
100
AcDbLine
 10
99.49227554622106
 20
167.4923363184059
 30
0.0
 11
99.49227554622106
 21
167.4923363184059
 31
0.0
  0
LINE
  5
3F2B
330
3D54
100
AcDbEntity
  8
0
 62
     0
 48
10.0
100
AcDbLine
 10
100.8079662016892
 20
166.6541489293848
 30
0.0
 11
100.8079662016892
 21
166.6541489293848
 31
0.0
  0
LINE
  5
3F2C
330
3D54
100
AcDbEntity
  8
0
 62
     0
 48
10.0
100
AcDbLine
 10
102.5537864945218
 20
165.5419387401069
 30
0.0
 11
102.5537864945218
 21
165.5419387401069
 31
0.0
  0
LINE
  5
3F2D
330
3D54
100
AcDbEntity
  8
0
 62
     0
 48
10.0
100
AcDbLine
 10
102.9754822174283
 20
165.2732889359335
 30
0.0
 11
102.9754822174283
 21
165.2732889359335
 31
0.0
  0
LINE
  5
3F2E
330
3D54
100
AcDbEntity
  8
0
 62
     0
 48
10.0
100
AcDbLine
 10
98.42463067387638
 20
167.5374460618746
 30
0.0
 11
98.42463067387638
 21
167.5374460618746
 31
0.0
  0
LINE
  5
3F2F
330
3D54
100
AcDbEntity
  8
0
 62
     0
 48
10.0
100
AcDbLine
 10
99.74032132934448
 20
166.6992586728535
 30
0.0
 11
99.74032132934448
 21
166.6992586728535
 31
0.0
  0
LINE
  5
3F30
330
3D54
100
AcDbEntity
  8
0
 62
     0
 48
10.0
100
AcDbLine
 10
101.4861416221771
 20
165.5870484835756
 30
0.0
 11
101.4861416221771
 21
165.5870484835756
 31
0.0
  0
LINE
  5
3F31
330
3D54
100
AcDbEntity
  8
0
 62
     0
 48
10.0
100
AcDbLine
 10
101.9078373450835
 20
165.3183986794022
 30
0.0
 11
101.9078373450835
 21
165.3183986794022
 31
0.0
  0
LINE
  5
3F32
330
3D54
100
AcDbEntity
  8
0
 62
     0
 48
10.0
100
AcDbLine
 10
103.2235280005517
 20
164.4802112903811
 30
0.0
 11
103.2235280005517
 21
164.4802112903811
 31
0.0
  0
LINE
  5
3F33
330
3D54
100
AcDbEntity
  8
0
 62
     0
 48
10.0
100
AcDbLine
 10
98.67267645699962
 20
166.7443684163223
 30
0.0
 11
98.67267645699962
 21
166.7443684163223
 31
0.0
  0
LINE
  5
3F34
330
3D54
100
AcDbEntity
  8
0
 62
     0
 48
10.0
100
AcDbLine
 10
100.4184967498322
 20
165.6321582270444
 30
0.0
 11
100.4184967498322
 21
165.6321582270444
 31
0.0
  0
LINE
  5
3F35
330
3D54
100
AcDbEntity
  8
0
 62
     0
 48
10.0
100
AcDbLine
 10
100.8401924727387
 20
165.3635084228709
 30
0.0
 11
100.8401924727387
 21
165.3635084228709
 31
0.0
  0
LINE
  5
3F36
330
3D54
100
AcDbEntity
  8
0
 62
     0
 48
10.0
100
AcDbLine
 10
102.1558831282068
 20
164.5253210338499
 30
0.0
 11
102.1558831282068
 21
164.5253210338499
 31
0.0
  0
LINE
  5
3F37
330
3D54
100
AcDbEntity
  8
0
 62
     0
 48
10.0
100
AcDbLine
 10
99.35085187748747
 20
165.6772679705132
 30
0.0
 11
99.35085187748747
 21
165.6772679705132
 31
0.0
  0
LINE
  5
3F38
330
3D54
100
AcDbEntity
  8
0
 62
     0
 48
10.0
100
AcDbLine
 10
99.77254760039393
 20
165.4086181663398
 30
0.0
 11
99.77254760039393
 21
165.4086181663398
 31
0.0
  0
LINE
  5
3F39
330
3D54
100
AcDbEntity
  8
0
 62
     0
 48
10.0
100
AcDbLine
 10
101.088238255862
 20
164.5704307773187
 30
0.0
 11
101.088238255862
 21
164.5704307773187
 31
0.0
  0
LINE
  5
3F3A
330
3D54
100
AcDbEntity
  8
0
 62
     0
 48
10.0
100
AcDbLine
 10
102.8340585486946
 20
163.4582205880408
 30
0.0
 11
102.8340585486946
 21
163.4582205880408
 31
0.0
  0
LINE
  5
3F3B
330
3D54
100
AcDbEntity
  8
0
 62
     0
 48
10.0
100
AcDbLine
 10
103.2557542716011
 20
163.1895707838674
 30
0.0
 11
103.2557542716011
 21
163.1895707838674
 31
0.0
  0
LINE
  5
3F3C
330
3D54
100
AcDbEntity
  8
0
 62
     0
 48
10.0
100
AcDbLine
 10
98.28320700514268
 20
165.7223777139819
 30
0.0
 11
98.28320700514268
 21
165.7223777139819
 31
0.0
  0
LINE
  5
3F3D
330
3D54
100
AcDbEntity
  8
0
 62
     0
 48
10.0
100
AcDbLine
 10
98.70490272804914
 20
165.4537279098085
 30
0.0
 11
98.70490272804914
 21
165.4537279098085
 31
0.0
  0
LINE
  5
3F3E
330
3D54
100
AcDbEntity
  8
0
 62
     0
 48
10.0
100
AcDbLine
 10
100.0205933835172
 20
164.6155405207874
 30
0.0
 11
100.0205933835172
 21
164.6155405207874
 31
0.0
  0
LINE
  5
3F3F
330
3D54
100
AcDbEntity
  8
0
 62
     0
 48
10.0
100
AcDbLine
 10
101.7664136763499
 20
163.5033303315095
 30
0.0
 11
101.7664136763499
 21
163.5033303315095
 31
0.0
  0
LINE
  5
3F40
330
3D54
100
AcDbEntity
  8
0
 62
     0
 48
10.0
100
AcDbLine
 10
102.1881093992563
 20
163.2346805273361
 30
0.0
 11
102.1881093992563
 21
163.2346805273361
 31
0.0
  0
LINE
  5
3F41
330
3D54
100
AcDbEntity
  8
0
 62
     0
 48
10.0
100
AcDbLine
 10
103.5038000547244
 20
162.396493138315
 30
0.0
 11
103.5038000547244
 21
162.396493138315
 31
0.0
  0
LINE
  5
3F42
330
3D54
100
AcDbEntity
  8
0
 62
     0
 48
10.0
100
AcDbLine
 10
98.95294851117235
 20
164.6606502642562
 30
0.0
 11
98.95294851117235
 21
164.6606502642562
 31
0.0
  0
LINE
  5
3F43
330
3D54
100
AcDbEntity
  8
0
 62
     0
 48
10.0
100
AcDbLine
 10
100.698768804005
 20
163.5484400749783
 30
0.0
 11
100.698768804005
 21
163.5484400749783
 31
0.0
  0
LINE
  5
3F44
330
3D54
100
AcDbEntity
  8
0
 62
     0
 48
10.0
100
AcDbLine
 10
101.1204645269114
 20
163.2797902708049
 30
0.0
 11
101.1204645269114
 21
163.2797902708049
 31
0.0
  0
LINE
  5
3F45
330
3D54
100
AcDbEntity
  8
0
 62
     0
 48
10.0
100
AcDbLine
 10
102.4361551823795
 20
162.4416028817838
 30
0.0
 11
102.4361551823795
 21
162.4416028817838
 31
0.0
  0
LINE
  5
3F46
330
3D54
100
AcDbEntity
  8
0
 62
     0
 48
10.0
100
AcDbLine
 10
97.88530363882754
 20
164.705760007725
 30
0.0
 11
97.88530363882754
 21
164.705760007725
 31
0.0
  0
LINE
  5
3F47
330
3D54
100
AcDbEntity
  8
0
 62
     0
 48
10.0
100
AcDbLine
 10
99.63112393166021
 20
163.593549818447
 30
0.0
 11
99.63112393166021
 21
163.593549818447
 31
0.0
  0
LINE
  5
3F48
330
3D54
100
AcDbEntity
  8
0
 62
     0
 48
10.0
100
AcDbLine
 10
100.0528196545666
 20
163.3249000142736
 30
0.0
 11
100.0528196545666
 21
163.3249000142736
 31
0.0
  0
LINE
  5
3F49
330
3D54
100
AcDbEntity
  8
0
 62
     0
 48
10.0
100
AcDbLine
 10
101.3685103100347
 20
162.4867126252526
 30
0.0
 11
101.3685103100347
 21
162.4867126252526
 31
0.0
  0
LINE
  5
3F4A
330
3D54
100
AcDbEntity
  8
0
 62
     0
 48
10.0
100
AcDbLine
 10
98.56347905931544
 20
163.6386595619158
 30
0.0
 11
98.56347905931544
 21
163.6386595619158
 31
0.0
  0
LINE
  5
3F4B
330
3D54
100
AcDbEntity
  8
0
 62
     0
 48
10.0
100
AcDbLine
 10
98.98517478222188
 20
163.3700097577424
 30
0.0
 11
98.98517478222188
 21
163.3700097577424
 31
0.0
  0
LINE
  5
3F4C
330
3D54
100
AcDbEntity
  8
0
 62
     0
 48
10.0
100
AcDbLine
 10
100.3008654376899
 20
162.5318223687214
 30
0.0
 11
100.3008654376899
 21
162.5318223687214
 31
0.0
  0
LINE
  5
3F4D
330
3D54
100
AcDbEntity
  8
0
 62
     0
 48
10.0
100
AcDbLine
 10
102.0466857305226
 20
161.4196121794434
 30
0.0
 11
102.0466857305226
 21
161.4196121794434
 31
0.0
  0
LINE
  5
3F4E
330
3D54
100
AcDbEntity
  8
0
 62
     0
 48
10.0
100
AcDbLine
 10
97.91752990987703
 20
163.4151195012111
 30
0.0
 11
97.91752990987703
 21
163.4151195012111
 31
0.0
  0
LINE
  5
3F4F
330
3D54
100
AcDbEntity
  8
0
 62
     0
 48
10.0
100
AcDbLine
 10
99.23322056534514
 20
162.5769321121901
 30
0.0
 11
99.23322056534514
 21
162.5769321121901
 31
0.0
  0
LINE
  5
3F50
330
3D54
100
AcDbEntity
  8
0
 62
     0
 48
10.0
100
AcDbLine
 10
100.9790408581778
 20
161.4647219229122
 30
0.0
 11
100.9790408581778
 21
161.4647219229122
 31
0.0
  0
LINE
  5
3F51
330
3D54
100
AcDbEntity
  8
0
 62
     0
 48
10.0
100
AcDbLine
 10
98.16557569300028
 20
162.6220418556589
 30
0.0
 11
98.16557569300028
 21
162.6220418556589
 31
0.0
  0
LINE
  5
3F52
330
3D54
100
AcDbEntity
  8
0
 62
     0
 48
10.0
100
AcDbLine
 10
99.91139598583295
 20
161.509831666381
 30
0.0
 11
99.91139598583295
 21
161.509831666381
 31
0.0
  0
LINE
  5
3F53
330
3D54
100
AcDbEntity
  8
0
 62
     0
 48
10.0
100
AcDbLine
 10
98.84375111348818
 20
161.5549414098497
 30
0.0
 11
98.84375111348818
 21
161.5549414098497
 31
0.0
  0
LINE
  5
3F54
330
3D54
100
AcDbEntity
  8
0
 62
     0
 48
10.0
100
AcDbLine
 10
97.77610624114331
 20
161.6000511533184
 30
0.0
 11
97.77610624114331
 21
161.6000511533184
 31
0.0
  0
LINE
  5
3F55
330
3D54
100
AcDbEntity
  8
0
 62
     0
 48
10.0
100
AcDbLine
 10
98.84949293201328
 20
168.9728044703517
 30
0.0
 11
98.84949293201328
 21
168.9728044703517
 31
0.0
  0
LINE
  5
3F56
330
3D54
100
AcDbEntity
  8
0
 62
     0
 48
10.0
100
AcDbLine
 10
99.32872320093986
 20
168.5336708354015
 30
0.0
 11
99.32872320093986
 21
168.5336708354015
 31
0.0
  0
LINE
  5
3F57
330
3D54
100
AcDbEntity
  8
0
 62
     0
 48
10.0
100
AcDbLine
 10
100.0925425218751
 20
167.8337593803117
 30
0.0
 11
100.0925425218751
 21
167.8337593803117
 31
0.0
  0
LINE
  5
3F58
330
3D54
100
AcDbEntity
  8
0
 62
     0
 48
10.0
100
AcDbLine
 10
101.176340206986
 20
166.8406417751166
 30
0.0
 11
101.176340206986
 21
166.8406417751166
 31
0.0
  0
LINE
  5
3F59
330
3D54
100
AcDbEntity
  8
0
 62
     0
 48
10.0
100
AcDbLine
 10
101.6555704759126
 20
166.4015081401664
 30
0.0
 11
101.6555704759126
 21
166.4015081401664
 31
0.0
  0
LINE
  5
3F5A
330
3D54
100
AcDbEntity
  8
0
 62
     0
 48
10.0
100
AcDbLine
 10
102.4193897968478
 20
165.7015966850766
 30
0.0
 11
102.4193897968478
 21
165.7015966850766
 31
0.0
  0
LINE
  5
3F5B
330
3D54
100
AcDbEntity
  8
0
 62
     0
 48
10.0
100
AcDbLine
 10
103.5031874819587
 20
164.7084790798816
 30
0.0
 11
103.5031874819587
 21
164.7084790798816
 31
0.0
  0
LINE
  5
3F5C
330
3D54
100
AcDbEntity
  8
0
 62
     0
 48
10.0
100
AcDbLine
 10
98.93206758558715
 20
170.1661320402113
 30
0.0
 11
98.93206758558715
 21
170.1661320402113
 31
0.0
  0
LINE
  5
3F5D
330
3D54
100
AcDbEntity
  8
0
 62
     0
 48
10.0
100
AcDbLine
 10
100.015865270698
 20
169.1730144350163
 30
0.0
 11
100.015865270698
 21
169.1730144350163
 31
0.0
  0
LINE
  5
3F5E
330
3D54
100
AcDbEntity
  8
0
 62
     0
 48
10.0
100
AcDbLine
 10
100.4950955396246
 20
168.7338808000661
 30
0.0
 11
100.4950955396246
 21
168.7338808000661
 31
0.0
  0
LINE
  5
3F5F
330
3D54
100
AcDbEntity
  8
0
 62
     0
 48
10.0
100
AcDbLine
 10
101.2589148605598
 20
168.0339693449762
 30
0.0
 11
101.2589148605598
 21
168.0339693449762
 31
0.0
  0
LINE
  5
3F60
330
3D54
100
AcDbEntity
  8
0
 62
     0
 48
10.0
100
AcDbLine
 10
102.3427125456707
 20
167.0408517397812
 30
0.0
 11
102.3427125456707
 21
167.0408517397812
 31
0.0
  0
LINE
  5
3F61
330
3D54
100
AcDbEntity
  8
0
 62
     0
 48
10.0
100
AcDbLine
 10
102.8219428145973
 20
166.6017181048311
 30
0.0
 11
102.8219428145973
 21
166.6017181048311
 31
0.0
  0
LINE
  5
3F62
330
3D54
100
AcDbEntity
  8
0
 62
     0
 48
10.0
100
AcDbLine
 10
98.85539033441011
 20
171.5053870949159
 30
0.0
 11
98.85539033441011
 21
171.5053870949159
 31
0.0
  0
LINE
  5
3F63
330
3D54
100
AcDbEntity
  8
0
 62
     0
 48
10.0
100
AcDbLine
 10
99.33462060333669
 20
171.0662534599658
 30
0.0
 11
99.33462060333669
 21
171.0662534599658
 31
0.0
  0
LINE
  5
3F64
330
3D54
100
AcDbEntity
  8
0
 62
     0
 48
10.0
100
AcDbLine
 10
100.0984399242719
 20
170.366342004876
 30
0.0
 11
100.0984399242719
 21
170.366342004876
 31
0.0
  0
LINE
  5
3F65
330
3D54
100
AcDbEntity
  8
0
 62
     0
 48
10.0
100
AcDbLine
 10
101.1822376093828
 20
169.3732243996809
 30
0.0
 11
101.1822376093828
 21
169.3732243996809
 31
0.0
  0
LINE
  5
3F66
330
3D54
100
AcDbEntity
  8
0
 62
     0
 48
10.0
100
AcDbLine
 10
101.6614678783094
 20
168.9340907647307
 30
0.0
 11
101.6614678783094
 21
168.9340907647307
 31
0.0
  0
LINE
  5
3F67
330
3D54
100
AcDbEntity
  8
0
 62
     0
 48
10.0
100
AcDbLine
 10
102.4252871992447
 20
168.2341793096409
 30
0.0
 11
102.4252871992447
 21
168.2341793096409
 31
0.0
  0
LINE
  5
3F68
330
3D54
100
AcDbEntity
  8
0
 62
     0
 48
10.0
100
AcDbLine
 10
98.93796498798401
 20
172.6987146647756
 30
0.0
 11
98.93796498798401
 21
172.6987146647756
 31
0.0
  0
LINE
  5
3F69
330
3D54
100
AcDbEntity
  8
0
 62
     0
 48
10.0
100
AcDbLine
 10
100.0217626730948
 20
171.7055970595806
 30
0.0
 11
100.0217626730948
 21
171.7055970595806
 31
0.0
  0
LINE
  5
3F6A
330
3D54
100
AcDbEntity
  8
0
 62
     0
 48
10.0
100
AcDbLine
 10
100.5009929420214
 20
171.2664634246304
 30
0.0
 11
100.5009929420214
 21
171.2664634246304
 31
0.0
  0
LINE
  5
3F6B
330
3D54
100
AcDbEntity
  8
0
 62
     0
 48
10.0
100
AcDbLine
 10
101.2648122629567
 20
170.5665519695406
 30
0.0
 11
101.2648122629567
 21
170.5665519695406
 31
0.0
  0
LINE
  5
3F6C
330
3D54
100
AcDbEntity
  8
0
 62
     0
 48
10.0
100
AcDbLine
 10
102.3486099480675
 20
169.5734343643455
 30
0.0
 11
102.3486099480675
 21
169.5734343643455
 31
0.0
  0
LINE
  5
3F6D
330
3D54
100
AcDbEntity
  8
0
 62
     0
 48
10.0
100
AcDbLine
 10
102.8278402169941
 20
169.1343007293954
 30
0.0
 11
102.8278402169941
 21
169.1343007293954
 31
0.0
  0
LINE
  5
3F6E
330
3D54
100
AcDbEntity
  8
0
 62
     0
 48
10.0
100
AcDbLine
 10
100.1043373266687
 20
172.8989246294402
 30
0.0
 11
100.1043373266687
 21
172.8989246294402
 31
0.0
  0
LINE
  5
3F6F
330
3D54
100
AcDbEntity
  8
0
 62
     0
 48
10.0
100
AcDbLine
 10
101.1881350117796
 20
171.9058070242452
 30
0.0
 11
101.1881350117796
 21
171.9058070242452
 31
0.0
  0
LINE
  5
3F70
330
3D54
100
AcDbEntity
  8
0
 62
     0
 48
10.0
100
AcDbLine
 10
101.6673652807062
 20
171.4666733892951
 30
0.0
 11
101.6673652807062
 21
171.4666733892951
 31
0.0
  0
LINE
  5
3F71
330
3D54
100
AcDbEntity
  8
0
 62
     0
 48
10.0
100
AcDbLine
 10
102.4311846016414
 20
170.7667619342052
 30
0.0
 11
102.4311846016414
 21
170.7667619342052
 31
0.0
  0
LINE
  5
3F72
330
3D54
100
AcDbEntity
  8
0
 62
     0
 48
10.0
100
AcDbLine
 10
101.2707096653535
 20
173.0991345941049
 30
0.0
 11
101.2707096653535
 21
173.0991345941049
 31
0.0
  0
LINE
  5
3F73
330
3D54
100
AcDbEntity
  8
0
 62
     0
 48
10.0
100
AcDbLine
 10
102.3545073504643
 20
172.1060169889099
 30
0.0
 11
102.3545073504643
 21
172.1060169889099
 31
0.0
  0
LINE
  5
3F74
330
3D54
100
AcDbEntity
  8
0
 62
     0
 48
10.0
100
AcDbLine
 10
102.8337376193909
 20
171.6668833539597
 30
0.0
 11
102.8337376193909
 21
171.6668833539597
 31
0.0
  0
LINE
  5
3F75
330
3D54
100
AcDbEntity
  8
0
 62
     0
 48
10.0
100
AcDbLine
 10
102.4370820040383
 20
173.2993445587695
 30
0.0
 11
102.4370820040383
 21
173.2993445587695
 31
0.0
  0
LINE
  5
3F76
330
3D54
100
AcDbEntity
  8
0
 62
     0
 48
10.0
100
AcDbLine
 10
98.92617018319038
 20
167.633549415647
 30
0.0
 11
98.92617018319038
 21
167.633549415647
 31
0.0
  0
LINE
  5
3F77
330
3D54
100
AcDbEntity
  8
0
 62
     0
 48
10.0
100
AcDbLine
 10
100.0099678683012
 20
166.640431810452
 30
0.0
 11
100.0099678683012
 21
166.640431810452
 31
0.0
  0
LINE
  5
3F78
330
3D54
100
AcDbEntity
  8
0
 62
     0
 48
10.0
100
AcDbLine
 10
100.4891981372278
 20
166.2012981755018
 30
0.0
 11
100.4891981372278
 21
166.2012981755018
 31
0.0
  0
LINE
  5
3F79
330
3D54
100
AcDbEntity
  8
0
 62
     0
 48
10.0
100
AcDbLine
 10
101.2530174581631
 20
165.501386720412
 30
0.0
 11
101.2530174581631
 21
165.501386720412
 31
0.0
  0
LINE
  5
3F7A
330
3D54
100
AcDbEntity
  8
0
 62
     0
 48
10.0
100
AcDbLine
 10
102.336815143274
 20
164.508269115217
 30
0.0
 11
102.336815143274
 21
164.508269115217
 31
0.0
  0
LINE
  5
3F7B
330
3D54
100
AcDbEntity
  8
0
 62
     0
 48
10.0
100
AcDbLine
 10
102.8160454122005
 20
164.0691354802668
 30
0.0
 11
102.8160454122005
 21
164.0691354802668
 31
0.0
  0
LINE
  5
3F7C
330
3D54
100
AcDbEntity
  8
0
 62
     0
 48
10.0
100
AcDbLine
 10
103.5798647331358
 20
163.369224025177
 30
0.0
 11
103.5798647331358
 21
163.369224025177
 31
0.0
  0
LINE
  5
3F7D
330
3D54
100
AcDbEntity
  8
0
 62
     0
 48
10.0
100
AcDbLine
 10
98.84359552961649
 20
166.4402218457874
 30
0.0
 11
98.84359552961649
 21
166.4402218457874
 31
0.0
  0
LINE
  5
3F7E
330
3D54
100
AcDbEntity
  8
0
 62
     0
 48
10.0
100
AcDbLine
 10
99.32282579854309
 20
166.0010882108372
 30
0.0
 11
99.32282579854309
 21
166.0010882108372
 31
0.0
  0
LINE
  5
3F7F
330
3D54
100
AcDbEntity
  8
0
 62
     0
 48
10.0
100
AcDbLine
 10
100.0866451194783
 20
165.3011767557474
 30
0.0
 11
100.0866451194783
 21
165.3011767557474
 31
0.0
  0
LINE
  5
3F80
330
3D54
100
AcDbEntity
  8
0
 62
     0
 48
10.0
100
AcDbLine
 10
101.1704428045892
 20
164.3080591505523
 30
0.0
 11
101.1704428045892
 21
164.3080591505523
 31
0.0
  0
LINE
  5
3F81
330
3D54
100
AcDbEntity
  8
0
 62
     0
 48
10.0
100
AcDbLine
 10
101.6496730735158
 20
163.8689255156022
 30
0.0
 11
101.6496730735158
 21
163.8689255156022
 31
0.0
  0
LINE
  5
3F82
330
3D54
100
AcDbEntity
  8
0
 62
     0
 48
10.0
100
AcDbLine
 10
102.4134923944511
 20
163.1690140605124
 30
0.0
 11
102.4134923944511
 21
163.1690140605124
 31
0.0
  0
LINE
  5
3F83
330
3D54
100
AcDbEntity
  8
0
 62
     0
 48
10.0
100
AcDbLine
 10
103.4972900795619
 20
162.1758964553174
 30
0.0
 11
103.4972900795619
 21
162.1758964553174
 31
0.0
  0
LINE
  5
3F84
330
3D54
100
AcDbEntity
  8
0
 62
     0
 48
10.0
100
AcDbLine
 10
98.15645345985831
 20
165.8008782461725
 30
0.0
 11
98.15645345985831
 21
165.8008782461725
 31
0.0
  0
LINE
  5
3F85
330
3D54
100
AcDbEntity
  8
0
 62
     0
 48
10.0
100
AcDbLine
 10
98.9202727807936
 20
165.1009667910827
 30
0.0
 11
98.9202727807936
 21
165.1009667910827
 31
0.0
  0
LINE
  5
3F86
330
3D54
100
AcDbEntity
  8
0
 62
     0
 48
10.0
100
AcDbLine
 10
100.0040704659044
 20
164.1078491858877
 30
0.0
 11
100.0040704659044
 21
164.1078491858877
 31
0.0
  0
LINE
  5
3F87
330
3D54
100
AcDbEntity
  8
0
 62
     0
 48
10.0
100
AcDbLine
 10
100.483300734831
 20
163.6687155509375
 30
0.0
 11
100.483300734831
 21
163.6687155509375
 31
0.0
  0
LINE
  5
3F88
330
3D54
100
AcDbEntity
  8
0
 62
     0
 48
10.0
100
AcDbLine
 10
101.2471200557663
 20
162.9688040958477
 30
0.0
 11
101.2471200557663
 21
162.9688040958477
 31
0.0
  0
LINE
  5
3F89
330
3D54
100
AcDbEntity
  8
0
 62
     0
 48
10.0
100
AcDbLine
 10
102.3309177408772
 20
161.9756864906527
 30
0.0
 11
102.3309177408772
 21
161.9756864906527
 31
0.0
  0
LINE
  5
3F8A
330
3D54
100
AcDbEntity
  8
0
 62
     0
 48
10.0
100
AcDbLine
 10
102.8101480098037
 20
161.5365528557025
 30
0.0
 11
102.8101480098037
 21
161.5365528557025
 31
0.0
  0
LINE
  5
3F8B
330
3D54
100
AcDbEntity
  8
0
 62
     0
 48
10.0
100
AcDbLine
 10
98.8376981272197
 20
163.907639221223
 30
0.0
 11
98.8376981272197
 21
163.907639221223
 31
0.0
  0
LINE
  5
3F8C
330
3D54
100
AcDbEntity
  8
0
 62
     0
 48
10.0
100
AcDbLine
 10
99.31692839614628
 20
163.4685055862729
 30
0.0
 11
99.31692839614628
 21
163.4685055862729
 31
0.0
  0
LINE
  5
3F8D
330
3D54
100
AcDbEntity
  8
0
 62
     0
 48
10.0
100
AcDbLine
 10
100.0807477170815
 20
162.7685941311831
 30
0.0
 11
100.0807477170815
 21
162.7685941311831
 31
0.0
  0
LINE
  5
3F8E
330
3D54
100
AcDbEntity
  8
0
 62
     0
 48
10.0
100
AcDbLine
 10
101.1645454021924
 20
161.775476525988
 30
0.0
 11
101.1645454021924
 21
161.775476525988
 31
0.0
  0
LINE
  5
3F8F
330
3D54
100
AcDbEntity
  8
0
 62
     0
 48
10.0
100
AcDbLine
 10
98.15055605746151
 20
163.2682956216082
 30
0.0
 11
98.15055605746151
 21
163.2682956216082
 31
0.0
  0
LINE
  5
3F90
330
3D54
100
AcDbEntity
  8
0
 62
     0
 48
10.0
100
AcDbLine
 10
98.91437537839678
 20
162.5683841665184
 30
0.0
 11
98.91437537839678
 21
162.5683841665184
 31
0.0
  0
LINE
  5
3F91
330
3D54
100
AcDbEntity
  8
0
 62
     0
 48
10.0
100
AcDbLine
 10
99.99817306350767
 20
161.5752665613234
 30
0.0
 11
99.99817306350767
 21
161.5752665613234
 31
0.0
  0
LINE
  5
3F92
330
3D54
100
AcDbEntity
  8
0
 62
     0
 48
10.0
100
AcDbLine
 10
97.74800303971204
 20
162.3681742018538
 30
0.0
 11
97.74800303971204
 21
162.3681742018538
 31
0.0
  0
ENDBLK
  5
3F94
330
3D54
100
AcDbEntity
  8
0
 48
10.0
100
AcDbBlockEnd
  0
ENDSEC
  0
SECTION
  2
ENTITIES
  0
MTEXT
  5
1D2
330
2
100
AcDbEntity
  8
BEM
 48
10.0
100
AcDbMText
 10
613.0433420937672
 20
186.1266045212951
 30
0.0
 40
10.0
 41
0.0
 71
     4
 72
     1
  1
\A1;
1001
ACAD
1000
MTEXTBEGIN
1070
    73
1070
     1
1070
    44
1040
1.0
1070
    74
1070
     0
1000
MTEXTEND
  0
MTEXT
  5
1D5
330
2
100
AcDbEntity
  8
BEM
 48
10.0
100
AcDbMText
 10
457.9302800175508
 20
202.179276141615
 30
0.0
 40
10.0
 41
0.0
 71
     6
 72
     1
  1
\A1;
1001
ACAD
1000
MTEXTBEGIN
1070
    73
1070
     1
1070
    44
1040
1.0
1070
    74
1070
     0
1000
MTEXTEND
  0
LINE
  5
114B
330
2
100
AcDbEntity
  8
MITTE
 48
15.0
100
AcDbLine
 10
547.0344049413625
 20
269.2781707073206
 30
0.0
 11
850.5245163996077
 21
269.2781707073206
 31
0.0
  0
LINE
  5
114C
330
2
100
AcDbEntity
  8
0
100
AcDbLine
 10
584.2766334008793
 20
200.2781707073206
 30
0.0
 11
666.776633400879
 21
200.2781707073206
 31
0.0
1001
ACAD
1000
ASC_BOUNDS
1002
{
1070
    19
1002
}
  0
LINE
  5
114D
330
2
100
AcDbEntity
  8
0
100
AcDbLine
 10
586.3451359183577
 20
330.2781707073206
 30
0.0
 11
726.7766334008793
 21
330.2781707073206
 31
0.0
1001
ACAD
1000
ASC_BOUNDS
1002
{
1070
    19
1002
}
  0
LINE
  5
114E
330
2
100
AcDbEntity
  8
0
100
AcDbLine
 10
646.2766334008793
 20
200.2781707073207
 30
0.0
 11
601.2766334008793
 21
200.2781707073205
 31
0.0
1001
ACAD
1000
ASC_BOUNDS
1002
{
1070
    19
1002
}
  0
LINE
  5
114F
330
2
100
AcDbEntity
  8
0
100
AcDbLine
 10
644.7677149363662
 20
169.2781707073208
 30
0.0
 11
602.7855518653921
 21
169.2781707073207
 31
0.0
  0
LINE
  5
1150
330
2
100
AcDbEntity
  8
0
100
AcDbLine
 10
646.2766334008793
 20
190.4328712456999
 30
0.0
 11
601.2766334008793
 21
190.4328712456999
 31
0.0
  0
ARC
  5
1151
330
2
100
AcDbEntity
  8
0
100
AcDbCircle
 10
641.5849891657958
 20
177.3264387656548
 30
0.0
 40
8.048268058334087
100
AcDbArc
 50
234.3425218101797
 51
305.6574781898149
  0
ARC
  5
1152
330
2
100
AcDbEntity
  8
0
100
AcDbCircle
 10
641.5849891657958
 20
182.3846031873658
 30
0.0
 40
8.048268058334087
100
AcDbArc
 50
54.34252181018508
 51
125.6574781898202
  0
LINE
  5
1156
330
2
100
AcDbEntity
  8
LINIE
 48
10.0
100
AcDbLine
 10
583.4538886471036
 20
268.1213799140584
 30
0.0
 11
583.4538886471036
 21
210.4171326520049
 31
0.0
  0
LINE
  5
1157
330
2
100
AcDbEntity
  8
LINIE
 48
10.0
100
AcDbLine
 10
520.7862523441129
 20
244.5281707073206
 30
0.0
 11
520.7862523441129
 21
257.5729027392997
 31
0.0
  0
ARC
  5
115A
330
2
100
AcDbEntity
  8
0
100
AcDbCircle
 10
283.3345057236661
 20
234.0281707073206
 30
0.0
 40
76.5
100
AcDbArc
 50
319.8808331015959
 51
38.72345197251231
  0
LINE
  5
115B
330
2
100
AcDbEntity
  8
0
100
AcDbLine
 10
344.3345057236661
 20
269.2781707073212
 30
0.0
 11
344.3345057236661
 21
201.7781707073206
 31
0.0
  0
LINE
  5
115C
330
2
100
AcDbEntity
  8
0
100
AcDbLine
 10
344.3345057236661
 20
269.2781707073206
 30
0.0
 11
344.3345057236661
 21
201.7781707073206
 31
0.0
  0
ARC
  5
115D
330
2
100
AcDbEntity
  8
0
100
AcDbCircle
 10
244.6550193686494
 20
277.2781707073206
 30
0.0
 40
100.0
100
AcDbArc
 50
310.9260633096058
 51
355.4114342642181
1001
ACAD
1000
ASC_BOUNDS
1002
{
1070
    19
1005
0
1002
}
  0
ARC
  5
115E
330
2
100
AcDbEntity
  8
0
100
AcDbCircle
 10
283.3345057236661
 20
269.2781707073208
 30
0.0
 40
65.81669415865359
100
AcDbArc
 50
179.5853943548262
 51
202.0561142201661
  0
ARC
  5
115F
330
2
100
AcDbEntity
  8
0
100
AcDbCircle
 10
283.3345057236661
 20
234.0281707073206
 30
0.0
 40
76.5
100
AcDbArc
 50
141.2765480274876
 51
220.119166898404
  0
LINE
  5
1160
330
2
100
AcDbEntity
  8
0
100
AcDbLine
 10
222.334505723666
 20
269.2781707073211
 30
0.0
 11
222.334505723666
 21
201.7781707073206
 31
0.0
  0
LINE
  5
1161
330
2
100
AcDbEntity
  8
0
100
AcDbLine
 10
222.334505723666
 20
269.2781707073206
 30
0.0
 11
222.334505723666
 21
201.7781707073206
 31
0.0
  0
ARC
  5
1162
330
2
100
AcDbEntity
  8
0
100
AcDbCircle
 10
322.0139920786832
 20
277.2781707073206
 30
0.0
 40
100.0
100
AcDbArc
 50
184.5885657357819
 51
229.0739366903941
1001
ACAD
1000
ASC_BOUNDS
1002
{
1070
    19
1005
0
1002
}
  0
LINE
  5
1163
330
2
100
AcDbEntity
  8
MITTE
 48
10.0
100
AcDbLine
 10
283.3345057236661
 20
339.0300879519734
 30
0.0
 11
283.3345057236661
 21
149.2598825013267
 31
0.0
  0
CIRCLE
  5
1164
330
2
100
AcDbEntity
  8
MITTE
 48
10.0
100
AcDbCircle
 10
283.3345057236661
 20
269.2781707073206
 30
0.0
 40
55.0
  0
LINE
  5
1165
330
2
100
AcDbEntity
  8
LINIE
  6
STRICHLINIE
 48
10.0
100
AcDbLine
 10
475.7766334008781
 20
289.0281707073206
 30
0.0
 11
475.7766334008793
 21
179.0281707073206
 31
0.0
  0
LINE
  5
1166
330
2
100
AcDbEntity
  8
0
100
AcDbLine
 10
552.7766334008792
 20
335.2781707073206
 30
0.0
 11
552.7766334008792
 21
192.0281707073206
 31
0.0
  0
LINE
  5
1167
330
2
100
AcDbEntity
  8
0
100
AcDbLine
 10
559.7766334008788
 20
335.2781707073206
 30
0.0
 11
559.7766334008801
 21
192.2781707073206
 31
0.0
1001
ACAD
1000
ASC_BOUNDS
1002
{
1070
    19
1005
0
1005
0
1002
}
  0
ARC
  5
1168
330
2
100
AcDbEntity
  8
0
100
AcDbCircle
 10
283.3345057236661
 20
234.0281707073206
 30
0.0
 40
79.0
100
AcDbArc
 50
317.7745649177906
 51
42.49808618244228
  0
ARC
  5
1169
330
2
100
AcDbEntity
  8
0
100
AcDbCircle
 10
283.3345057236661
 20
234.0281707073206
 30
0.0
 40
79.0
100
AcDbArc
 50
137.5019138175577
 51
222.2254350822093
  0
CIRCLE
  5
116A
330
2
100
AcDbEntity
  8
0
100
AcDbCircle
 10
283.3345057236661
 20
269.2781707073206
 30
0.0
 40
45.49999999999999
  0
CIRCLE
  5
116B
330
2
100
AcDbEntity
  8
0
100
AcDbCircle
 10
283.3345057236661
 20
269.2781707073206
 30
0.0
 40
47.5
  0
LINE
  5
116C
330
2
100
AcDbEntity
  8
0
100
AcDbLine
 10
481.2766334008797
 20
313.0281707073206
 30
0.0
 11
481.2766334008795
 21
155.0281707073206
 31
0.0
  0
LINE
  5
116D
330
2
100
AcDbEntity
  8
0
100
AcDbLine
 10
471.7766334008778
 20
313.0281707073206
 30
0.0
 11
471.7766334008797
 21
155.0281707073206
 31
0.0
  0
LINE
  5
116E
330
2
100
AcDbEntity
  8
0
100
AcDbLine
 10
483.7766334008774
 20
157.5281707073186
 30
0.0
 11
483.7766334008795
 21
310.5281707073206
 31
0.0
  0
LINE
  5
116F
330
2
100
AcDbEntity
  8
0
100
AcDbLine
 10
484.7766334008794
 20
289.0281707073206
 30
0.0
 11
484.7766334008794
 21
179.0281707073206
 31
0.0
  0
LINE
  5
1175
330
2
100
AcDbEntity
  8
MITTE
 48
10.0
100
AcDbLine
 10
367.1665000856296
 20
234.0281707073206
 30
0.0
 11
200.1120852267626
 21
234.0281707073206
 31
0.0
  0
HATCH
  5
1176
330
2
100
AcDbEntity
  8
LINIE
 48
10.0
100
AcDbHatch
 10
0.0
 20
0.0
 30
0.0
210
0.0
220
0.0
230
1.0
  2
AR-CONC
 70
     0
 71
     0
 91
        4
 92
        7
 72
     1
 73
     1
 93
        6
 10
283.3345057236661
 20
208.2781707073206
 42
0.0
 10
283.3345057236661
 20
199.2781707073206
 42
0.0
 10
303.6126312605838
 20
199.2781707073206
 42
0.1804963181033831
 10
310.1634770263544
 20
201.7226151517649
 42
0.102667989305199
 10
334.8184127165042
 20
234.0281707073206
 42
0.0
 10
333.1184137663258
 20
234.0281707073206
 42
-0.243307867483704
 97
        0
 92
        7
 72
     1
 73
     1
 93
        6
 10
233.5505976810063
 20
234.0281707073206
 42
0.0
 10
231.8505987308284
 20
234.0281707073206
 42
0.1026679893051979
 10
256.5055344209778
 20
201.7226151517652
 42
0.1804963181033863
 10
263.0563801867485
 20
199.2781707073206
 42
0.0
 10
283.3345057236661
 20
199.2781707073205
 42
0.0
 10
283.3345057236661
 20
208.2781707073206
 42
-0.2433078674837037
 97
        0
 92
        7
 72
     1
 73
     1
 93
        6
 10
258.3345057236661
 20
199.2781707073206
 42
-0.4142135623730968
 10
260.8345057236661
 20
196.7781707073206
 42
0.0
 10
260.8345057236661
 20
188.7781707073206
 42
0.0503820444849736
 10
260.885015980883
 20
188.2781707073197
 42
0.0
 10
283.3345057236661
 20
188.2781707073197
 42
0.0
 10
283.3345057236661
 20
199.2781707073206
 42
0.0
 97
        0
 92
        7
 72
     1
 73
     1
 93
        6
 10
305.783995466449
 20
188.2781707073197
 42
0.050382044484974
 10
305.834505723666
 20
188.7781707073206
 42
0.0
 10
305.834505723666
 20
196.7781707073206
 42
-0.4142135623730951
 10
308.3345057236661
 20
199.2781707073206
 42
0.0
 10
283.3345057236661
 20
199.2781707073206
 42
0.0
 10
283.3345057236661
 20
188.2781707073198
 42
0.0
 97
        0
 75
     0
 76
     1
 52
0.0
 41
1.0
 77
     0
 78
    13
 53
50.0
 43
322.7027641346093
 44
-56.4315390144327
 45
7.172601826007534
 46
-0.6275213498259511
 79
     2
 49
0.75
 49
-8.25
 53
355.0
 43
322.7027641346093
 44
-56.4315390144327
 45
-1.38751333613
 46
7.521921337000118
 79
     2
 49
0.6
 49
-6.599999999999999
 53
100.4513999999999
 43
323.3004809346093
 44
-56.48383241443275
 45
5.785093817140215
 46
6.894395420609535
 79
     2
 49
0.6374018999999987
 49
-7.011421119999988
 53
46.1842
 43
322.7027641346093
 44
-54.4315390144327
 45
10.67241048625644
 46
-1.65519014329018
 79
     2
 49
1.125
 49
-12.375
 53
96.63559999999998
 43
323.5921315846093
 44
-54.56947208443262
 45
9.346627055487033
 46
9.741178709004417
 79
     2
 49
0.9561028799999984
 49
-10.51712999999997
 53
351.1842
 43
322.7027641346093
 44
-54.4315390144327
 45
9.346619451336271
 46
9.741186009253246
 79
     2
 49
0.9
 49
-9.9
 53
21.0
 43
323.7027641346093
 44
-54.9315390144327
 45
5.969070521184616
 46
-4.026188906653388
 79
     2
 49
0.75
 49
-8.25
 53
326.0
 43
323.7027641346093
 44
-54.9315390144327
 45
2.433153319215817
 46
7.25150045046853
 79
     2
 49
0.6
 49
-6.599999999999999
 53
71.45140000000001
 43
324.2001864646093
 44
-55.26705507443262
 45
8.402226285814899
 46
3.225304967099523
 79
     2
 49
0.6374019000000001
 49
-7.011421119999999
 53
37.5
 43
322.7027641346093
 44
-56.4315390144327
 45
0.1215985531729067
 46
3.328938538313114
 79
     6
 49
0.0
 49
-6.519999999999999
 49
0.0
 49
-6.7
 49
0.0
 49
-6.625
 53
7.499999999999999
 43
322.7027641346093
 44
-56.4315390144327
 45
2.630695374421486
 46
3.944117118823602
 79
     6
 49
0.0
 49
-3.819999999999999
 49
0.0
 49
-6.37
 49
0.0
 49
-2.524999999999999
 53
327.4999999999999
 43
320.4727641346093
 44
-56.4315390144327
 45
5.33822436172409
 46
-0.225548717343798
 79
     6
 49
0.0
 49
-2.5
 49
0.0
 49
-7.799999999999999
 49
0.0
 49
-10.34999999999999
 53
317.5
 43
319.4727641346093
 44
-56.4315390144327
 45
5.831861693423862
 46
1.001049823323176
 79
     6
 49
0.0
 49
-3.25
 49
0.0
 49
-5.179999999999999
 49
0.0
 49
-7.349999999999999
 47
0.2899962470445532
 98
        4
 10
303.8057693800214
 20
206.0545725404801
 10
272.7655994359301
 20
205.7645755961032
 10
277.407120532272
 20
194.1647271089862
 10
295.9732019789384
 20
190.6847721444517
  0
ARC
  5
1177
330
2
100
AcDbEntity
  8
0
100
AcDbCircle
 10
283.3345057236661
 20
269.2781707073206
 30
0.0
 40
61.0
100
AcDbArc
 50
203.3712029743159
 51
336.628797025684
  0
LINE
  5
1178
330
2
100
AcDbEntity
  8
0
100
AcDbLine
 10
256.8884601430895
 20
199.2781707073206
 30
0.0
 11
310.5464027484663
 21
199.2781707073206
 31
0.0
  0
ARC
  5
1179
330
2
100
AcDbEntity
  8
0
100
AcDbCircle
 10
303.6126312605838
 20
209.2781707073206
 30
0.0
 40
10.0
100
AcDbArc
 50
270.0
 51
310.9260633096058
1001
ACAD
1000
ASC_BOUNDS
1002
{
1070
    19
1005
0
1002
}
  0
ARC
  5
117A
330
2
100
AcDbEntity
  8
0
100
AcDbCircle
 10
263.0563801867483
 20
209.2781707073206
 30
0.0
 40
10.0
100
AcDbArc
 50
229.0739366903941
 51
270.0
1001
ACAD
1000
ASC_BOUNDS
1002
{
1070
    19
1005
0
1002
}
  0
ARC
  5
117B
330
2
100
AcDbEntity
  8
0
100
AcDbCircle
 10
258.3345057236661
 20
196.7781707073206
 30
0.0
 40
2.5
100
AcDbArc
 50
0.0
 51
90.0
  0
LINE
  5
117C
330
2
100
AcDbEntity
  8
0
100
AcDbLine
 10
260.8345057236661
 20
196.7781707073206
 30
0.0
 11
260.8345057236661
 21
188.7781707073206
 31
0.0
  0
ARC
  5
117D
330
2
100
AcDbEntity
  8
0
100
AcDbCircle
 10
263.3345057236661
 20
188.7781707073206
 30
0.0
 40
2.5
100
AcDbArc
 50
180.0
 51
191.5369590328385
  0
LINE
  5
117E
330
2
100
AcDbEntity
  8
0
100
AcDbLine
 10
260.8850159808834
 20
188.2781707073197
 30
0.0
 11
305.7839954664491
 21
188.2781707073197
 31
0.0
  0
ARC
  5
117F
330
2
100
AcDbEntity
  8
0
100
AcDbCircle
 10
308.3345057236661
 20
196.7781707073206
 30
0.0
 40
2.5
100
AcDbArc
 50
90.0
 51
180.0
  0
ARC
  5
1180
330
2
100
AcDbEntity
  8
0
100
AcDbCircle
 10
303.334505723666
 20
188.7781707073206
 30
0.0
 40
2.5
100
AcDbArc
 50
348.4630409671614
 51
0.0
  0
LINE
  5
1181
330
2
100
AcDbEntity
  8
0
100
AcDbLine
 10
305.834505723666
 20
196.7781707073206
 30
0.0
 11
305.834505723666
 21
188.7781707073206
 31
0.0
  0
CIRCLE
  5
1182
330
2
100
AcDbEntity
  8
0
100
AcDbCircle
 10
235.7031085155222
 20
241.7781707073206
 30
0.0
 40
5.0
  0
LINE
  5
1183
330
2
100
AcDbEntity
  8
0
100
AcDbLine
 10
222.8345057236665
 20
190.4328712457002
 30
0.0
 11
260.8345057236665
 21
190.4328712457001
 31
0.0
  0
LINE
  5
1184
330
2
100
AcDbEntity
  8
0
100
AcDbLine
 10
264.8345057236665
 20
169.2781707073207
 30
0.0
 11
225.8345057236665
 21
169.2781707073207
 31
0.0
1001
ACAD
1000
ASC_BOUNDS
1002
{
1070
    19
1005
0
1002
}
  0
ARC
  5
1185
330
2
100
AcDbEntity
  8
0
100
AcDbCircle
 10
235.0845057236665
 20
192.9281707073208
 30
0.0
 40
23.65
100
AcDbArc
 50
250.1483977684166
 51
289.8516022315833
  0
ARC
  5
1186
330
2
100
AcDbEntity
  8
0
100
AcDbCircle
 10
235.0845057236665
 20
166.7828712457002
 30
0.0
 40
23.65
100
AcDbArc
 50
70.14839776841663
 51
109.8516022315833
  0
LINE
  5
1187
330
2
100
AcDbEntity
  8
0
100
AcDbLine
 10
224.8345057236661
 20
199.2781707073206
 30
0.0
 11
341.8345057236661
 21
199.2781707073206
 31
0.0
1001
ACAD
1000
ASC_BOUNDS
1002
{
1070
    19
1005
0
1002
}
  0
LINE
  5
1188
330
2
100
AcDbEntity
  8
0
100
AcDbLine
 10
267.834505723666
 20
199.2781707073206
 30
0.0
 11
222.8345057236661
 21
199.2781707073206
 31
0.0
1001
ACAD
1000
ASC_BOUNDS
1002
{
1070
    19
1002
}
  0
LINE
  5
1189
330
2
100
AcDbEntity
  8
0
100
AcDbLine
 10
224.8345057236665
 20
170.2781707073207
 30
0.0
 11
224.8345057236665
 21
189.2781707073208
 31
0.0
1001
ACAD
1000
ASC_BOUNDS
1002
{
1070
    19
1002
}
  0
LINE
  5
118A
330
2
100
AcDbEntity
  8
0
100
AcDbLine
 10
227.053316521562
 20
170.683564619552
 30
0.0
 11
227.053316521562
 21
189.0274773334689
 31
0.0
  0
TEXT
  5
118B
330
2
100
AcDbEntity
  8
0
100
AcDbText
 10
209.6443348455045
 20
163.0434486817177
 30
0.0
 40
10.0
  1
L
100
AcDbText
  0
LINE
  5
118C
330
2
100
AcDbEntity
  8
0
100
AcDbLine
 10
224.8345057236665
 20
170.2781707073207
 30
0.0
 11
227.053316521562
 21
170.683564619552
 31
0.0
  0
LINE
  5
118D
330
2
100
AcDbEntity
  8
0
100
AcDbLine
 10
224.8345057236665
 20
170.2781707073207
 30
0.0
 11
225.8345057236665
 21
169.2781707073207
 31
0.0
1001
ACAD
1000
ASC_BOUNDS
1002
{
1070
    19
1002
}
  0
LINE
  5
118E
330
2
100
AcDbEntity
  8
0
100
AcDbLine
 10
222.8345057236661
 20
190.4328712457002
 30
0.0
 11
222.8345057236661
 21
199.2781707073206
 31
0.0
1001
ACAD
1000
ASC_BOUNDS
1002
{
1070
    19
1002
}
  0
LINE
  5
118F
330
2
100
AcDbEntity
  8
0
100
AcDbLine
 10
224.8345057236665
 20
189.2781707073208
 30
0.0
 11
227.053316521562
 21
189.0274773334689
 31
0.0
  0
LINE
  5
1190
330
2
100
AcDbEntity
  8
0
100
AcDbLine
 10
224.8345057236665
 20
189.2781707073208
 30
0.0
 11
222.8345057236665
 21
190.4328712457002
 31
0.0
1001
ACAD
1000
ASC_BOUNDS
1002
{
1070
    19
1002
}
  0
ARC
  5
1191
330
2
100
AcDbEntity
  8
0
100
AcDbCircle
 10
224.8345057236661
 20
201.7781707073206
 30
0.0
 40
2.5
100
AcDbArc
 50
180.0
 51
270.0
  0
ARC
  5
1192
330
2
100
AcDbEntity
  8
0
100
AcDbCircle
 10
224.8345057236661
 20
201.7781707073206
 30
0.0
 40
2.5
100
AcDbArc
 50
180.0
 51
270.0
  0
ARC
  5
1193
330
2
100
AcDbEntity
  8
0
100
AcDbCircle
 10
283.3345057236661
 20
234.0281707073206
 30
0.0
 40
76.5
100
AcDbArc
 50
237.8228085508638
 51
302.1771914491361
  0
ARC
  5
1196
330
2
100
AcDbEntity
  8
0
100
AcDbCircle
 10
283.3345057236661
 20
234.0281707073206
 30
0.0
 40
79.0
100
AcDbArc
 50
235.0467976873806
 51
304.9532023126193
  0
LINE
  5
119C
330
2
100
AcDbEntity
  8
0
100
AcDbLine
 10
305.8345057236665
 20
190.4328712457002
 30
0.0
 11
343.8345057236665
 21
190.4328712457001
 31
0.0
  0
LINE
  5
119D
330
2
100
AcDbEntity
  8
0
100
AcDbLine
 10
343.8345057236661
 20
199.2781707073206
 30
0.0
 11
298.834505723666
 21
199.2781707073206
 31
0.0
1001
ACAD
1000
ASC_BOUNDS
1002
{
1070
    19
1002
}
  0
ARC
  5
119E
330
2
100
AcDbEntity
  8
0
100
AcDbCircle
 10
331.5845057236665
 20
166.7828712457002
 30
0.0
 40
23.65
100
AcDbArc
 50
70.14839776841663
 51
109.8516022315833
  0
CIRCLE
  5
119F
330
2
100
AcDbEntity
  8
0
100
AcDbCircle
 10
330.9659029318104
 20
241.7781707073206
 30
0.0
 40
5.0
  0
LINE
  5
11A0
330
2
100
AcDbEntity
  8
0
100
AcDbLine
 10
340.8345057236665
 20
169.2781707073207
 30
0.0
 11
301.8345057236665
 21
169.2781707073207
 31
0.0
1001
ACAD
1000
ASC_BOUNDS
1002
{
1070
    19
1005
0
1002
}
  0
ARC
  5
11A1
330
2
100
AcDbEntity
  8
0
100
AcDbCircle
 10
331.5845057236665
 20
192.9281707073208
 30
0.0
 40
23.65
100
AcDbArc
 50
250.1483977684166
 51
289.8516022315833
  0
ARC
  5
11A2
330
2
100
AcDbEntity
  8
0
100
AcDbCircle
 10
283.3345057236661
 20
234.0281707073206
 30
0.0
 40
55.0
100
AcDbArc
 50
251.4469954649775
 51
288.5530045350224
  0
LINE
  5
11A3
330
2
100
AcDbEntity
  8
MITTE
 48
7.0
100
AcDbLine
 10
245.334505723666
 20
166.2204100997143
 30
0.0
 11
245.334505723666
 21
202.6114449378114
 31
0.0
  0
LINE
  5
11A4
330
2
100
AcDbEntity
  8
0
100
AcDbLine
 10
247.553316521562
 20
170.683564619552
 30
0.0
 11
247.553316521562
 21
189.0274773334689
 31
0.0
  0
LINE
  5
11A5
330
2
100
AcDbEntity
  8
0
100
AcDbLine
 10
243.1156949257711
 20
170.683564619552
 30
0.0
 11
243.1156949257711
 21
189.0274773334689
 31
0.0
  0
LINE
  5
11A6
330
2
100
AcDbEntity
  8
0
100
AcDbLine
 10
263.615694925771
 20
170.683564619552
 30
0.0
 11
263.615694925771
 21
188.2781707073197
 31
0.0
  0
LINE
  5
11A7
330
2
100
AcDbEntity
  8
0
100
AcDbLine
 10
265.8345057236665
 20
170.2781707073207
 30
0.0
 11
265.8345057236665
 21
188.2781707073197
 31
0.0
1001
ACAD
1000
ASC_BOUNDS
1002
{
1070
    19
1002
}
  0
ARC
  5
11A8
330
2
100
AcDbEntity
  8
0
100
AcDbCircle
 10
255.5845057236665
 20
192.9281707073208
 30
0.0
 40
23.65
100
AcDbArc
 50
250.1483977684166
 51
289.8516022315833
  0
LINE
  5
11A9
330
2
100
AcDbEntity
  8
0
100
AcDbLine
 10
243.1156949257711
 20
170.683564619552
 30
0.0
 11
247.553316521562
 21
170.683564619552
 31
0.0
  0
LINE
  5
11AA
330
2
100
AcDbEntity
  8
0
100
AcDbLine
 10
263.615694925771
 20
170.683564619552
 30
0.0
 11
265.8345057236665
 21
170.2781707073207
 31
0.0
  0
LINE
  5
11AB
330
2
100
AcDbEntity
  8
0
100
AcDbLine
 10
265.8345057236665
 20
170.2781707073207
 30
0.0
 11
264.8345057236665
 21
169.2781707073207
 31
0.0
1001
ACAD
1000
ASC_BOUNDS
1002
{
1070
    19
1002
}
  0
ARC
  5
11AC
330
2
100
AcDbEntity
  8
0
100
AcDbCircle
 10
255.5845057236665
 20
166.7828712457002
 30
0.0
 40
23.65
100
AcDbArc
 50
77.17421556954061
 51
109.8516022315833
  0
LINE
  5
11AD
330
2
100
AcDbEntity
  8
0
100
AcDbLine
 10
243.1156949257711
 20
189.0274773334689
 30
0.0
 11
247.553316521562
 21
189.0274773334689
 31
0.0
  0
LINE
  5
11AE
330
2
100
AcDbEntity
  8
MITTE
 48
7.0
100
AcDbLine
 10
321.3345057236661
 20
166.2204100997143
 30
0.0
 11
321.3345057236661
 21
202.6114449378114
 31
0.0
  0
LINE
  5
11AF
330
2
100
AcDbEntity
  8
0
100
AcDbLine
 10
303.0533165215619
 20
170.683564619552
 30
0.0
 11
303.0533165215619
 21
188.2781707073197
 31
0.0
  0
LINE
  5
11B0
330
2
100
AcDbEntity
  8
0
100
AcDbLine
 10
300.8345057236665
 20
170.2781707073207
 30
0.0
 11
300.8345057236665
 21
188.2781707073197
 31
0.0
1001
ACAD
1000
ASC_BOUNDS
1002
{
1070
    19
1002
}
  0
LINE
  5
11B1
330
2
100
AcDbEntity
  8
0
100
AcDbLine
 10
319.115694925771
 20
170.683564619552
 30
0.0
 11
319.115694925771
 21
189.0274773334689
 31
0.0
  0
LINE
  5
11B2
330
2
100
AcDbEntity
  8
0
100
AcDbLine
 10
323.553316521562
 20
170.683564619552
 30
0.0
 11
323.553316521562
 21
189.0274773334689
 31
0.0
  0
ARC
  5
11B3
330
2
100
AcDbEntity
  8
0
100
AcDbCircle
 10
311.0845057236665
 20
192.9281707073208
 30
0.0
 40
23.65
100
AcDbArc
 50
250.1483977684166
 51
289.8516022315833
  0
LINE
  5
11B4
330
2
100
AcDbEntity
  8
0
100
AcDbLine
 10
300.8345057236665
 20
170.2781707073207
 30
0.0
 11
303.0533165215619
 21
170.683564619552
 31
0.0
  0
LINE
  5
11B5
330
2
100
AcDbEntity
  8
0
100
AcDbLine
 10
300.8345057236665
 20
170.2781707073207
 30
0.0
 11
301.8345057236665
 21
169.2781707073207
 31
0.0
1001
ACAD
1000
ASC_BOUNDS
1002
{
1070
    19
1002
}
  0
LINE
  5
11B6
330
2
100
AcDbEntity
  8
0
100
AcDbLine
 10
319.115694925771
 20
170.683564619552
 30
0.0
 11
323.553316521562
 21
170.683564619552
 31
0.0
  0
ARC
  5
11B7
330
2
100
AcDbEntity
  8
0
100
AcDbCircle
 10
311.0845057236665
 20
166.7828712457002
 30
0.0
 40
23.65
100
AcDbArc
 50
70.14839776841663
 51
102.8257844304593
  0
LINE
  5
11B8
330
2
100
AcDbEntity
  8
0
100
AcDbLine
 10
319.115694925771
 20
189.0274773334689
 30
0.0
 11
323.553316521562
 21
189.0274773334689
 31
0.0
  0
CIRCLE
  5
11B9
330
2
100
AcDbEntity
  8
0
100
AcDbCircle
 10
283.3345057236661
 20
214.2781707073206
 30
0.0
 40
5.0
  0
LINE
  5
11BA
330
2
100
AcDbEntity
  8
0
100
AcDbLine
 10
341.8345057236665
 20
170.2781707073207
 30
0.0
 11
341.8345057236665
 21
189.2781707073208
 31
0.0
1001
ACAD
1000
ASC_BOUNDS
1002
{
1070
    19
1002
}
  0
LINE
  5
11BB
330
2
100
AcDbEntity
  8
0
100
AcDbLine
 10
339.6156949257711
 20
170.683564619552
 30
0.0
 11
339.6156949257711
 21
189.0274773334689
 31
0.0
  0
LINE
  5
11BC
330
2
100
AcDbEntity
  8
0
100
AcDbLine
 10
339.6156949257711
 20
170.683564619552
 30
0.0
 11
341.8345057236665
 21
170.2781707073207
 31
0.0
  0
LINE
  5
11BD
330
2
100
AcDbEntity
  8
0
100
AcDbLine
 10
341.8345057236665
 20
170.2781707073207
 30
0.0
 11
340.8345057236665
 21
169.2781707073207
 31
0.0
1001
ACAD
1000
ASC_BOUNDS
1002
{
1070
    19
1002
}
  0
TEXT
  5
11BE
330
2
100
AcDbEntity
  8
0
100
AcDbText
 10
347.8405562907105
 20
162.6377388080729
 30
0.0
 40
10.0
  1
R
100
AcDbText
  0
LINE
  5
11BF
330
2
100
AcDbEntity
  8
0
100
AcDbLine
 10
343.8345057236661
 20
190.4328712457001
 30
0.0
 11
343.8345057236661
 21
199.2781707073206
 31
0.0
1001
ACAD
1000
ASC_BOUNDS
1002
{
1070
    19
1002
}
  0
LINE
  5
11C0
330
2
100
AcDbEntity
  8
0
100
AcDbLine
 10
341.8345057236665
 20
189.2781707073208
 30
0.0
 11
343.8345057236665
 21
190.4328712457001
 31
0.0
1001
ACAD
1000
ASC_BOUNDS
1002
{
1070
    19
1002
}
  0
LINE
  5
11C1
330
2
100
AcDbEntity
  8
0
100
AcDbLine
 10
341.8345057236665
 20
189.2781707073208
 30
0.0
 11
339.6156949257711
 21
189.0274773334689
 31
0.0
  0
ARC
  5
11C2
330
2
100
AcDbEntity
  8
0
100
AcDbCircle
 10
341.8345057236661
 20
201.7781707073206
 30
0.0
 40
2.5
100
AcDbArc
 50
270.0
 51
0.0
  0
ARC
  5
11C3
330
2
100
AcDbEntity
  8
0
100
AcDbCircle
 10
341.8345057236661
 20
201.7781707073206
 30
0.0
 40
2.5
100
AcDbArc
 50
270.0
 51
0.0
  0
LINE
  5
11C8
330
2
100
AcDbEntity
  8
MITTE
 48
15.0
100
AcDbLine
 10
413.0776275495127
 20
234.0281707073206
 30
0.0
 11
562.2382826078194
 21
234.0281707073206
 31
0.0
  0
LINE
  5
11C9
330
2
100
AcDbEntity
  8
0
100
AcDbLine
 10
417.7766334008793
 20
246.0281707073206
 30
0.0
 11
465.1766334008796
 21
246.0281707073206
 31
0.0
  0
LINE
  5
11CA
330
2
100
AcDbEntity
  8
0
100
AcDbLine
 10
417.7766334008793
 20
222.0281707073206
 30
0.0
 11
465.1766334008796
 21
222.0281707073206
 31
0.0
  0
LINE
  5
11CC
330
2
100
AcDbEntity
  8
0
100
AcDbLine
 10
417.7766334008793
 20
246.0281707073206
 30
0.0
 11
416.7766334008793
 21
245.0281707073206
 31
0.0
  0
LINE
  5
11CD
330
2
100
AcDbEntity
  8
0
100
AcDbLine
 10
417.7766334008793
 20
222.0281707073206
 30
0.0
 11
416.7766334008793
 21
223.0281707073206
 31
0.0
  0
LINE
  5
11CE
330
2
100
AcDbEntity
  8
0
100
AcDbLine
 10
416.7766334008793
 20
245.0281707073206
 30
0.0
 11
416.7766334008793
 21
223.0281707073206
 31
0.0
  0
LINE
  5
11CF
330
2
100
AcDbEntity
  8
0
100
AcDbLine
 10
417.7766334008793
 20
246.0281707073206
 30
0.0
 11
417.7766334008793
 21
222.0281707073206
 31
0.0
  0
LINE
  5
11D0
330
2
100
AcDbEntity
  8
0
100
AcDbLine
 10
461.7766334008795
 20
248.9281707073206
 30
0.0
 11
421.7766334008793
 21
248.9281707073206
 31
0.0
  0
LINE
  5
11D1
330
2
100
AcDbEntity
  8
0
100
AcDbLine
 10
421.7766334008793
 20
246.0281707073206
 30
0.0
 11
421.7766334008793
 21
248.9281707073206
 31
0.0
  0
LINE
  5
11D2
330
2
100
AcDbEntity
  8
0
100
AcDbLine
 10
461.7766334008795
 20
246.0281707073206
 30
0.0
 11
461.7766334008795
 21
248.9281707073206
 31
0.0
  0
LINE
  5
11D4
330
2
100
AcDbEntity
  8
0
100
AcDbLine
 10
481.2766334008795
 20
155.0281707073206
 30
0.0
 11
471.7766334008794
 21
155.0281707073206
 31
0.0
  0
LINE
  5
11D5
330
2
100
AcDbEntity
  8
0
100
AcDbLine
 10
483.7766334008795
 20
157.5281707073206
 30
0.0
 11
481.2766334008795
 21
155.0281707073206
 31
0.0
  0
LINE
  5
11D6
330
2
100
AcDbEntity
  8
0
100
AcDbLine
 10
552.7766334008801
 20
192.2781707073206
 30
0.0
 11
559.7766334008801
 21
192.2781707073206
 31
0.0
1001
ACAD
1000
ASC_BOUNDS
1002
{
1070
    19
1005
0
1002
}
  0
LINE
  5
11D7
330
2
100
AcDbEntity
  8
LINIE
 48
10.0
100
AcDbLine
 10
520.7862523441129
 20
226.5281707073206
 30
0.0
 11
520.7862523441129
 21
206.5668303745464
 31
0.0
  0
LINE
  5
11D8
330
2
100
AcDbEntity
  8
0
100
AcDbLine
 10
487.2766334008795
 20
204.0281707073206
 30
0.0
 11
516.3669597548887
 21
204.0281707073206
 31
0.0
  0
LINE
  5
11D9
330
2
100
AcDbEntity
  8
0
100
AcDbLine
 10
486.7617437195461
 20
184.4459729810701
 30
0.0
 11
525.5012283785926
 21
192.5993963058265
 31
0.0
  0
ARC
  5
11DA
330
2
100
AcDbEntity
  8
0
100
AcDbCircle
 10
487.2766334008793
 20
181.9995697812569
 30
0.0
 40
2.5
100
AcDbArc
 50
101.8854606354762
 51
180.0
  0
LINE
  5
11DB
330
2
100
AcDbEntity
  8
LINIE
  6
STRICHLINIE
 48
5.0
100
AcDbLine
 10
475.7766334008793
 20
179.0281707073206
 30
0.0
 11
471.7766334008794
 21
179.0281707073206
 31
0.0
  0
LINE
  5
11DC
330
2
100
AcDbEntity
  8
0
100
AcDbLine
 10
484.7766334008793
 20
179.0281707073206
 30
0.0
 11
483.7766334008793
 21
179.0281707073206
 31
0.0
  0
ARC
  5
11DD
330
2
100
AcDbEntity
  8
0
100
AcDbCircle
 10
487.2766334008795
 20
201.5281707073206
 30
0.0
 40
2.5
100
AcDbArc
 50
90.0
 51
180.0
  0
LINE
  5
11DE
330
2
100
AcDbEntity
  8
0
100
AcDbLine
 10
528.7766334008795
 20
193.0281707073206
 30
0.0
 11
542.7766334008794
 21
193.0281707073206
 31
0.0
  0
ARC
  5
11DF
330
2
100
AcDbEntity
  8
0
100
AcDbCircle
 10
528.7766334008795
 20
203.0281707073206
 30
0.0
 40
10.0
100
AcDbArc
 50
186.8921025793468
 51
270.0
  0
ARC
  5
11E0
330
2
100
AcDbEntity
  8
0
100
AcDbCircle
 10
529.6203458292596
 20
173.0281707073206
 30
0.0
 40
20.0
100
AcDbArc
 50
90.0
 51
101.8854606354762
  0
ARC
  5
11E1
330
2
100
AcDbEntity
  8
0
100
AcDbCircle
 10
516.3669597548887
 20
201.5281707073206
 30
0.0
 40
2.5
100
AcDbArc
 50
6.892102579346868
 51
90.0
  0
LINE
  5
11E2
330
2
100
AcDbEntity
  8
0
100
AcDbLine
 10
544.7766334008795
 20
192.0281707073206
 30
0.0
 11
552.7766334008795
 21
192.0281707073206
 31
0.0
  0
ARC
  5
11E3
330
2
100
AcDbEntity
  8
0
100
AcDbCircle
 10
542.7766334008794
 20
190.5281707073206
 30
0.0
 40
2.5
100
AcDbArc
 50
36.86989764584662
 51
90.0
  0
LINE
  5
11E4
330
2
100
AcDbEntity
  8
0
100
AcDbLine
 10
512.1259983062684
 20
239.5281707073206
 30
0.0
 11
487.2766334008795
 21
239.5281707073206
 31
0.0
  0
LINE
  5
11E5
330
2
100
AcDbEntity
  8
0
100
AcDbLine
 10
512.1259983062684
 20
231.5281707073206
 30
0.0
 11
487.2766334008795
 21
231.5281707073206
 31
0.0
  0
ARC
  5
11E6
330
2
100
AcDbEntity
  8
0
100
AcDbCircle
 10
487.2766334008795
 20
229.0281707073206
 30
0.0
 40
2.5
100
AcDbArc
 50
90.0
 51
180.0
  0
LINE
  5
11E7
330
2
100
AcDbEntity
  8
0
100
AcDbLine
 10
466.7766334008795
 20
248.0281707073206
 30
0.0
 11
466.7766334008795
 21
220.0281707073206
 31
0.0
  0
ARC
  5
11E8
330
2
100
AcDbEntity
  8
0
100
AcDbCircle
 10
465.1766334008796
 20
220.4281707073206
 30
0.0
 40
1.6
100
AcDbArc
 50
0.0
 51
90.0
  0
LINE
  5
11E9
330
2
100
AcDbEntity
  8
0
100
AcDbLine
 10
466.7766334008795
 20
220.0281707073206
 30
0.0
 11
471.776633400879
 21
220.0281707073206
 31
0.0
  0
ARC
  5
11EA
330
2
100
AcDbEntity
  8
0
100
AcDbCircle
 10
487.2766334008795
 20
242.0281707073206
 30
0.0
 40
2.5
100
AcDbArc
 50
180.0
 51
270.0
  0
ARC
  5
11EB
330
2
100
AcDbEntity
  8
0
100
AcDbCircle
 10
465.1766334008796
 20
247.6281707073205
 30
0.0
 40
1.6
100
AcDbArc
 50
270.0
 51
0.0
  0
LINE
  5
11EC
330
2
100
AcDbEntity
  8
0
100
AcDbLine
 10
466.7766334008795
 20
248.0281707073206
 30
0.0
 11
471.7766334008786
 21
248.0281707073206
 31
0.0
  0
LINE
  5
11ED
330
2
100
AcDbEntity
  8
LINIE
 48
10.0
100
AcDbLine
 10
520.7862523441129
 20
241.0350978106562
 30
0.0
 11
520.7862523441129
 21
229.3715922251053
 31
0.0
  0
ARC
  5
11EE
330
2
100
AcDbEntity
  8
0
100
AcDbCircle
 10
512.1259983062684
 20
221.5281707073206
 30
0.0
 40
10.0
100
AcDbArc
 50
30.00000000000054
 51
90.0
  0
ARC
  5
11EF
330
2
100
AcDbEntity
  8
0
100
AcDbCircle
 10
512.1259983062684
 20
249.5281707073206
 30
0.0
 40
10.0
100
AcDbArc
 50
270.0
 51
329.9999999999994
  0
ARC
  5
11F0
330
2
100
AcDbEntity
  8
0
100
AcDbCircle
 10
586.3451359183577
 20
198.2781707073207
 30
0.0
 40
10.0
100
AcDbArc
 50
90.0
 51
131.4096221092697
1001
ACAD
1000
ASC_BOUNDS
1002
{
1070
    19
1002
}
  0
LINE
  5
11F1
330
2
100
AcDbEntity
  8
0
100
AcDbLine
 10
583.7766334008793
 20
201.7781707073206
 30
0.0
 11
583.7766334008793
 21
207.9426828428456
 31
0.0
  0
ARC
  5
11F2
330
2
100
AcDbEntity
  8
0
100
AcDbCircle
 10
595.7766334008793
 20
204.2781707073206
 30
0.0
 40
4.0
100
AcDbArc
 50
0.0
 51
90.0
1001
ACAD
1000
ASC_BOUNDS
1002
{
1070
    19
1002
}
  0
ARC
  5
11F3
330
2
100
AcDbEntity
  8
0
100
AcDbCircle
 10
573.1163793630348
 20
213.2781707073206
 30
0.0
 40
10.0
100
AcDbArc
 50
270.0
 51
311.4096221092697
1001
ACAD
1000
ASC_BOUNDS
1002
{
1070
    19
1002
}
  0
LINE
  5
11F4
330
2
100
AcDbEntity
  8
0
100
AcDbLine
 10
559.776633400879
 20
203.2781707073206
 30
0.0
 11
573.1163793630346
 21
203.2781707073206
 31
0.0
1001
ACAD
1000
ASC_BOUNDS
1002
{
1070
    19
1002
}
  0
LINE
  5
11F5
330
2
100
AcDbEntity
  8
0
100
AcDbLine
 10
559.7766334008793
 20
203.2781707073206
 30
0.0
 11
559.7766334008793
 21
203.2781707073206
 31
0.0
1001
ACAD
1000
ASC_BOUNDS
1002
{
1070
    19
1005
0
1002
}
  0
ARC
  5
11F6
330
2
100
AcDbEntity
  8
0
100
AcDbCircle
 10
586.2766334008792
 20
201.7781707073206
 30
0.0
 40
2.5
100
AcDbArc
 50
180.0
 51
216.8698976458466
  0
LINE
  5
11F7
330
2
100
AcDbEntity
  8
MITTE
 48
8.0
100
AcDbLine
 10
623.7766334008792
 20
205.8041403036203
 30
0.0
 11
623.7766334008792
 21
166.0690365717533
 31
0.0
  0
LINE
  5
11F8
330
2
100
AcDbEntity
  8
0
100
AcDbLine
 10
601.2766334008793
 20
170.7870891718337
 30
0.0
 11
601.2766334008793
 21
188.9239527811871
 31
0.0
  0
LINE
  5
11F9
330
2
100
AcDbEntity
  8
0
100
AcDbLine
 10
610.6599218710462
 20
170.7870891718337
 30
0.0
 11
610.6599218710462
 21
188.9239527811871
 31
0.0
  0
LINE
  5
11FA
330
2
100
AcDbEntity
  8
0
100
AcDbLine
 10
614.5030149053834
 20
170.5117392974046
 30
0.0
 11
614.5030149053834
 21
189.1993026556162
 31
0.0
  0
LINE
  5
11FB
330
2
100
AcDbEntity
  8
0
100
AcDbLine
 10
636.8933449307124
 20
170.7870891718337
 30
0.0
 11
636.8933449307124
 21
188.9239527811871
 31
0.0
  0
LINE
  5
11FC
330
2
100
AcDbEntity
  8
0
100
AcDbLine
 10
633.0502518963749
 20
170.5117392974046
 30
0.0
 11
633.0502518963749
 21
189.1993026556165
 31
0.0
  0
ARC
  5
11FD
330
2
100
AcDbEntity
  8
0
100
AcDbCircle
 10
623.7766334008792
 20
204.7531707073208
 30
0.0
 40
35.475
100
AcDbArc
 50
254.8460917587428
 51
285.1539082412571
  0
LINE
  5
11FE
330
2
100
AcDbEntity
  8
0
100
AcDbLine
 10
601.2766334008793
 20
170.7870891718337
 30
0.0
 11
602.7855518653921
 21
169.2781707073207
 31
0.0
1001
ACAD
1000
ASC_BOUNDS
1002
{
1070
    19
1002
}
  0
ARC
  5
11FF
330
2
100
AcDbEntity
  8
0
100
AcDbCircle
 10
605.9682776359627
 20
177.3264387656548
 30
0.0
 40
8.048268058334087
100
AcDbArc
 50
234.342521810185
 51
305.6574781898202
  0
LINE
  5
1200
330
2
100
AcDbEntity
  8
0
100
AcDbLine
 10
610.6599218710462
 20
170.7870891718337
 30
0.0
 11
614.5030149053834
 21
170.7870891718337
 31
0.0
  0
LINE
  5
1201
330
2
100
AcDbEntity
  8
0
100
AcDbLine
 10
636.8933449307124
 20
170.7870891718337
 30
0.0
 11
633.0502518963749
 21
170.7870891718337
 31
0.0
  0
ARC
  5
1202
330
2
100
AcDbEntity
  8
0
100
AcDbCircle
 10
623.7766334008792
 20
154.9578712457
 30
0.0
 40
35.475
100
AcDbArc
 50
74.84609175874287
 51
105.1539082412571
  0
LINE
  5
1203
330
2
100
AcDbEntity
  8
0
100
AcDbLine
 10
601.2766334008793
 20
190.4328712457001
 30
0.0
 11
601.2766334008793
 21
200.2781707073206
 31
0.0
1001
ACAD
1000
ASC_BOUNDS
1002
{
1070
    19
1002
}
  0
ARC
  5
1204
330
2
100
AcDbEntity
  8
0
100
AcDbCircle
 10
605.9682776359627
 20
182.3846031873658
 30
0.0
 40
8.048268058334087
100
AcDbArc
 50
54.34252181017978
 51
125.6574781898149
  0
LINE
  5
1205
330
2
100
AcDbEntity
  8
0
100
AcDbLine
 10
601.2766334008793
 20
188.9239527811871
 30
0.0
 11
602.7855518653921
 21
190.4328712456999
 31
0.0
1001
ACAD
1000
ASC_BOUNDS
1002
{
1070
    19
1002
}
  0
LINE
  5
1206
330
2
100
AcDbEntity
  8
0
100
AcDbLine
 10
610.6599218710462
 20
188.9239527811871
 30
0.0
 11
614.5030149053834
 21
188.9239527811871
 31
0.0
  0
ARC
  5
1207
330
2
100
AcDbEntity
  8
0
100
AcDbCircle
 10
603.7766334008793
 20
203.2781707073206
 30
0.0
 40
4.0
100
AcDbArc
 50
180.0
 51
228.5903778907302
1001
ACAD
1000
ASC_BOUNDS
1002
{
1070
    19
1002
}
  0
LINE
  5
1208
330
2
100
AcDbEntity
  8
0
100
AcDbLine
 10
599.7766334008793
 20
203.2781707073206
 30
0.0
 11
599.7766334008793
 21
204.2781707073206
 31
0.0
1001
ACAD
1000
ASC_BOUNDS
1002
{
1070
    19
1002
}
  0
LINE
  5
1209
330
2
100
AcDbEntity
  8
0
100
AcDbLine
 10
636.8933449307124
 20
188.9239527811871
 30
0.0
 11
633.0502518963749
 21
188.9239527811871
 31
0.0
  0
LINE
  5
120A
330
2
100
AcDbEntity
  8
LINIE
 48
10.0
100
AcDbLine
 10
561.1496541924164
 20
208.2781707073206
 30
0.0
 11
584.104689619033
 21
208.2781707073206
 31
0.0
  0
LINE
  5
120B
330
2
100
AcDbEntity
  8
0
100
AcDbLine
 10
586.3451359183577
 20
208.2781707073207
 30
0.0
 11
595.7766334008793
 21
208.2781707073206
 31
0.0
1001
ACAD
1000
ASC_BOUNDS
1002
{
1070
    19
1002
}
  0
CIRCLE
  5
120C
330
2
100
AcDbEntity
  8
0
100
AcDbCircle
 10
235.7031085155222
 20
296.7781707073206
 30
0.0
 40
5.0
  0
LINE
  5
120D
330
2
100
AcDbEntity
  8
MITTE
 48
10.0
100
AcDbLine
 10
214.3080029698094
 20
269.2781707073206
 30
0.0
 11
350.8527844923551
 21
269.2781707073206
 31
0.0
  0
ARC
  5
120E
330
2
100
AcDbEntity
  8
0
100
AcDbCircle
 10
283.3345057236661
 20
269.2781707073206
 30
0.0
 40
61.0
100
AcDbArc
 50
0.0
 51
180.0
1001
ACAD
1000
ASC_BOUNDS
1002
{
1070
    19
1005
0
1002
}
  0
ARC
  5
120F
330
2
100
AcDbEntity
  8
0
100
AcDbCircle
 10
225.5150758500453
 20
269.4873690709323
 30
0.0
 40
8.0
100
AcDbArc
 50
109.6254537415499
 51
181.4984437231768
  0
CIRCLE
  5
1210
330
2
100
AcDbEntity
  8
0
100
AcDbCircle
 10
330.9659029318104
 20
296.7781707073206
 30
0.0
 40
5.0
  0
ARC
  5
1211
330
2
100
AcDbEntity
  8
0
100
AcDbCircle
 10
283.7457225548714
 20
327.1048208873735
 30
0.0
 40
8.0
100
AcDbArc
 50
19.35914998622735
 51
159.8259803411061
  0
CIRCLE
  5
1212
330
2
100
AcDbEntity
  8
0
100
AcDbCircle
 10
283.3345057236661
 20
324.2781707073206
 30
0.0
 40
5.0
  0
ARC
  5
1213
330
2
100
AcDbEntity
  8
0
100
AcDbCircle
 10
341.1539355972868
 20
269.4873690709323
 30
0.0
 40
8.0
100
AcDbArc
 50
293.4264341163753
 51
70.37454625845007
  0
LINE
  5
1217
330
2
100
AcDbEntity
  8
0
100
AcDbLine
 10
552.7766334008792
 20
335.2781707073206
 30
0.0
 11
573.1163793630346
 21
335.2781707073206
 31
0.0
1001
ACAD
1000
ASC_BOUNDS
1002
{
1070
    19
1002
}
  0
LINE
  5
1218
330
2
100
AcDbEntity
  8
0
100
AcDbLine
 10
543.7766334008795
 20
323.5281707073206
 30
0.0
 11
543.7766334008795
 21
300.9715463802947
 31
0.0
  0
LINE
  5
1219
330
2
100
AcDbEntity
  8
0
100
AcDbLine
 10
512.1259983062684
 20
284.0281707073206
 30
0.0
 11
487.2766334008795
 21
284.0281707073206
 31
0.0
  0
LINE
  5
121A
330
2
100
AcDbEntity
  8
0
100
AcDbLine
 10
487.2766334008795
 20
264.0281707073211
 30
0.0
 11
516.2766334008795
 21
264.0281707073207
 31
0.0
  0
LINE
  5
121B
330
2
100
AcDbEntity
  8
0
100
AcDbLine
 10
495.2766334008795
 20
266.0281707073207
 30
0.0
 11
510.2766334008795
 21
266.0281707073207
 31
0.0
  0
ARC
  5
121C
330
2
100
AcDbEntity
  8
0
100
AcDbCircle
 10
487.2766334008795
 20
266.5281707073206
 30
0.0
 40
2.5
100
AcDbArc
 50
180.0
 51
270.0
  0
LINE
  5
121D
330
2
100
AcDbEntity
  8
MITTE
 48
5.0
100
AcDbLine
 10
502.7766334008795
 20
269.9944769646533
 30
0.0
 11
502.7766334008795
 21
259.4910560418525
 31
0.0
  0
ARC
  5
121E
330
2
100
AcDbEntity
  8
0
100
AcDbCircle
 10
492.8271436580963
 20
266.5281707073209
 30
0.0
 40
2.5
100
AcDbArc
 50
270.0
 51
348.4630409671818
  0
ARC
  5
121F
330
2
100
AcDbEntity
  8
0
100
AcDbCircle
 10
487.2766334008795
 20
286.5281707073206
 30
0.0
 40
2.5
100
AcDbArc
 50
180.0
 51
270.0
  0
LINE
  5
1220
330
2
100
AcDbEntity
  8
LINIE
  6
STRICHLINIE
 48
5.0
100
AcDbLine
 10
475.7766334008781
 20
289.0281707073206
 30
0.0
 11
471.7766334008781
 21
289.0281707073206
 31
0.0
  0
LINE
  5
1221
330
2
100
AcDbEntity
  8
0
100
AcDbLine
 10
484.7766334008793
 20
289.0281707073206
 30
0.0
 11
483.7766334008793
 21
289.0281707073206
 31
0.0
  0
LINE
  5
1222
330
2
100
AcDbEntity
  8
0
100
AcDbLine
 10
518.7766334008795
 20
281.5281707073206
 30
0.0
 11
518.7766334008795
 21
266.5281707073207
 31
0.0
  0
ARC
  5
1223
330
2
100
AcDbEntity
  8
0
100
AcDbCircle
 10
512.7261231436626
 20
266.5281707073209
 30
0.0
 40
2.5
100
AcDbArc
 50
191.5369590328181
 51
270.0
  0
ARC
  5
1224
330
2
100
AcDbEntity
  8
0
100
AcDbCircle
 10
516.2766334008795
 20
266.5281707073207
 30
0.0
 40
2.5
100
AcDbArc
 50
270.0
 51
0.0
  0
ARC
  5
1225
330
2
100
AcDbEntity
  8
0
100
AcDbCircle
 10
533.7766334008795
 20
281.5281707073206
 30
0.0
 40
15.0
100
AcDbArc
 50
78.40981768499289
 51
180.0
  0
ARC
  5
1226
330
2
100
AcDbEntity
  8
0
100
AcDbCircle
 10
512.1259983062684
 20
294.0281707073206
 30
0.0
 40
10.0
100
AcDbArc
 50
270.0
 51
329.9999999999994
  0
LINE
  5
1227
330
2
100
AcDbEntity
  8
0
100
AcDbLine
 10
538.5425595745473
 20
296.5062767747292
 30
0.0
 11
542.5266334008795
 21
298.8064828708336
 31
0.0
  0
ARC
  5
1228
330
2
100
AcDbEntity
  8
0
100
AcDbCircle
 10
537.2925595745473
 20
298.6713402841905
 30
0.0
 40
2.5
100
AcDbArc
 50
258.4098176849928
 51
300.0000000000005
  0
ARC
  5
1229
330
2
100
AcDbEntity
  8
0
100
AcDbCircle
 10
541.2766334008795
 20
300.9715463802947
 30
0.0
 40
2.5
100
AcDbArc
 50
300.0000000000005
 51
0.0
  0
LINE
  5
122A
330
2
100
AcDbEntity
  8
0
100
AcDbLine
 10
481.2766334008797
 20
313.0281707073206
 30
0.0
 11
471.7766334008778
 21
313.0281707073206
 31
0.0
  0
LINE
  5
122B
330
2
100
AcDbEntity
  8
0
100
AcDbLine
 10
483.7766334008795
 20
310.5281707073206
 30
0.0
 11
481.2766334008797
 21
313.0281707073206
 31
0.0
  0
LINE
  5
122C
330
2
100
AcDbEntity
  8
0
100
AcDbLine
 10
543.2766334008795
 20
321.7781707073206
 30
0.0
 11
543.2766334008795
 21
311.7781707073206
 31
0.0
  0
LINE
  5
122D
330
2
100
AcDbEntity
  8
0
100
AcDbLine
 10
543.2766334008795
 20
322.2781707073206
 30
0.0
 11
543.2766334008795
 21
311.2781707073206
 31
0.0
1001
ACAD
1000
ASC_BOUNDS
1002
{
1070
    19
1002
}
  0
LINE
  5
122E
330
2
100
AcDbEntity
  8
0
100
AcDbLine
 10
537.2766334008795
 20
321.2781707073206
 30
0.0
 11
537.2766334008795
 21
312.2781707073206
 31
0.0
  0
LINE
  5
122F
330
2
100
AcDbEntity
  8
0
100
AcDbLine
 10
543.2766334008795
 20
311.7781707073206
 30
0.0
 11
537.7766334008795
 21
311.7781707073206
 31
0.0
  0
ARC
  5
1230
330
2
100
AcDbEntity
  8
0
100
AcDbCircle
 10
537.7766334008795
 20
312.2781707073206
 30
0.0
 40
0.5
100
AcDbArc
 50
180.0
 51
270.0
  0
LINE
  5
1231
330
2
100
AcDbEntity
  8
0
100
AcDbLine
 10
543.2766334008795
 20
311.2781707073206
 30
0.0
 11
543.7766334008795
 21
311.2781707073206
 31
0.0
  0
LINE
  5
1232
330
2
100
AcDbEntity
  8
0
100
AcDbLine
 10
543.2766334008795
 20
321.7781707073206
 30
0.0
 11
537.7766334008795
 21
321.7781707073206
 31
0.0
  0
ARC
  5
1233
330
2
100
AcDbEntity
  8
0
100
AcDbCircle
 10
537.7766334008795
 20
321.2781707073206
 30
0.0
 40
0.5
100
AcDbArc
 50
90.0
 51
180.0
  0
LINE
  5
1234
330
2
100
AcDbEntity
  8
0
100
AcDbLine
 10
552.7766334008792
 20
323.5281707073206
 30
0.0
 11
543.7766334008795
 21
323.5281707073206
 31
0.0
  0
LINE
  5
1235
330
2
100
AcDbEntity
  8
0
100
AcDbLine
 10
543.2766334008795
 20
322.2781707073206
 30
0.0
 11
543.7766334008792
 21
322.2781707073206
 31
0.0
  0
LINE
  5
1236
330
2
100
AcDbEntity
  8
0
100
AcDbLine
 10
559.7766334008793
 20
274.2781707073206
 30
0.0
 11
576.1163793630348
 21
274.2781707073207
 31
0.0
  0
ARC
  5
1237
330
2
100
AcDbEntity
  8
0
100
AcDbCircle
 10
576.1163793630348
 20
264.2781707073206
 30
0.0
 40
10.0
100
AcDbArc
 50
48.59037789073025
 51
90.0
  0
LINE
  5
1238
330
2
100
AcDbEntity
  8
LINIE
 48
10.0
100
AcDbLine
 10
561.1496541924164
 20
330.2781707073206
 30
0.0
 11
584.104689619033
 21
330.2781707073206
 31
0.0
  0
LINE
  5
1239
330
2
100
AcDbEntity
  8
LINIE
 48
10.0
100
AcDbLine
 10
579.3218138492837
 20
330.2781707073206
 30
0.0
 11
561.1898807292477
 21
330.2781707073206
 31
0.0
  0
ARC
  5
123A
330
2
100
AcDbEntity
  8
0
100
AcDbCircle
 10
573.1163793630348
 20
325.2781707073206
 30
0.0
 40
10.0
100
AcDbArc
 50
48.59037789073025
 51
90.0
1001
ACAD
1000
ASC_BOUNDS
1002
{
1070
    19
1002
}
  0
ARC
  5
123B
330
2
100
AcDbEntity
  8
0
100
AcDbCircle
 10
586.3451359183577
 20
340.2781707073206
 30
0.0
 40
10.0
100
AcDbArc
 50
228.5903778907302
 51
270.0
1001
ACAD
1000
ASC_BOUNDS
1002
{
1070
    19
1002
}
  0
LINE
  5
123D
330
2
100
AcDbEntity
  8
0
100
AcDbLine
 10
659.7766334008793
 20
266.3454928286773
 30
0.0
 11
659.7766334008793
 21
202.7781707073206
 31
0.0
1001
ACAD
1000
ASC_BOUNDS
1002
{
1070
    19
1002
}
  0
LINE
  5
1244
330
2
100
AcDbEntity
  8
MITTE
 48
10.0
100
AcDbLine
 10
983.2092700995088
 20
337.9675578220194
 30
0.0
 11
983.2092700995088
 21
152.6825787740124
 31
0.0
  0
CIRCLE
  5
1245
330
2
100
AcDbEntity
  8
MITTE
 48
10.0
100
AcDbCircle
 10
983.2092700995088
 20
234.0281707073206
 30
0.0
 40
65.0
  0
LINE
  5
1246
330
2
100
AcDbEntity
  8
0
100
AcDbLine
 10
844.2766334008792
 20
316.7781707073206
 30
0.0
 11
844.2766334008792
 21
221.7781707073206
 31
0.0
  0
LINE
  5
1247
330
2
100
AcDbEntity
  8
0
100
AcDbLine
 10
835.2766334008791
 20
208.2781707073206
 30
0.0
 11
835.2766334008792
 21
329.2781707073206
 31
0.0
  0
LINE
  5
1248
330
2
100
AcDbEntity
  8
0
100
AcDbLine
 10
846.2766334008792
 20
314.7781707073206
 30
0.0
 11
846.2766334008792
 21
223.7781707073206
 31
0.0
1001
ACAD
1000
ASC_BOUNDS
1002
{
1070
    19
1002
}
  0
LINE
  5
1249
330
2
100
AcDbEntity
  8
0
100
AcDbLine
 10
729.7766334008793
 20
329.2781707073206
 30
0.0
 11
729.7766334008793
 21
200.2781707073206
 31
0.0
1001
ACAD
1000
ASC_BOUNDS
1002
{
1070
    19
1002
}
  0
LINE
  5
124A
330
2
100
AcDbEntity
  8
0
100
AcDbLine
 10
731.7766334008792
 20
330.2781707073206
 30
0.0
 11
731.7766334008792
 21
208.2781707073206
 31
0.0
  0
LINE
  5
124B
330
2
100
AcDbEntity
  8
0
100
AcDbLine
 10
808.2766334008793
 20
330.2781707073206
 30
0.0
 11
808.2766334008793
 21
208.2781707073206
 31
0.0
1001
ACAD
1000
ASC_BOUNDS
1002
{
1070
    19
1002
}
  0
LINE
  5
124C
330
2
100
AcDbEntity
  8
0
100
AcDbLine
 10
789.2766334008793
 20
330.2781707073206
 30
0.0
 11
789.2766334008793
 21
208.2781707073206
 31
0.0
1001
ACAD
1000
ASC_BOUNDS
1002
{
1070
    19
1002
}
  0
LINE
  5
124D
330
2
100
AcDbEntity
  8
0
100
AcDbLine
 10
729.7766334008793
 20
328.2781707073206
 30
0.0
 11
729.7766334008793
 21
210.2781707073206
 31
0.0
1001
ACAD
1000
ASC_BOUNDS
1002
{
1070
    19
1002
}
  0
CIRCLE
  5
124E
330
2
100
AcDbEntity
  8
0
100
AcDbCircle
 10
983.2092700995088
 20
234.0281707073206
 30
0.0
 40
55.0
  0
CIRCLE
  5
124F
330
2
100
AcDbEntity
  8
0
100
AcDbCircle
 10
983.2092700995088
 20
234.0281707073206
 30
0.0
 40
79.0
  0
LINE
  5
1252
330
2
100
AcDbEntity
  8
0
100
AcDbLine
 10
731.7766334008792
 20
208.2781707073206
 30
0.0
 11
835.2766334008792
 21
208.2781707073206
 31
0.0
1001
ACAD
1000
ASC_BOUNDS
1002
{
1070
    19
1002
}
  0
MTEXT
  5
1255
330
2
100
AcDbEntity
  8
BEM
 48
10.0
100
AcDbMText
 10
876.5842231496765
 20
648.9051263995452
 30
0.0
 40
10.0
 41
0.0
 71
     4
 72
     1
  1
\A1;
1001
ACAD
1000
MTEXTBEGIN
1070
    73
1070
     1
1070
    44
1040
1.0
1070
    74
1070
     0
1000
MTEXTEND
  0
SPLINE
  5
125A
330
2
100
AcDbEntity
  8
LINIE
 48
10.0
100
AcDbSpline
210
0.0
220
0.0
230
1.0
 70
     8
 71
     3
 72
    12
 73
     8
 74
     6
 42
0.0000000001
 43
0.0000000001
 44
0.0000000001
 40
0.0
 40
0.0
 40
0.0
 40
0.0
 40
4.851711911382353
 40
18.01859907913523
 40
32.66528729343521
 40
43.80667159575186
 40
46.09696782555264
 40
46.09696782555264
 40
46.09696782555264
 40
46.09696782555264
 10
672.276633400879
 20
196.2855373205623
 30
0.0
 10
673.7608372312305
 20
196.9274629620416
 30
0.0
 10
679.2729686725224
 20
199.3114876081251
 30
0.0
 10
690.3935112159006
 20
200.9697294130714
 30
0.0
 10
703.1232152488562
 20
197.3363467226041
 30
0.0
 10
712.6187853881665
 20
199.3971681814036
 30
0.0
 10
716.9998658092423
 20
198.4065968038921
 30
0.0
 10
717.7469035270357
 20
198.2376900251879
 30
0.0
 11
672.276633400879
 21
196.2855373205623
 31
0.0
 11
676.774348543073
 21
198.1047863334047
 31
0.0
 11
689.804589508143
 21
199.9968059106158
 31
0.0
 11
704.3635204617369
 21
198.3958670812419
 31
0.0
 11
715.5011017543245
 21
198.6869463194416
 31
0.0
 11
717.7469035270357
 21
198.2376900251879
 31
0.0
  0
HATCH
  5
125B
330
2
100
AcDbEntity
  8
LINIE
 48
10.0
100
AcDbHatch
 10
0.0
 20
0.0
 30
0.0
210
0.0
220
0.0
230
1.0
  2
ANSI31
 70
     0
 71
     0
 91
        4
 92
        5
 93
        6
 72
     1
 10
713.4011334008792
 20
188.2781707073206
 11
717.2261231436624
 21
188.2781707073206
 72
     2
 10
714.7766334008792
 20
188.7781707073202
 40
2.499999999999964
 50
348.4630409671946
 51
360.0
 73
     1
 72
     1
 10
717.276633400879
 20
188.7781707073202
 11
717.276633400879
 21
196.7781707073206
 72
     2
 10
719.776633400879
 20
196.7781707073206
 40
2.499999999999997
 50
179.9999999999986
 51
215.7188059857673
 73
     0
 72
     4
 94
        3
 73
     0
 74
     0
 95
        9
 96
        5
 40
41.68509778057305
 40
41.68509778057305
 40
41.68509778057305
 40
41.68509778057305
 40
43.97539401037382
 40
46.09696782555253
 40
46.09696782555253
 40
46.09696782555253
 40
46.09696782555253
 10
717.7469035270357
 20
198.2376900251879
 10
716.9998658092422
 20
198.4065968038921
 10
715.560823432663
 20
198.7319672724204
 10
714.1043827454568
 20
198.8441028460699
 10
713.4011334008782
 20
198.8636461619456
 72
     1
 10
713.4011334008792
 20
198.8636461619455
 11
713.4011334008792
 21
188.2781707073206
 97
        0
 92
        5
 93
        4
 72
     4
 94
        3
 73
     0
 74
     0
 95
        8
 96
        4
 40
40.20165906937324
 40
40.20165906937324
 40
40.20165906937324
 40
40.20165906937324
 40
41.68509778057305
 40
41.68509778057305
 40
41.68509778057305
 40
41.68509778057305
 10
713.4011334008785
 20
198.8636461619456
 10
712.9094100896695
 20
198.877311164364
 10
712.4162796118348
 20
198.874167536275
 10
711.9221334008791
 20
198.8593187611148
 72
     1
 10
711.9221334008791
 20
198.8593187611148
 11
711.922133400879
 21
189.7571707073208
 72
     1
 10
711.9221334008791
 20
189.7571707073208
 11
713.401133400879
 21
188.2781707073206
 72
     1
 10
713.4011334008789
 20
188.2781707073206
 11
713.401133400879
 21
198.8636461619455
 97
        0
 92
        5
 93
        4
 72
     1
 10
680.1521334008791
 20
188.2781707073206
 11
681.631133400879
 21
189.7571707073206
 72
     1
 10
681.631133400879
 20
189.7571707073206
 11
681.6311334008791
 21
199.4159593916791
 72
     4
 94
        3
 73
     0
 74
     0
 95
        8
 96
        4
 40
8.357331474458113
 40
8.357331474458113
 40
8.357331474458113
 40
8.357331474458113
 40
9.859576091809616
 40
9.859576091809616
 40
9.859576091809616
 40
9.859576091809616
 10
681.6311334008823
 20
199.4159593916798
 10
681.1356687913757
 20
199.3201438464228
 10
680.6424621907922
 20
199.2135547391764
 10
680.1521334008832
 20
199.0963602159411
 72
     1
 10
680.1521334008791
 20
199.09636021594
 11
680.152133400879
 21
188.2781707073205
 97
        0
 92
        5
 93
        5
 72
     4
 94
        3
 73
     0
 74
     0
 95
        9
 96
        5
 40
0.0
 40
0.0
 40
0.0
 40
0.0
 40
3.505619563075864
 40
8.357331474458112
 40
8.357331474458112
 40
8.357331474458112
 40
8.357331474458112
 10
680.1521334008832
 20
199.0963602159411
 10
679.0079081672631
 20
198.8228765178843
 10
676.3174571650745
 20
198.0332139764847
 10
673.7608372312307
 20
196.9274629620415
 10
672.276633400879
 20
196.2855373205623
 72
     1
 10
672.276633400879
 20
196.2855373205623
 11
672.2766334008793
 21
188.7781707073206
 72
     2
 10
674.7766334008793
 20
188.7781707073207
 40
2.500000000000019
 50
180.0000000000013
 51
191.5369590328181
 73
     1
 72
     1
 10
672.327143658096
 20
188.2781707073206
 11
680.1521334008791
 21
188.2781707073206
 72
     1
 10
680.1521334008791
 20
188.2781707073206
 11
680.1521334008794
 21
199.0963602159398
 97
        0
 75
     0
 76
     1
 52
0.0
 41
25.0
 77
     0
 78
     1
 53
45.0
 43
137.9518788186305
 44
-56.4315390144327
 45
-2.20970869120796
 46
2.209708691207961
 79
     0
 47
0.3395931865206437
 98
        4
 10
714.4213138332645
 20
192.0648793088403
 10
713.0624801649721
 20
192.7440652043981
 10
680.7901868781102
 20
193.4232526095934
 10
677.0533942903055
 20
192.7440652043981
  0
ARC
  5
125C
330
2
100
AcDbEntity
  8
0
100
AcDbCircle
 10
719.776633400879
 20
196.7781707073206
 30
0.0
 40
2.5
100
AcDbArc
 50
90.0
 51
180.0
1001
ACAD
1000
ASC_BOUNDS
1002
{
1070
    19
1002
}
  0
LINE
  5
125D
330
2
100
AcDbEntity
  8
LINIE
 48
10.0
100
AcDbLine
 10
713.4011334008792
 20
198.8636461619546
 30
0.0
 11
713.4011334008792
 21
188.2781707073206
 31
0.0
1001
ACAD
1000
ASC_BOUNDS
1002
{
1070
    19
1002
}
  0
LINE
  5
125E
330
2
100
AcDbEntity
  8
0
100
AcDbLine
 10
672.327143658096
 20
188.2781707073206
 30
0.0
 11
717.2261231436623
 21
188.2781707073206
 31
0.0
1001
ACAD
1000
ASC_BOUNDS
1002
{
1070
    19
1005
0
1002
}
  0
ARC
  5
125F
330
2
100
AcDbEntity
  8
0
100
AcDbCircle
 10
714.7766334008791
 20
188.7781707073206
 30
0.0
 40
2.5
100
AcDbArc
 50
348.4630409671818
 51
0.0
1001
ACAD
1000
ASC_BOUNDS
1002
{
1070
    19
1002
}
  0
LINE
  5
1260
330
2
100
AcDbEntity
  8
0
100
AcDbLine
 10
717.276633400879
 20
196.7781707073206
 30
0.0
 11
717.276633400879
 21
188.7781707073206
 31
0.0
1001
ACAD
1000
ASC_BOUNDS
1002
{
1070
    19
1002
}
  0
LINE
  5
1261
330
2
100
AcDbEntity
  8
0
100
AcDbLine
 10
711.9221334008791
 20
198.8593187611172
 30
0.0
 11
711.9221334008791
 21
189.7571707073207
 31
0.0
1001
ACAD
1000
ASC_BOUNDS
1002
{
1070
    19
1002
}
  0
LINE
  5
1262
330
2
100
AcDbEntity
  8
0
100
AcDbLine
 10
711.9221334008791
 20
189.7571707073207
 30
0.0
 11
713.4011334008792
 21
188.2781707073206
 31
0.0
1001
ACAD
1000
ASC_BOUNDS
1002
{
1070
    19
1002
}
  0
LINE
  5
1263
330
2
100
AcDbEntity
  8
LINIE
 48
10.0
100
AcDbLine
 10
680.1521334008791
 20
199.096360215956
 30
0.0
 11
680.1521334008791
 21
188.2781707073206
 31
0.0
1001
ACAD
1000
ASC_BOUNDS
1002
{
1070
    19
1002
}
  0
LINE
  5
1264
330
2
100
AcDbEntity
  8
0
100
AcDbLine
 10
681.6311334008791
 20
189.7571707073207
 30
0.0
 11
680.1521334008791
 21
188.2781707073206
 31
0.0
1001
ACAD
1000
ASC_BOUNDS
1002
{
1070
    19
1002
}
  0
LINE
  5
1265
330
2
100
AcDbEntity
  8
0
100
AcDbLine
 10
681.6311334008791
 20
199.4159593916945
 30
0.0
 11
681.631133400879
 21
189.7571707073207
 31
0.0
1001
ACAD
1000
ASC_BOUNDS
1002
{
1070
    19
1002
}
  0
LINE
  5
1266
330
2
100
AcDbEntity
  8
0
100
AcDbLine
 10
672.276633400879
 20
196.7781707073206
 30
0.0
 11
672.2766334008793
 21
188.7781707073206
 31
0.0
1001
ACAD
1000
ASC_BOUNDS
1002
{
1070
    19
1002
}
  0
ARC
  5
1267
330
2
100
AcDbEntity
  8
0
100
AcDbCircle
 10
674.7766334008793
 20
188.7781707073206
 30
0.0
 40
2.5
100
AcDbArc
 50
180.0
 51
191.5369590328181
1001
ACAD
1000
ASC_BOUNDS
1002
{
1070
    19
1002
}
  0
LINE
  5
1268
330
2
100
AcDbEntity
  8
0
100
AcDbLine
 10
681.6311334008791
 20
189.7571707073207
 30
0.0
 11
711.9221334008793
 21
189.7571707073207
 31
0.0
1001
ACAD
1000
ASC_BOUNDS
1002
{
1070
    19
1002
}
  0
LINE
  5
1269
330
2
100
AcDbEntity
  8
0
100
AcDbLine
 10
646.2766334008793
 20
170.7870891718337
 30
0.0
 11
646.2766334008793
 21
188.9239527811871
 31
0.0
  0
LINE
  5
126A
330
2
100
AcDbEntity
  8
0
100
AcDbLine
 10
646.2766334008793
 20
170.7870891718337
 30
0.0
 11
644.7677149363662
 21
169.2781707073208
 31
0.0
1001
ACAD
1000
ASC_BOUNDS
1002
{
1070
    19
1002
}
  0
LINE
  5
126B
330
2
100
AcDbEntity
  8
0
100
AcDbLine
 10
646.2766334008793
 20
190.4328712456999
 30
0.0
 11
646.2766334008793
 21
200.2781707073206
 31
0.0
1001
ACAD
1000
ASC_BOUNDS
1002
{
1070
    19
1002
}
  0
LINE
  5
126C
330
2
100
AcDbEntity
  8
0
100
AcDbLine
 10
646.2766334008793
 20
188.9239527811871
 30
0.0
 11
644.7677149363665
 21
190.4328712456999
 31
0.0
1001
ACAD
1000
ASC_BOUNDS
1002
{
1070
    19
1002
}
  0
ARC
  5
126D
330
2
100
AcDbEntity
  8
0
100
AcDbCircle
 10
657.2766334008792
 20
202.7781707073206
 30
0.0
 40
2.5
100
AcDbArc
 50
270.0
 51
0.0
1001
ACAD
1000
ASC_BOUNDS
1002
{
1070
    19
1002
}
  0
LINE
  5
126E
330
2
100
AcDbEntity
  8
0
100
AcDbLine
 10
680.9547662501443
 20
199.2781707073206
 30
0.0
 11
666.776633400879
 21
199.2781707073206
 31
0.0
1001
ACAD
1000
ASC_BOUNDS
1002
{
1070
    19
1002
}
  0
ARC
  5
126F
330
2
100
AcDbEntity
  8
0
100
AcDbCircle
 10
669.776633400879
 20
196.7781707073206
 30
0.0
 40
2.5
100
AcDbArc
 50
0.0
 51
90.0
1001
ACAD
1000
ASC_BOUNDS
1002
{
1070
    19
1002
}
  0
LINE
  5
1270
330
2
100
AcDbEntity
  8
0
100
AcDbLine
 10
666.776633400879
 20
200.2781707073206
 30
0.0
 11
666.776633400879
 21
199.2781707073206
 31
0.0
1001
ACAD
1000
ASC_BOUNDS
1002
{
1070
    19
1002
}
  0
LINE
  5
1271
330
2
100
AcDbEntity
  8
0
100
AcDbLine
 10
726.7766334008793
 20
199.2781707073206
 30
0.0
 11
695.88978102647
 21
199.2781707073206
 31
0.0
1001
ACAD
1000
ASC_BOUNDS
1002
{
1070
    19
1002
}
  0
LINE
  5
1272
330
2
100
AcDbEntity
  8
MITTE
 48
10.0
100
AcDbLine
 10
696.7766334008793
 20
204.9795150343818
 30
0.0
 11
696.7766334008793
 21
184.1790399838723
 31
0.0
  0
ARC
  5
1273
330
2
100
AcDbEntity
  8
0
100
AcDbCircle
 10
726.7766334008793
 20
204.2781707073206
 30
0.0
 40
5.0
100
AcDbArc
 50
270.0
 51
306.8698976458466
1001
ACAD
1000
ASC_BOUNDS
1002
{
1070
    19
1002
}
  0
LINE
  5
1274
330
2
100
AcDbEntity
  8
0
100
AcDbLine
 10
731.7766334008792
 20
208.2781707073206
 30
0.0
 11
729.7766334008793
 21
210.2781707073206
 31
0.0
1001
ACAD
1000
ASC_BOUNDS
1002
{
1070
    19
1002
}
  0
ARC
  5
1277
330
2
100
AcDbEntity
  8
0
100
AcDbCircle
 10
837.2766334008792
 20
219.7781707073206
 30
0.0
 40
2.0
100
AcDbArc
 50
90.0
 51
180.0
1001
ACAD
1000
ASC_BOUNDS
1002
{
1070
    19
1002
}
  0
LINE
  5
1278
330
2
100
AcDbEntity
  8
0
100
AcDbLine
 10
837.2766334008792
 20
221.7781707073206
 30
0.0
 11
844.2766334008792
 21
221.7781707073206
 31
0.0
1001
ACAD
1000
ASC_BOUNDS
1002
{
1070
    19
1002
}
  0
LINE
  5
1279
330
2
100
AcDbEntity
  8
0
100
AcDbLine
 10
846.2766334008792
 20
223.7781707073206
 30
0.0
 11
844.2766334008792
 21
221.7781707073206
 31
0.0
1001
ACAD
1000
ASC_BOUNDS
1002
{
1070
    19
1002
}
  0
LINE
  5
127A
330
2
100
AcDbEntity
  8
MITTE
 48
10.0
100
AcDbLine
 10
1064.408154892383
 20
234.0281707073206
 30
0.0
 11
901.9776218147624
 21
234.0281707073206
 31
0.0
  0
CIRCLE
  5
127B
330
2
100
AcDbEntity
  8
0
100
AcDbCircle
 10
983.2092700995088
 20
234.0281707073206
 30
0.0
 40
12.0
  0
CIRCLE
  5
127C
330
2
100
AcDbEntity
  8
0
100
AcDbCircle
 10
983.2092700995088
 20
234.0281707073206
 30
0.0
 40
11.0
  0
ARC
  5
127D
330
2
100
AcDbEntity
  8
0
100
AcDbCircle
 10
983.2092700995088
 20
234.0281707073206
 30
0.0
 40
14.0
100
AcDbArc
 50
106.6015495990171
 51
73.39845040098281
  0
LINE
  5
127E
330
2
100
AcDbEntity
  8
MITTE
 48
3.0
100
AcDbLine
 10
944.3303726100754
 20
195.1492732178874
 30
0.0
 11
931.3596997987609
 21
182.1786004065727
 31
0.0
  0
LINE
  5
127F
330
2
100
AcDbEntity
  8
0
100
AcDbLine
 10
924.7092700995088
 20
170.2781707073207
 30
0.0
 11
924.7092700995088
 21
180.9362692533324
 31
0.0
1001
ACAD
1000
ASC_BOUNDS
1002
{
1070
    19
1002
}
  0
LINE
  5
1280
330
2
100
AcDbEntity
  8
0
100
AcDbLine
 10
926.9280808974043
 20
170.683564619552
 30
0.0
 11
926.9280808974045
 21
178.5896665608619
 31
0.0
  0
LINE
  5
1281
330
2
100
AcDbEntity
  8
0
100
AcDbLine
 10
925.7092700995087
 20
169.2781707073207
 30
0.0
 11
937.9496026239294
 21
169.2781707073208
 31
0.0
1001
ACAD
1000
ASC_BOUNDS
1002
{
1070
    19
1005
0
1002
}
  0
ARC
  5
1282
330
2
100
AcDbEntity
  8
0
100
AcDbCircle
 10
934.9592700995087
 20
192.9281707073207
 30
0.0
 40
23.65
100
AcDbArc
 50
250.1483977684166
 51
276.7018305601547
  0
LINE
  5
1283
330
2
100
AcDbEntity
  8
0
100
AcDbLine
 10
926.9280808974043
 20
170.683564619552
 30
0.0
 11
924.7092700995088
 21
170.2781707073207
 31
0.0
  0
LINE
  5
1284
330
2
100
AcDbEntity
  8
0
100
AcDbLine
 10
924.7092700995088
 20
170.2781707073207
 30
0.0
 11
925.7092700995087
 21
169.2781707073207
 31
0.0
1001
ACAD
1000
ASC_BOUNDS
1002
{
1070
    19
1002
}
  0
CIRCLE
  5
1285
330
2
100
AcDbEntity
  8
0
100
AcDbCircle
 10
937.2473293223832
 20
188.0662299301951
 30
0.0
 40
4.5
  0
LINE
  5
1286
330
2
100
AcDbEntity
  8
0
100
AcDbLine
 10
979.2092700995087
 20
248.9281707073206
 30
0.0
 11
987.2092700995088
 21
248.9281707073206
 31
0.0
  0
LINE
  5
1287
330
2
100
AcDbEntity
  8
0
100
AcDbLine
 10
979.2092700995087
 20
248.9281707073206
 30
0.0
 11
979.2092700995087
 21
245.3418792063053
 31
0.0
  0
LINE
  5
1288
330
2
100
AcDbEntity
  8
0
100
AcDbLine
 10
987.2092700995088
 20
248.9281707073206
 30
0.0
 11
987.2092700995088
 21
245.3418792063053
 31
0.0
  0
ARC
  5
1289
330
2
100
AcDbEntity
  8
0
100
AcDbCircle
 10
1031.459270099508
 20
192.9281707073207
 30
0.0
 40
23.65
100
AcDbArc
 50
263.2981694398452
 51
289.8516022315833
  0
LINE
  5
128A
330
2
100
AcDbEntity
  8
0
100
AcDbLine
 10
1028.468937575088
 20
169.2781707073208
 30
0.0
 11
1040.709270099508
 21
169.2781707073207
 31
0.0
1001
ACAD
1000
ASC_BOUNDS
1002
{
1070
    19
1002
}
  0
LINE
  5
128C
330
2
100
AcDbEntity
  8
MITTE
 48
3.0
100
AcDbLine
 10
1023.540945472703
 20
193.6964953341263
 30
0.0
 11
1033.827035623171
 21
183.4104051836581
 31
0.0
  0
CIRCLE
  5
128D
330
2
100
AcDbEntity
  8
0
100
AcDbCircle
 10
1029.171210876634
 20
188.0662299301949
 30
0.0
 40
4.5
  0
LINE
  5
128E
330
2
100
AcDbEntity
  8
0
100
AcDbLine
 10
1041.709270099508
 20
170.2781707073207
 30
0.0
 11
1041.709270099508
 21
180.9362692533322
 31
0.0
1001
ACAD
1000
ASC_BOUNDS
1002
{
1070
    19
1002
}
  0
LINE
  5
128F
330
2
100
AcDbEntity
  8
0
100
AcDbLine
 10
1039.490459301613
 20
170.683564619552
 30
0.0
 11
1039.490459301613
 21
178.5896665608621
 31
0.0
  0
LINE
  5
1290
330
2
100
AcDbEntity
  8
0
100
AcDbLine
 10
1041.709270099508
 20
170.2781707073207
 30
0.0
 11
1039.490459301613
 21
170.683564619552
 31
0.0
  0
LINE
  5
1291
330
2
100
AcDbEntity
  8
0
100
AcDbLine
 10
1041.709270099508
 20
170.2781707073207
 30
0.0
 11
1040.709270099508
 21
169.2781707073207
 31
0.0
1001
ACAD
1000
ASC_BOUNDS
1002
{
1070
    19
1002
}
  0
LINE
  5
1294
330
2
100
AcDbEntity
  8
0
100
AcDbLine
 10
808.2766334008793
 20
330.2781707073206
 30
0.0
 11
835.2766334008792
 21
330.2781707073206
 31
0.0
1001
ACAD
1000
ASC_BOUNDS
1002
{
1070
    19
1002
}
  0
LINE
  5
1295
330
2
100
AcDbEntity
  8
0
100
AcDbLine
 10
731.7766334008792
 20
330.2781707073206
 30
0.0
 11
789.2766334008793
 21
330.2781707073206
 31
0.0
1001
ACAD
1000
ASC_BOUNDS
1002
{
1070
    19
1002
}
  0
ARC
  5
1296
330
2
100
AcDbEntity
  8
0
100
AcDbCircle
 10
662.2766334008793
 20
266.3454928286773
 30
0.0
 40
2.5
100
AcDbArc
 50
90.0
 51
180.0
1001
ACAD
1000
ASC_BOUNDS
1002
{
1070
    19
1002
}
  0
ARC
  5
1297
330
2
100
AcDbEntity
  8
0
100
AcDbCircle
 10
726.7766334008793
 20
325.2781707073206
 30
0.0
 40
5.0
100
AcDbArc
 50
53.13010235415337
 51
90.0
1001
ACAD
1000
ASC_BOUNDS
1002
{
1070
    19
1002
}
  0
LINE
  5
1298
330
2
100
AcDbEntity
  8
0
100
AcDbLine
 10
731.7766334008792
 20
330.2781707073206
 30
0.0
 11
729.7766334008793
 21
328.2781707073206
 31
0.0
1001
ACAD
1000
ASC_BOUNDS
1002
{
1070
    19
1002
}
  0
LINE
  5
1299
330
2
100
AcDbEntity
  8
0
100
AcDbLine
 10
808.2766334008791
 20
330.2781707073206
 30
0.0
 11
808.2766334008793
 21
327.2781707073206
 31
0.0
1001
ACAD
1000
ASC_BOUNDS
1002
{
1070
    19
1002
}
  0
LINE
  5
129A
330
2
100
AcDbEntity
  8
0
100
AcDbLine
 10
789.2766334008793
 20
330.2781707073206
 30
0.0
 11
789.2766334008793
 21
327.2781707073206
 31
0.0
1001
ACAD
1000
ASC_BOUNDS
1002
{
1070
    19
1002
}
  0
LINE
  5
129B
330
2
100
AcDbEntity
  8
0
100
AcDbLine
 10
789.2766334008793
 20
330.2781707073206
 30
0.0
 11
808.2766334008791
 21
330.2781707073206
 31
0.0
1001
ACAD
1000
ASC_BOUNDS
1002
{
1070
    19
1002
}
  0
ARC
  5
129D
330
2
100
AcDbEntity
  8
0
100
AcDbCircle
 10
840.7766334008792
 20
328.7781707073206
 30
0.0
 40
0.5
100
AcDbArc
 50
0.0
 51
90.0
  0
LINE
  5
129E
330
2
100
AcDbEntity
  8
0
100
AcDbLine
 10
835.2766334008792
 20
330.2781707073206
 30
0.0
 11
835.2766334008792
 21
318.7781707073206
 31
0.0
1001
ACAD
1000
ASC_BOUNDS
1002
{
1070
    19
1002
}
  0
ARC
  5
129F
330
2
100
AcDbEntity
  8
0
100
AcDbCircle
 10
837.2766334008792
 20
318.7781707073206
 30
0.0
 40
2.0
100
AcDbArc
 50
180.0
 51
270.0
1001
ACAD
1000
ASC_BOUNDS
1002
{
1070
    19
1002
}
  0
LINE
  5
12A0
330
2
100
AcDbEntity
  8
0
100
AcDbLine
 10
837.2766334008792
 20
316.7781707073206
 30
0.0
 11
844.2766334008792
 21
316.7781707073206
 31
0.0
1001
ACAD
1000
ASC_BOUNDS
1002
{
1070
    19
1002
}
  0
LINE
  5
12A1
330
2
100
AcDbEntity
  8
0
100
AcDbLine
 10
844.2766334008792
 20
316.7781707073206
 30
0.0
 11
846.2766334008792
 21
314.7781707073206
 31
0.0
1001
ACAD
1000
ASC_BOUNDS
1002
{
1070
    19
1002
}
  0
LINE
  5
12A2
330
2
100
AcDbEntity
  8
0
100
AcDbLine
 10
835.2766334008792
 20
329.2781707073206
 30
0.0
 11
840.7766334008792
 21
329.2781707073206
 31
0.0
  0
LINE
  5
12A3
330
2
100
AcDbEntity
  8
0
100
AcDbLine
 10
835.2766334008792
 20
319.2781707073206
 30
0.0
 11
840.7766334008792
 21
319.2781707073206
 31
0.0
  0
ARC
  5
12A4
330
2
100
AcDbEntity
  8
0
100
AcDbCircle
 10
840.7766334008792
 20
319.7781707073206
 30
0.0
 40
0.5
100
AcDbArc
 50
270.0
 51
0.0
  0
LINE
  5
12A5
330
2
100
AcDbEntity
  8
0
100
AcDbLine
 10
841.2766334008793
 20
319.7781707073206
 30
0.0
 11
841.2766334008793
 21
328.7781707073206
 31
0.0
  0
ARC
  5
12A7
330
2
100
AcDbEntity
  8
0
100
AcDbCircle
 10
983.2092700995088
 20
269.2781707073206
 30
0.0
 40
61.0
100
AcDbArc
 50
17.28014201780435
 51
162.7198579821956
1001
ACAD
1000
ASC_BOUNDS
1002
{
1070
    19
1005
0
1002
}
  0
ARC
  5
12A8
330
2
100
AcDbEntity
  8
0
100
AcDbCircle
 10
983.2092700995088
 20
268.5281707073206
 30
0.0
 40
55.0
100
AcDbArc
 50
32.26219197885822
 51
147.7378080211417
  0
ARC
  5
12A9
330
2
100
AcDbEntity
  8
0
100
AcDbCircle
 10
983.2092700995088
 20
327.2781707073206
 30
0.0
 40
8.0
100
AcDbArc
 50
18.40505542230634
 51
161.5949445776936
  0
LINE
  5
12AA
330
2
100
AcDbEntity
  8
MITTE
 48
3.0
100
AcDbLine
 10
931.8793135303977
 20
285.3581272764303
 30
0.0
 11
942.8322715378513
 21
274.4051692689771
 31
0.0
  0
CIRCLE
  5
12AB
330
2
100
AcDbEntity
  8
0
100
AcDbCircle
 10
937.2473293223825
 20
279.9901114844455
 30
0.0
 40
4.5
  0
LINE
  5
12AC
330
2
100
AcDbEntity
  8
MITTE
 48
3.0
100
AcDbLine
 10
1034.83710144256
 20
285.6560020503718
 30
0.0
 11
1024.062383200602
 21
274.8812838084138
 31
0.0
  0
CIRCLE
  5
12AD
330
2
100
AcDbEntity
  8
0
100
AcDbCircle
 10
1029.171210876634
 20
279.9901114844463
 30
0.0
 40
4.5
  0
SPLINE
  5
3FCC
330
2
100
AcDbEntity
  8
LINIE
 48
10.0
100
AcDbSpline
210
0.0
220
0.0
230
1.0
 70
     8
 71
     3
 72
    11
 73
     7
 74
     5
 42
0.0000000001
 43
0.0000000001
 44
0.0000000001
 40
0.0
 40
0.0
 40
0.0
 40
0.0
 40
2.62629010064643
 40
5.544780380777337
 40
8.310133457396172
 40
9.81545957471715
 40
9.81545957471715
 40
9.81545957471715
 40
9.81545957471715
 10
835.2766334008792
 20
243.1514361841341
 30
0.0
 10
836.0680815984752
 20
243.7886065728013
 30
0.0
 10
837.7390342618348
 20
245.1338387196324
 30
0.0
 10
840.2172929199105
 20
241.9335191523633
 30
0.0
 10
842.336235979733
 20
244.4561353979701
 30
0.0
 10
843.7709325300129
 20
244.0702251670364
 30
0.0
 10
844.2766334008794
 20
243.9341997895296
 30
0.0
 11
835.2766334008792
 21
243.1514361841341
 31
0.0
 11
837.6470786176414
 21
244.2820949156189
 31
0.0
 11
840.2577462901755
 21
242.9774877644792
 31
0.0
 11
842.7813913914414
 21
244.1081482091845
 31
0.0
 11
844.2766334008794
 21
243.9341997895296
 31
0.0
  0
LINE
  5
3FCD
330
2
100
AcDbEntity
  8
LINIE
 48
10.0
100
AcDbLine
 10
838.276633400879
 20
240.7781707073206
 30
0.0
 11
842.2766334008791
 21
240.7781707073206
 31
0.0
1001
ACAD
1000
ASC_BOUNDS
1002
{
1070
    19
1002
}
  0
LINE
  5
3FCE
330
2
100
AcDbEntity
  8
LINIE
 48
10.0
100
AcDbLine
 10
837.0436334008791
 20
228.7781707073206
 30
0.0
 11
837.0436334008791
 21
224.7781707073206
 31
0.0
  0
LINE
  5
3FCF
330
2
100
AcDbEntity
  8
LINIE
 48
10.0
100
AcDbLine
 10
843.509633400879
 20
228.7781707073206
 30
0.0
 11
843.509633400879
 21
224.7781707073206
 31
0.0
  0
LINE
  5
3FD0
330
2
100
AcDbEntity
  8
LINIE
 48
10.0
100
AcDbLine
 10
837.0436334008791
 20
228.7781707073206
 30
0.0
 11
836.276633400879
 21
228.0111707073206
 31
0.0
  0
LINE
  5
3FD1
330
2
100
AcDbEntity
  8
0
 48
10.0
100
AcDbLine
 10
843.509633400879
 20
228.7781707073206
 30
0.0
 11
844.2766334008791
 21
228.0111707073206
 31
0.0
  0
LINE
  5
3FD2
330
2
100
AcDbEntity
  8
LINIE
 48
10.0
100
AcDbLine
 10
844.2766334008792
 20
228.7781707073206
 30
0.0
 11
844.2766334008791
 21
228.0111707073206
 31
0.0
  0
LINE
  5
3FD3
330
2
100
AcDbEntity
  8
LINIE
 48
10.0
100
AcDbLine
 10
836.2766334008792
 20
228.7781707073206
 30
0.0
 11
836.276633400879
 21
228.0111707073206
 31
0.0
  0
LINE
  5
3FD4
330
2
100
AcDbEntity
  8
LINIE
 48
10.0
100
AcDbLine
 10
837.2766334008792
 20
221.7781707073206
 30
0.0
 11
844.2766334008794
 21
221.7781707073206
 31
0.0
1001
ACAD
1000
ASC_BOUNDS
1002
{
1070
    19
1002
}
  0
LINE
  5
3FD5
330
2
100
AcDbEntity
  8
LINIE
 48
10.0
100
AcDbLine
 10
836.2766334008792
 20
221.7781707073206
 30
0.0
 11
844.2766334008792
 21
221.7781707073206
 31
0.0
1001
ACAD
1000
ASC_BOUNDS
1002
{
1070
    19
1002
}
  0
LINE
  5
3FD6
330
2
100
AcDbEntity
  8
LINIE
 48
10.0
100
AcDbLine
 10
836.276633400879
 20
225.5451707073205
 30
0.0
 11
844.2766334008791
 21
225.5451707073205
 31
0.0
  0
LINE
  5
3FD7
330
2
100
AcDbEntity
  8
LINIE
 48
10.0
100
AcDbLine
 10
836.276633400879
 20
228.0111707073206
 30
0.0
 11
844.2766334008791
 21
228.0111707073206
 31
0.0
  0
LINE
  5
3FD8
330
2
100
AcDbEntity
  8
LINIE
 48
10.0
100
AcDbLine
 10
843.6001334008793
 20
222.4546707073207
 30
0.0
 11
844.2766334008792
 21
221.7781707073206
 31
0.0
1001
ACAD
1000
ASC_BOUNDS
1002
{
1070
    19
1002
}
  0
LINE
  5
3FD9
330
2
100
AcDbEntity
  8
0
 48
10.0
100
AcDbLine
 10
843.509633400879
 20
224.7781707073206
 30
0.0
 11
844.2766334008791
 21
225.5451707073205
 31
0.0
  0
LINE
  5
3FDA
330
2
100
AcDbEntity
  8
LINIE
 48
10.0
100
AcDbLine
 10
837.0436334008791
 20
224.7781707073206
 30
0.0
 11
843.509633400879
 21
224.7781707073206
 31
0.0
  0
LINE
  5
3FDB
330
2
100
AcDbEntity
  8
LINIE
 48
10.0
100
AcDbLine
 10
836.9531334008794
 20
222.4546707073207
 30
0.0
 11
843.6001334008793
 21
222.4546707073207
 31
0.0
1001
ACAD
1000
ASC_BOUNDS
1002
{
1070
    19
1002
}
  0
LINE
  5
3FDC
330
2
100
AcDbEntity
  8
LINIE
 48
10.0
100
AcDbLine
 10
843.6001334008793
 20
224.8686707073204
 30
0.0
 11
843.6001334008793
 21
222.4546707073207
 31
0.0
1001
ACAD
1000
ASC_BOUNDS
1002
{
1070
    19
1002
}
  0
LINE
  5
3FDD
330
2
100
AcDbEntity
  8
LINIE
 48
10.0
100
AcDbLine
 10
836.9531334008794
 20
224.8686707073202
 30
0.0
 11
836.9531334008794
 21
222.4546707073207
 31
0.0
1001
ACAD
1000
ASC_BOUNDS
1002
{
1070
    19
1002
}
  0
LINE
  5
3FDE
330
2
100
AcDbEntity
  8
LINIE
 48
10.0
100
AcDbLine
 10
836.9531334008794
 20
222.4546707073207
 30
0.0
 11
836.2766334008792
 21
221.7781707073206
 31
0.0
1001
ACAD
1000
ASC_BOUNDS
1002
{
1070
    19
1002
}
  0
LINE
  5
3FDF
330
2
100
AcDbEntity
  8
LINIE
 48
10.0
100
AcDbLine
 10
837.0436334008791
 20
224.7781707073206
 30
0.0
 11
836.276633400879
 21
225.5451707073205
 31
0.0
  0
LINE
  5
3FE0
330
2
100
AcDbEntity
  8
LINIE
 48
10.0
100
AcDbLine
 10
836.276633400879
 20
228.0111707073206
 30
0.0
 11
836.276633400879
 21
225.5451707073205
 31
0.0
  0
LINE
  5
3FE1
330
2
100
AcDbEntity
  8
LINIE
 48
10.0
100
AcDbLine
 10
836.2766334008792
 20
225.5451707073202
 30
0.0
 11
836.2766334008792
 21
221.5102215148895
 31
0.0
1001
ACAD
1000
ASC_BOUNDS
1002
{
1070
    19
1002
}
  0
LINE
  5
3FE2
330
2
100
AcDbEntity
  8
LINIE
 48
10.0
100
AcDbLine
 10
844.2766334008791
 20
228.0111707073206
 30
0.0
 11
844.2766334008791
 21
225.5451707073205
 31
0.0
  0
LINE
  5
3FE3
330
2
100
AcDbEntity
  8
LINIE
 48
10.0
100
AcDbLine
 10
844.2766334008791
 20
225.5451707073205
 30
0.0
 11
844.2766334008792
 21
221.7781707073206
 31
0.0
1001
ACAD
1000
ASC_BOUNDS
1002
{
1070
    19
1002
}
  0
LINE
  5
3FE4
330
2
100
AcDbEntity
  8
LINIE
 48
10.0
100
AcDbLine
 10
836.2766334008792
 20
228.7781707073206
 30
0.0
 11
844.2766334008792
 21
228.7781707073206
 31
0.0
1001
ACAD
1000
ASC_BOUNDS
1002
{
1070
    19
1002
}
  0
LINE
  5
3FE5
330
2
100
AcDbEntity
  8
0
 48
10.0
100
AcDbLine
 10
837.0436334008791
 20
228.7781707073206
 30
0.0
 11
843.509633400879
 21
228.7781707073206
 31
0.0
1001
ACAD
1000
ASC_BOUNDS
1002
{
1070
    19
1002
}
  0
INSERT
  5
3FE6
330
2
100
AcDbEntity
  8
SCHRAFF
 48
10.0
100
AcDbBlockReference
  2
*X0
 10
739.549642666019
 20
67.39100232822193
 30
0.0
1001
ACAD
1000
HATCH
1002
{
1070
    19
1000
AR-CONC
1040
0.2
1040
0.0
1002
}
  0
LINE
  5
3FE7
330
2
100
AcDbEntity
  8
LINIE
 48
10.0
100
AcDbLine
 10
842.2766334008791
 20
240.7781707073206
 30
0.0
 11
843.509633400879
 21
228.7781707073206
 31
0.0
1001
ACAD
1000
ASC_BOUNDS
1002
{
1070
    19
1002
}
  0
LINE
  5
3FE8
330
2
100
AcDbEntity
  8
LINIE
 48
10.0
100
AcDbLine
 10
838.276633400879
 20
240.7781707073206
 30
0.0
 11
837.0436334008791
 21
228.7781707073206
 31
0.0
1001
ACAD
1000
ASC_BOUNDS
1002
{
1070
    19
1002
}
  0
LINE
  5
3FE9
330
2
100
AcDbEntity
  8
0
100
AcDbLine
 10
837.2766334008792
 20
221.7781707073206
 30
0.0
 11
844.2766334008792
 21
221.7781707073206
 31
0.0
1001
ACAD
1000
ASC_BOUNDS
1002
{
1070
    19
1002
}
  0
HATCH
  5
3FEA
330
2
100
AcDbEntity
  8
SCHRAFF
 48
10.0
100
AcDbHatch
 10
0.0
 20
0.0
 30
0.0
210
0.0
220
0.0
230
1.0
  2
ANSI31
 70
     0
 71
     0
 91
        6
 92
        5
 93
       18
 72
     4
 94
        3
 73
     0
 74
     0
 95
       12
 96
        8
 40
0.0
 40
0.0
 40
0.0
 40
0.0
 40
2.10100499939131
 40
6.848593476966641
 40
10.75763666958752
 40
15.92791960920187
 40
20.51338574724711
 40
20.51338574724711
 40
20.51338574724711
 40
20.51338574724711
 10
808.2766334008793
 20
234.0191792732746
 10
807.6525652888326
 20
234.3101885019907
 10
805.6183060640401
 20
235.2587840103785
 10
802.4506909179908
 20
238.1455358259065
 10
798.0512577023614
 20
234.9136685868504
 10
793.2770637307449
 20
237.5991463528616
 10
790.555732664038
 20
235.3413339776427
 10
789.2766334008793
 20
234.2801010461466
 72
     1
 10
789.2766334008793
 20
234.2801010461466
 11
789.2766334008793
 21
208.2781707073206
 72
     1
 10
789.2766334008793
 20
208.2781707073206
 11
791.276633400879
 21
208.2781707073206
 72
     1
 10
791.2766334008793
 20
208.2781707073206
 11
791.2766334008795
 21
208.8153493663892
 72
     1
 10
791.2766334008793
 20
208.8153493663892
 11
793.911633400879
 21
208.8153493663892
 72
     1
 10
793.9116334008793
 20
208.8153493663892
 11
793.9116334008795
 21
224.2781707073206
 72
     1
 10
793.9116334008795
 20
224.2781707073206
 11
794.4916334008794
 21
224.2781707073206
 72
     1
 10
794.4916334008794
 20
224.2781707073206
 11
794.4916334008794
 21
228.2781707073206
 72
     1
 10
794.4916334008794
 20
228.2781707073206
 11
797.2766334008765
 21
229.8860912070118
 72
     1
 10
797.2766334008765
 20
229.8860912070117
 11
800.2766334008788
 21
229.886091207014
 72
     1
 10
800.2766334008788
 20
229.886091207014
 11
803.0616334008792
 21
228.2781707073205
 72
     1
 10
803.0616334008794
 20
228.2781707073206
 11
803.0616334008794
 21
224.2781707073206
 72
     1
 10
803.0616334008794
 20
224.2781707073206
 11
803.6416334008794
 21
224.2781707073205
 72
     1
 10
803.6416334008794
 20
224.2781707073204
 11
803.6416334008794
 21
208.8153493663892
 72
     1
 10
803.6416334008793
 20
208.8153493663892
 11
806.2766334008793
 21
208.8153493663892
 72
     1
 10
806.2766334008793
 20
208.8153493663892
 11
806.2766334008793
 21
208.2781707073205
 72
     1
 10
806.2766334008793
 20
208.2781707073206
 11
808.2766334008793
 21
208.2781707073205
 72
     1
 10
808.2766334008793
 20
208.2781707073204
 11
808.2766334008793
 21
234.0191792732746
 97
        0
 92
       22
 72
     0
 73
     1
 93
        4
 10
803.6416334008794
 20
224.2781707073204
 10
803.0616334008792
 20
224.2781707073204
 10
803.0616334008795
 20
209.3953493663893
 10
803.6416334008793
 20
208.8153493663894
 97
        0
 92
       22
 72
     0
 73
     1
 93
        4
 10
794.4916334008794
 20
224.2781707073206
 10
793.9116334008795
 20
224.2781707073204
 10
793.9116334008793
 20
208.8153493663894
 10
794.4916334008794
 20
209.3953493663891
 97
        0
 92
        5
 93
       12
 72
     1
 10
838.276633400879
 20
240.7781707073206
 11
842.2766334008793
 21
240.7781707073206
 72
     1
 10
842.2766334008793
 20
240.7781707073206
 11
843.5096334008791
 21
228.7781707073206
 72
     1
 10
843.509633400879
 20
228.7781707073206
 11
844.2766334008792
 21
228.7781707073206
 72
     1
 10
844.2766334008794
 20
228.7781707073206
 11
844.2766334008794
 21
243.9341997895297
 72
     4
 94
        3
 73
     0
 74
     0
 95
       11
 96
        7
 40
0.0
 40
0.0
 40
0.0
 40
0.0
 40
1.505326117320977
 40
4.270679193939812
 40
7.18916947407072
 40
9.81545957471715
 40
9.81545957471715
 40
9.81545957471715
 40
9.81545957471715
 10
844.2766334008794
 20
243.9341997895296
 10
843.7709325300129
 20
244.0702251670363
 10
842.3362359797327
 20
244.4561353979702
 10
840.2172929199107
 20
241.9335191523634
 10
837.7390342618346
 20
245.1338387196324
 10
836.0680815984752
 20
243.7886065728012
 10
835.2766334008792
 20
243.1514361841341
 72
     1
 10
835.2766334008792
 20
243.1514361841341
 11
835.2766334008792
 21
219.7781707073205
 72
     2
 10
837.2766334008792
 20
219.7781707073204
 40
2.0
 50
180.0000000000032
 51
240.000000000001
 73
     0
 72
     1
 10
836.2766334008792
 20
221.5102215148895
 11
836.2766334008792
 21
225.5451707073203
 72
     1
 10
836.2766334008792
 20
225.5451707073202
 11
836.276633400879
 21
228.0111707073205
 72
     1
 10
836.276633400879
 20
228.0111707073206
 11
836.2766334008792
 21
228.7781707073206
 72
     1
 10
836.2766334008792
 20
228.7781707073206
 11
837.0436334008791
 21
228.7781707073206
 72
     1
 10
837.0436334008791
 20
228.7781707073206
 11
838.276633400879
 21
240.7781707073206
 97
        0
 92
       22
 72
     0
 73
     1
 93
        4
 10
836.2766334008792
 20
221.7781707073206
 10
836.9531334008794
 20
222.4546707073207
 10
836.9531334008794
 20
224.8686707073202
 10
836.2766334008792
 20
225.5451707073202
 97
        0
 92
       23
 72
     0
 73
     1
 93
        4
 10
843.6001334008793
 20
222.4546707073207
 10
844.2766334008792
 20
221.7781707073206
 10
844.2766334008792
 20
225.5451707073205
 10
843.6001334008789
 20
224.8686707073206
 97
        0
 75
     0
 76
     1
 52
0.0
 41
20.0
 77
     0
 78
     1
 53
45.0
 43
174.3445965990717
 44
-87.2018791150656
 45
-1.767766952966368
 46
1.767766952966368
 79
     0
 47
0.086973862025384
 98
        6
 10
801.6198697849377
 20
234.0191792732746
 10
803.4473374712273
 20
222.1907329936984
 10
794.2229796236738
 20
221.7558645143919
 10
837.3860140590027
 20
241.8468273197738
 10
836.5157915014915
 20
223.4953418580585
 10
843.9126816627554
 20
223.2344200851864
  0
SPLINE
  5
3FEB
330
2
100
AcDbEntity
  8
LINIE
 48
10.0
100
AcDbSpline
210
0.0
220
0.0
230
1.0
 70
     8
 71
     3
 72
    12
 73
     8
 74
     6
 42
0.0000000001
 43
0.0000000001
 44
0.0000000001
 40
0.0
 40
0.0
 40
0.0
 40
0.0
 40
4.585466138045345
 40
9.755749077659697
 40
13.66479227028057
 40
18.4123807478559
 40
20.51338574724711
 40
20.51338574724711
 40
20.51338574724711
 40
20.51338574724711
 10
789.2766334008793
 20
234.2801010461466
 30
0.0
 10
790.5557326640379
 20
235.3413339776428
 30
0.0
 10
793.2770637307448
 20
237.5991463528617
 30
0.0
 10
798.0512577023615
 20
234.9136685868502
 30
0.0
 10
802.4506909179903
 20
238.1455358259065
 30
0.0
 10
805.6183060640401
 20
235.2587840103785
 30
0.0
 10
807.6525652888323
 20
234.3101885019907
 30
0.0
 10
808.2766334008793
 20
234.0191792732746
 30
0.0
 11
789.2766334008793
 21
234.2801010461466
 31
0.0
 11
793.2657344948948
 21
236.5414219355573
 31
0.0
 11
798.4000472686948
 21
235.932605036596
 31
0.0
 11
802.1420020573787
 21
237.0632654813014
 31
0.0
 11
806.4060922736675
 21
234.9758912983252
 31
0.0
 11
808.2766334008793
 21
234.0191792732746
 31
0.0
  0
LINE
  5
3FEC
330
2
100
AcDbEntity
  8
MITTE
 48
15.0
100
AcDbLine
 10
798.7766334008792
 20
206.8083384629951
 30
0.0
 11
798.7766334008792
 21
240.1094630740672
 31
0.0
  0
LINE
  5
3FED
330
2
100
AcDbEntity
  8
LINIE
 48
10.0
100
AcDbLine
 10
793.9116334008795
 20
224.2781707073206
 30
0.0
 11
793.9116334008793
 21
208.8153493663892
 31
0.0
  0
LINE
  5
3FEE
330
2
100
AcDbEntity
  8
0
100
AcDbLine
 10
794.4916334008794
 20
228.2781707073206
 30
0.0
 11
794.4916334008794
 21
209.3953493663893
 31
0.0
1001
ACAD
1000
ASC_BOUNDS
1002
{
1070
    19
1002
}
  0
LINE
  5
3FEF
330
2
100
AcDbEntity
  8
LINIE
 48
10.0
100
AcDbLine
 10
803.6416334008793
 20
224.2781707073206
 30
0.0
 11
803.6416334008793
 21
208.8153493663892
 31
0.0
  0
LINE
  5
3FF0
330
2
100
AcDbEntity
  8
0
100
AcDbLine
 10
803.0616334008794
 20
228.2781707073206
 30
0.0
 11
803.0616334008794
 21
209.3953493663891
 31
0.0
1001
ACAD
1000
ASC_BOUNDS
1002
{
1070
    19
1002
}
  0
LINE
  5
3FF1
330
2
100
AcDbEntity
  8
0
100
AcDbLine
 10
803.6416334008793
 20
224.2781707073206
 30
0.0
 11
793.9116334008795
 21
224.2781707073206
 31
0.0
  0
LINE
  5
3FF2
330
2
100
AcDbEntity
  8
0
100
AcDbLine
 10
803.0616334008794
 20
228.2781707073206
 30
0.0
 11
794.4916334008794
 21
228.2781707073206
 31
0.0
  0
LINE
  5
3FF3
330
2
100
AcDbEntity
  8
0
100
AcDbLine
 10
803.0616334008794
 20
228.2781707073206
 30
0.0
 11
800.2766334008788
 21
229.886091207014
 31
0.0
1001
ACAD
1000
ASC_BOUNDS
1002
{
1070
    19
1002
}
  0
LINE
  5
3FF4
330
2
100
AcDbEntity
  8
0
100
AcDbLine
 10
794.4916334008794
 20
228.2781707073206
 30
0.0
 11
797.2766334008763
 21
229.8860912070117
 31
0.0
1001
ACAD
1000
ASC_BOUNDS
1002
{
1070
    19
1002
}
  0
LINE
  5
3FF5
330
2
100
AcDbEntity
  8
0
100
AcDbLine
 10
800.2766334008788
 20
229.886091207014
 30
0.0
 11
797.2766334008763
 21
229.8860912070117
 31
0.0
  0
LINE
  5
3FF6
330
2
100
AcDbEntity
  8
0
100
AcDbLine
 10
793.9116334008793
 20
208.8153493663892
 30
0.0
 11
794.4916334008794
 21
209.3953493663893
 31
0.0
1001
ACAD
1000
ASC_BOUNDS
1002
{
1070
    19
1002
}
  0
ARC
  5
3FF7
330
2
100
AcDbEntity
  8
0
100
AcDbCircle
 10
798.776633400879
 20
147.7409920482466
 30
0.0
 40
61.00000000000532
100
AcDbArc
 50
82.93756644623513
 51
97.06243355376486
  0
LINE
  5
3FF8
330
2
100
AcDbEntity
  8
0
100
AcDbLine
 10
806.2766334008793
 20
208.8153493663892
 30
0.0
 11
791.2766334008793
 21
208.8153493663892
 31
0.0
1001
ACAD
1000
ASC_BOUNDS
1002
{
1070
    19
1002
}
  0
LINE
  5
3FF9
330
2
100
AcDbEntity
  8
0
100
AcDbLine
 10
791.2766334008793
 20
208.8153493663892
 30
0.0
 11
791.2766334008793
 21
208.2781707073206
 31
0.0
1001
ACAD
1000
ASC_BOUNDS
1002
{
1070
    19
1002
}
  0
LINE
  5
3FFA
330
2
100
AcDbEntity
  8
0
100
AcDbLine
 10
806.2766334008793
 20
208.8153493663892
 30
0.0
 11
806.2766334008793
 21
208.2781707073206
 31
0.0
1001
ACAD
1000
ASC_BOUNDS
1002
{
1070
    19
1002
}
  0
LINE
  5
3FFB
330
2
100
AcDbEntity
  8
0
100
AcDbLine
 10
803.0616334008794
 20
209.3953493663893
 30
0.0
 11
794.4916334008792
 21
209.3953493663893
 31
0.0
  0
LINE
  5
3FFC
330
2
100
AcDbEntity
  8
0
100
AcDbLine
 10
803.6416334008793
 20
208.8153493663892
 30
0.0
 11
803.0616334008794
 21
209.3953493663893
 31
0.0
1001
ACAD
1000
ASC_BOUNDS
1002
{
1070
    19
1002
}
  0
ENDSEC
  0
SECTION
  2
OBJECTS
  0
DICTIONARY
  5
1B
330
0
100
AcDbDictionary
  3
ACAD_GROUP
350
19
  3
ACAD_LAYOUT
350
2A6
  3
ACAD_MLINESTYLE
350
1A
  3
ACAD_PLOTSETTINGS
350
2A7
  3
ACAD_PLOTSTYLENAME
350
2A4
  3
ACDBVARIABLEDICTIONARY
350
271
  3
ACMDICTIONARY
350
24F
  3
AMG
350
2B0
  3
AMGSNAPSETTINGS
350
31B
  3
DWGPROPS
350
45B6
  3
ACDBHEADERROUNDTRIPXREC
350
45E6
  0
DICTIONARY
  5
3
330
2
100
AcDbDictionary
280
     1
  3
ACAD_INDEX
360
45B8
  3
ACAD_LAYOUTSELFREF
360
4607
  0
DICTIONARY
  5
4608
330
8
100
AcDbDictionary
280
     1
  3
ACAD_LAYOUTSELFREF
360
4609
  0
DICTIONARY
  5
19
102
{ACAD_REACTORS
330
1B
102
}
330
1B
100
AcDbDictionary
  0
DICTIONARY
  5
2A6
102
{ACAD_REACTORS
330
1B
102
}
330
1B
100
AcDbDictionary
  0
DICTIONARY
  5
1A
102
{ACAD_REACTORS
330
1B
102
}
330
1B
100
AcDbDictionary
  3
STANDARD
350
1C
  0
DICTIONARY
  5
2A7
102
{ACAD_REACTORS
330
1B
102
}
330
1B
100
AcDbDictionary
  0
ACDBDICTIONARYWDFLT
  5
2A4
102
{ACAD_REACTORS
330
1B
102
}
330
1B
100
AcDbDictionary
281
     1
  3
Normal
350
2A5
100
AcDbDictionaryWithDefault
340
2A5
  0
DICTIONARY
  5
271
102
{ACAD_REACTORS
330
1B
102
}
330
1B
100
AcDbDictionary
  3
INDEXCTL
350
272
  0
DICTIONARY
  5
24F
102
{ACAD_REACTORS
330
1B
102
}
330
1B
100
AcDbDictionary
280
     1
  3
ACMSTDDICTIONARY
360
250
  0
DICTIONARY
  5
2B0
102
{ACAD_REACTORS
330
1B
102
}
330
1B
100
AcDbDictionary
  3
ACMGSETTINGS
350
2B1
  0
DICTIONARY
  5
31B
102
{ACAD_REACTORS
330
1B
102
}
330
1B
100
AcDbDictionary
  0
XRECORD
  5
45B6
102
{ACAD_REACTORS
330
1B
102
}
330
1B
100
AcDbXrecord
  1
DWGPROPS COOKIE
  2

  3

  4

  6

  7

  8

  9

300
AmdtFileType=84
301
=
302
=
303
=
304
=
305
=
306
=
307
=
308
=
309
=
 40
1.981079606481481
 41
2450848.795139884
 42
2452067.574085104
  1

 90
        1
  0
DICTIONARY
  5
45E6
102
{ACAD_REACTORS
330
1B
102
}
330
1B
100
AcDbDictionary
  3
TSTACKALIGN
350
45E7
  3
TSTACKSIZE
350
45E8
  3
HYPERLINKBASE
350
45E9
  3
STYLESHEET
350
45EA
  3
LAYOUTDICT
350
45EB
  3
PLOTSETDICT
350
45EC
  3
PLOTSTYLNAMDICT
350
45ED
  3
LWETCUNION
350
45EE
  3
INSUNITS
350
45EF
  3
CEPSNTYPE
350
45F0
  3
FINGERPRINTGUID
350
45F1
  3
VERSIONGUID
350
45F2
  3
PSVPSCALE
350
45F3
  3
DIMSTYLEDATA
350
45F4
  3
PUCSORTHOREF
350
45F5
  3
PUCSORTHOVIEW
350
45F6
  3
PUCSBASE
350
45F7
  3
PUCSORGTOP
350
45F8
  3
PUCSORGBOTTOM
350
45F9
  3
PUCSORGLEFT
350
45FA
  3
PUCSORGRIGHT
350
45FB
  3
PUCSORGFRONT
350
45FC
  3
PUCSORGBACK
350
45FD
  3
UCSORTHOREF
350
45FE
  3
UCSORTHOVIEW
350
45FF
  3
UCSBASE
350
4600
  3
UCSORGTOP
350
4601
  3
UCSORGBOTTOM
350
4602
  3
UCSORGLEFT
350
4603
  3
UCSORGRIGHT
350
4604
  3
UCSORGFRONT
350
4605
  3
UCSORGBACK
350
4606
  0
DICTIONARY
  5
45B8
102
{ACAD_REACTORS
330
3
102
}
330
3
100
AcDbDictionary
  3
*A1
350
45B9
  0
XRECORD
  5
4607
102
{ACAD_REACTORS
330
3
102
}
330
3
100
AcDbXrecord
340
2
  0
XRECORD
  5
4609
102
{ACAD_REACTORS
330
4608
102
}
330
4608
100
AcDbXrecord
340
8
  0
MLINESTYLE
  5
1C
102
{ACAD_REACTORS
330
1A
102
}
330
1A
100
AcDbMlineStyle
  2
STANDARD
 70
     0
  3

 62
     0
 51
90.0
 52
90.0
 71
     2
 49
0.5
 62
   256
  6
BYLAYER
 49
-0.5
 62
   256
  6
BYLAYER
  0
ACDBPLACEHOLDER
  5
2A5
102
{ACAD_REACTORS
330
2A4
102
}
330
2A4
100
AcDbPlaceHolder
280
     0
  0
DICTIONARYVAR
  5
272
102
{ACAD_REACTORS
330
271
102
}
330
271
100
DictionaryVariables
280
     0
  1
1
  0
DICTIONARY
  5
250
102
{ACAD_REACTORS
330
24F
102
}
330
24F
100
AcDbDictionary
  0
DICTIONARY
  5
2B1
102
{ACAD_REACTORS
330
2B0
102
}
330
2B0
100
AcDbDictionary
  3
DWGSETTINGS
350
2B2
  0
XRECORD
  5
45E7
102
{ACAD_REACTORS
330
45E6
102
}
330
45E6
100
AcDbXrecord
 90
        1
  0
XRECORD
  5
45E8
102
{ACAD_REACTORS
330
45E6
102
}
330
45E6
100
AcDbXrecord
 90
       70
  0
XRECORD
  5
45E9
102
{ACAD_REACTORS
330
45E6
102
}
330
45E6
100
AcDbXrecord
  1

  0
XRECORD
  5
45EA
102
{ACAD_REACTORS
330
45E6
102
}
330
45E6
100
AcDbXrecord
  1
Test.ctb
  0
XRECORD
  5
45EB
102
{ACAD_REACTORS
330
45E6
102
}
330
45E6
100
AcDbXrecord
340
2A6
  0
XRECORD
  5
45EC
102
{ACAD_REACTORS
330
45E6
102
}
330
45E6
100
AcDbXrecord
340
2A7
  0
XRECORD
  5
45ED
102
{ACAD_REACTORS
330
45E6
102
}
330
45E6
100
AcDbXrecord
340
2A4
  0
XRECORD
  5
45EE
102
{ACAD_REACTORS
330
45E6
102
}
330
45E6
100
AcDbXrecord
 90
    14877
  0
XRECORD
  5
45EF
102
{ACAD_REACTORS
330
45E6
102
}
330
45E6
100
AcDbXrecord
 90
        0
  0
XRECORD
  5
45F0
102
{ACAD_REACTORS
330
45E6
102
}
330
45E6
100
AcDbXrecord
 90
        0
  0
XRECORD
  5
45F1
102
{ACAD_REACTORS
330
45E6
102
}
330
45E6
100
AcDbXrecord
  1
{0A899A16-FCCB-11D4-B79C-0010B575C074}
  0
XRECORD
  5
45F2
102
{ACAD_REACTORS
330
45E6
102
}
330
45E6
100
AcDbXrecord
  1
{94DBA89A-5A6D-11D5-B7FB-0010B575C074}
  0
XRECORD
  5
45F3
102
{ACAD_REACTORS
330
45E6
102
}
330
45E6
100
AcDbXrecord
 40
0.0
  0
XRECORD
  5
45F4
102
{ACAD_REACTORS
330
45E6
102
}
330
45E6
100
AcDbXrecord
1000
DSTYLE
1002
{
1070
   289
 70
     0
1002
}
  0
XRECORD
  5
45F5
102
{ACAD_REACTORS
330
45E6
102
}
330
45E6
100
AcDbXrecord
340
0
  0
XRECORD
  5
45F6
102
{ACAD_REACTORS
330
45E6
102
}
330
45E6
100
AcDbXrecord
 70
     0
  0
XRECORD
  5
45F7
102
{ACAD_REACTORS
330
45E6
102
}
330
45E6
100
AcDbXrecord
340
0
  0
XRECORD
  5
45F8
102
{ACAD_REACTORS
330
45E6
102
}
330
45E6
100
AcDbXrecord
 10
0.0
 20
0.0
 30
0.0
  0
XRECORD
  5
45F9
102
{ACAD_REACTORS
330
45E6
102
}
330
45E6
100
AcDbXrecord
 10
0.0
 20
0.0
 30
0.0
  0
XRECORD
  5
45FA
102
{ACAD_REACTORS
330
45E6
102
}
330
45E6
100
AcDbXrecord
 10
0.0
 20
0.0
 30
0.0
  0
XRECORD
  5
45FB
102
{ACAD_REACTORS
330
45E6
102
}
330
45E6
100
AcDbXrecord
 10
0.0
 20
0.0
 30
0.0
  0
XRECORD
  5
45FC
102
{ACAD_REACTORS
330
45E6
102
}
330
45E6
100
AcDbXrecord
 10
0.0
 20
0.0
 30
0.0
  0
XRECORD
  5
45FD
102
{ACAD_REACTORS
330
45E6
102
}
330
45E6
100
AcDbXrecord
 10
0.0
 20
0.0
 30
0.0
  0
XRECORD
  5
45FE
102
{ACAD_REACTORS
330
45E6
102
}
330
45E6
100
AcDbXrecord
340
0
  0
XRECORD
  5
45FF
102
{ACAD_REACTORS
330
45E6
102
}
330
45E6
100
AcDbXrecord
 70
     0
  0
XRECORD
  5
4600
102
{ACAD_REACTORS
330
45E6
102
}
330
45E6
100
AcDbXrecord
340
0
  0
XRECORD
  5
4601
102
{ACAD_REACTORS
330
45E6
102
}
330
45E6
100
AcDbXrecord
 10
0.0
 20
0.0
 30
0.0
  0
XRECORD
  5
4602
102
{ACAD_REACTORS
330
45E6
102
}
330
45E6
100
AcDbXrecord
 10
0.0
 20
0.0
 30
0.0
  0
XRECORD
  5
4603
102
{ACAD_REACTORS
330
45E6
102
}
330
45E6
100
AcDbXrecord
 10
0.0
 20
0.0
 30
0.0
  0
XRECORD
  5
4604
102
{ACAD_REACTORS
330
45E6
102
}
330
45E6
100
AcDbXrecord
 10
0.0
 20
0.0
 30
0.0
  0
XRECORD
  5
4605
102
{ACAD_REACTORS
330
45E6
102
}
330
45E6
100
AcDbXrecord
 10
0.0
 20
0.0
 30
0.0
  0
XRECORD
  5
4606
102
{ACAD_REACTORS
330
45E6
102
}
330
45E6
100
AcDbXrecord
 10
0.0
 20
0.0
 30
0.0
  0
LAYER_INDEX
  5
45B9
102
{ACAD_REACTORS
330
45B8
102
}
330
45B8
100
AcDbIndex
 40
2452067.575721204
100
AcDbLayerIndex
  8
0
360
45BA
 90
      291
  8
BEM
360
45BB
 90
        3
  8
MITTE
360
45BC
 90
       19
  8
LINIE
360
45BD
 90
       43
  8
Defpoints
360
45BE
 90
        0
  8
SCHRAFF
360
45BF
 90
        2
  0
XRECORD
  5
2B2
102
{ACAD_REACTORS
330
2B1
102
}
330
2B1
100
AcDbXrecord
  1
VERSION
140
15.0
  1
PRODUCT
  2
AutoCAD Mechanical 2000
  0
IDBUFFER
  5
45BA
330
0
100
AcDbIdBuffer
330
1285
330
1286
330
1287
330
1288
330
1289
330
128A
330
128D
330
128E
330
128F
330
1290
330
1291
330
1294
330
1295
330
1296
330
1297
330
1298
330
1299
330
129A
330
129B
330
129D
330
129E
330
129F
330
12A0
330
12A1
330
12A2
330
12A3
330
12A4
330
12A5
330
12A7
330
12A8
330
12A9
330
12AB
330
12AD
330
3FD1
330
3FD9
330
3FE5
330
3FE9
330
3FEE
330
3FF0
330
3FF1
330
3FF2
330
3FF3
330
3FF4
330
3FF5
330
3FF6
330
3FF7
330
3FF8
330
3FF9
330
3FFA
330
3FFB
330
3FFC
330
114C
330
114D
330
114E
330
114F
330
1150
330
1151
330
1152
330
115A
330
115B
330
115C
330
115D
330
115E
330
115F
330
1160
330
1161
330
1162
330
1166
330
1167
330
1168
330
1169
330
116A
330
116B
330
116C
330
116D
330
116E
330
116F
330
1177
330
1178
330
1179
330
117A
330
117B
330
117C
330
117D
330
117E
330
117F
330
1180
330
1181
330
1182
330
1183
330
1184
330
1185
330
1186
330
1187
330
1188
330
1189
330
118A
330
118B
330
118C
330
118D
330
118E
330
118F
330
1190
330
1191
330
1192
330
1193
330
1196
330
119C
330
119D
330
119E
330
119F
330
11A0
330
11A1
330
11A2
330
11A4
330
11A5
330
11A6
330
11A7
330
11A8
330
11A9
330
11AA
330
11AB
330
11AC
330
11AD
330
11AF
330
11B0
330
11B1
330
11B2
330
11B3
330
11B4
330
11B5
330
11B6
330
11B7
330
11B8
330
11B9
330
11BA
330
11BB
330
11BC
330
11BD
330
11BE
330
11BF
330
11C0
330
11C1
330
11C2
330
11C3
330
11C9
330
11CA
330
11CC
330
11CD
330
11CE
330
11CF
330
11D0
330
11D1
330
11D2
330
11D4
330
11D5
330
11D6
330
11D8
330
11D9
330
11DA
330
11DC
330
11DD
330
11DE
330
11DF
330
11E0
330
11E1
330
11E2
330
11E3
330
11E4
330
11E5
330
11E6
330
11E7
330
11E8
330
11E9
330
11EA
330
11EB
330
11EC
330
11EE
330
11EF
330
11F0
330
11F1
330
11F2
330
11F3
330
11F4
330
11F5
330
11F6
330
11F8
330
11F9
330
11FA
330
11FB
330
11FC
330
11FD
330
11FE
330
11FF
330
1200
330
1201
330
1202
330
1203
330
1204
330
1205
330
1206
330
1207
330
1208
330
1209
330
120B
330
120C
330
120E
330
120F
330
1210
330
1211
330
1212
330
1213
330
1217
330
1218
330
1219
330
121A
330
121B
330
121C
330
121E
330
121F
330
1221
330
1222
330
1223
330
1224
330
1225
330
1226
330
1227
330
1228
330
1229
330
122A
330
122B
330
122C
330
122D
330
122E
330
122F
330
1230
330
1231
330
1232
330
1233
330
1234
330
1235
330
1236
330
1237
330
123A
330
123B
330
123D
330
1246
330
1247
330
1248
330
1249
330
124A
330
124B
330
124C
330
124D
330
124E
330
124F
330
1252
330
125C
330
125E
330
125F
330
1260
330
1261
330
1262
330
1264
330
1265
330
1266
330
1267
330
1268
330
1269
330
126A
330
126B
330
126C
330
126D
330
126E
330
126F
330
1270
330
1271
330
1273
330
1274
330
1277
330
1278
330
1279
330
127B
330
127C
330
127D
330
127F
330
1280
330
1281
330
1282
330
1283
330
1284
  0
IDBUFFER
  5
45BB
330
0
100
AcDbIdBuffer
330
1D2
330
1D5
330
1255
  0
IDBUFFER
  5
45BC
330
0
100
AcDbIdBuffer
330
12AA
330
12AC
330
3FEC
330
114B
330
1163
330
1164
330
1175
330
11A3
330
11AE
330
11C8
330
11F7
330
120D
330
121D
330
1244
330
1245
330
1272
330
127A
330
127E
330
128C
  0
IDBUFFER
  5
45BD
330
0
100
AcDbIdBuffer
330
3FCD
330
3FCE
330
3FCF
330
3FD0
330
3FD2
330
3FD3
330
3FD4
330
3FD5
330
3FD6
330
3FD7
330
3FD8
330
3FDA
330
3FDB
330
3FDC
330
3FDD
330
3FDE
330
3FDF
330
3FE0
330
3FE1
330
3FE2
330
3FE3
330
3FE4
330
3FE7
330
3FE8
330
3FEB
330
3FED
330
3FEF
330
1156
330
1157
330
1165
330
1176
330
11D7
330
11DB
330
11ED
330
120A
330
1220
330
1238
330
1239
330
125A
330
125B
330
125D
330
1263
330
3FCC
  0
IDBUFFER
  5
45BE
330
0
100
AcDbIdBuffer
  0
IDBUFFER
  5
45BF
330
0
100
AcDbIdBuffer
330
3FE6
330
3FEA
  0
ENDSEC
  0
EOF
