  0
SECTION
  2
HEADER
  9
$ACADVER
  1
AC1014
  9
$ACADMAINTVER
 70
     9
  9
$DWGCODEPAGE
  3
ANSI_1252
  9
$INSBASE
 10
0.0
 20
0.0
 30
0.0
  9
$EXTMIN
 10
182.4018303301663
 20
218.7469498938264
 30
-0.0000000100021362
  9
$EXTMAX
 10
1102.229841741048
 20
408.5815441428935
 30
0.0000000100021363
  9
$LIMMIN
 10
0.0
 20
0.0
  9
$LIMMAX
 10
1250.0
 20
600.0
  9
$ORTHOMODE
 70
     1
  9
$REGENMODE
 70
     1
  9
$FILLMODE
 70
     1
  9
$QTEXTMODE
 70
     0
  9
$MIRRTEXT
 70
     1
  9
$DRAGMODE
 70
     2
  9
$LTSCALE
 40
1.0
  9
$OSMODE
 70
   545
  9
$ATTMODE
 70
     1
  9
$TEXTSIZE
 40
10.0
  9
$TRACEWID
 40
1.0
  9
$TEXTSTYLE
  7
STANDARD
  9
$CLAYER
  8
0
  9
$CELTYPE
  6
BYLAYER
  9
$CECOLOR
 62
   256
  9
$CELTSCALE
 40
10.0
  9
$DELOBJ
 70
     1
  9
$DISPSILH
 70
     0
  9
$DIMSCALE
 40
0.0
  9
$DIMASZ
 40
7.0
  9
$DIMEXO
 40
0.0
  9
$DIMDLI
 40
7.0
  9
$DIMRND
 40
0.0
  9
$DIMDLE
 40
0.0
  9
$DIMEXE
 40
1.25
  9
$DIMTP
 40
0.0
  9
$DIMTM
 40
0.0
  9
$DIMTXT
 40
10.0
  9
$DIMCEN
 40
0.0
  9
$DIMTSZ
 40
0.0
  9
$DIMTOL
 70
     0
  9
$DIMLIM
 70
     0
  9
$DIMTIH
 70
     0
  9
$DIMTOH
 70
     0
  9
$DIMSE1
 70
     0
  9
$DIMSE2
 70
     0
  9
$DIMTAD
 70
     1
  9
$DIMZIN
 70
     8
  9
$DIMBLK
  1

  9
$DIMASO
 70
     1
  9
$DIMSHO
 70
     1
  9
$DIMPOST
  1

  9
$DIMAPOST
  1

  9
$DIMALT
 70
     0
  9
$DIMALTD
 70
     2
  9
$DIMALTF
 40
25.4
  9
$DIMLFAC
 40
1.0
  9
$DIMTOFL
 70
     1
  9
$DIMTVP
 40
0.0
  9
$DIMTIX
 70
     0
  9
$DIMSOXD
 70
     0
  9
$DIMSAH
 70
     0
  9
$DIMBLK1
  1

  9
$DIMBLK2
  1

  9
$DIMSTYLE
  2
ISO-25
  9
$DIMCLRD
 70
   256
  9
$DIMCLRE
 70
   256
  9
$DIMCLRT
 70
   256
  9
$DIMTFAC
 40
1.0
  9
$DIMGAP
 40
4.0
  9
$DIMJUST
 70
     0
  9
$DIMSD1
 70
     0
  9
$DIMSD2
 70
     0
  9
$DIMTOLJ
 70
     1
  9
$DIMTZIN
 70
     8
  9
$DIMALTZ
 70
     0
  9
$DIMALTTZ
 70
     0
  9
$DIMFIT
 70
     0
  9
$DIMUPT
 70
     1
  9
$DIMUNIT
 70
     2
  9
$DIMDEC
 70
     4
  9
$DIMTDEC
 70
     4
  9
$DIMALTU
 70
     2
  9
$DIMALTTD
 70
     2
  9
$DIMTXSTY
  7
STANDARD
  9
$DIMAUNIT
 70
     0
  9
$LUNITS
 70
     2
  9
$LUPREC
 70
     4
  9
$SKETCHINC
 40
1.0
  9
$FILLETRAD
 40
2.5
  9
$AUNITS
 70
     0
  9
$AUPREC
 70
     0
  9
$MENU
  1
.
  9
$ELEVATION
 40
0.0
  9
$PELEVATION
 40
0.0
  9
$THICKNESS
 40
0.0
  9
$LIMCHECK
 70
     0
  9
$BLIPMODE
 70
     0
  9
$CHAMFERA
 40
2.0
  9
$CHAMFERB
 40
2.0
  9
$CHAMFERC
 40
0.0
  9
$CHAMFERD
 40
0.0
  9
$SKPOLY
 70
     0
  9
$TDCREATE
 40
2450848.795139884
  9
$TDUPDATE
 40
2452067.624483680
  9
$TDINDWG
 40
1.7737712037
  9
$TDUSRTIMER
 40
1.7737712037
  9
$USRTIMER
 70
     1
  9
$ANGBASE
 50
0.0
  9
$ANGDIR
 70
     0
  9
$PDMODE
 70
     0
  9
$PDSIZE
 40
0.0
  9
$PLINEWID
 40
0.5
  9
$COORDS
 70
     0
  9
$SPLFRAME
 70
     0
  9
$SPLINETYPE
 70
     6
  9
$SPLINESEGS
 70
     8
  9
$ATTDIA
 70
     1
  9
$ATTREQ
 70
     1
  9
$HANDLING
 70
 12289
  9
$HANDSEED
  5
2C95
  9
$SURFTAB1
 70
     6
  9
$SURFTAB2
 70
     6
  9
$SURFTYPE
 70
     6
  9
$SURFU
 70
     6
  9
$SURFV
 70
     6
  9
$UCSNAME
  2

  9
$UCSORG
 10
0.0
 20
0.0
 30
0.0
  9
$UCSXDIR
 10
1.0
 20
0.0
 30
0.0
  9
$UCSYDIR
 10
0.0
 20
1.0
 30
0.0
  9
$PUCSNAME
  2

  9
$PUCSORG
 10
0.0
 20
0.0
 30
0.0
  9
$PUCSXDIR
 10
1.0
 20
0.0
 30
0.0
  9
$PUCSYDIR
 10
0.0
 20
1.0
 30
0.0
  9
$USERI1
 70
     0
  9
$USERI2
 70
     0
  9
$USERI3
 70
     0
  9
$USERI4
 70
     0
  9
$USERI5
 70
     0
  9
$USERR1
 40
0.0
  9
$USERR2
 40
0.0
  9
$USERR3
 40
0.0
  9
$USERR4
 40
0.0
  9
$USERR5
 40
0.0
  9
$WORLDVIEW
 70
     1
  9
$SHADEDGE
 70
     3
  9
$SHADEDIF
 70
    70
  9
$TILEMODE
 70
     1
  9
$MAXACTVP
 70
    16
  9
$PINSBASE
 10
0.0
 20
0.0
 30
0.0
  9
$PLIMCHECK
 70
     0
  9
$PEXTMIN
 10
1.000000000000000E+20
 20
1.000000000000000E+20
 30
1.000000000000000E+20
  9
$PEXTMAX
 10
-1.000000000000000E+20
 20
-1.000000000000000E+20
 30
-1.000000000000000E+20
  9
$PLIMMIN
 10
0.0
 20
0.0
  9
$PLIMMAX
 10
420.0
 20
297.0
  9
$UNITMODE
 70
     0
  9
$VISRETAIN
 70
     0
  9
$PLINEGEN
 70
     0
  9
$PSLTSCALE
 70
     0
  9
$TREEDEPTH
 70
  3020
  9
$PICKSTYLE
 70
     3
  9
$CMLSTYLE
  2
STANDARD
  9
$CMLJUST
 70
     0
  9
$CMLSCALE
 40
1.0
  9
$PROXYGRAPHICS
 70
     1
  9
$MEASUREMENT
 70
     0
  0
ENDSEC
  0
SECTION
  2
CLASSES
  0
CLASS
  1
IDBUFFER
  2
AcDbIdBuffer
  3
AutoCAD 2000
 90
        0
280
     0
281
     0
  0
CLASS
  1
LWPOLYLINE
  2
AcDbPolyline
  3
AutoCAD 2000
 90
        0
280
     0
281
     1
  0
CLASS
  1
DICTIONARYVAR
  2
AcDbDictionaryVar
  3
AutoCAD 2000
 90
        0
280
     0
281
     0
  0
CLASS
  1
HATCH
  2
AcDbHatch
  3
AutoCAD 2000
 90
        0
280
     0
281
     1
  0
CLASS
  1
ACMESTATEMGR
  2
AcMeStateMgr
  3
AcMeServices
 90
        0
280
     0
281
     0
  0
CLASS
  1
ACMESCOPE
  2
AcMeScope
  3
AcMeServices
 90
        0
280
     0
281
     0
  0
CLASS
  1
ACMECOMMANDHISTORY
  2
AcMeCommandHistory
  3
AcMeServices
 90
        0
280
     0
281
     0
  0
CLASS
  1
ACRFINSADJUSTERMGR
  2
AcRfInsAdjusterMgr
  3
AcMeServices
 90
        0
280
     0
281
     0
  0
CLASS
  1
ACMEDRAWINGMAN
  2
AcMeDrawingMan
  3
AcMeServices
 90
        0
280
     0
281
     0
  0
CLASS
  1
AMATTR
  2
AcMeAttribute
  3
AcMeServices
 90
        0
280
     0
281
     0
  0
CLASS
  1
ACMEBOMCOLUMN
  2
AcMeBOMColumn
  3
AcMeServices
 90
        0
280
     0
281
     0
  0
CLASS
  1
ACANBOMCONF
  2
AcMeBOMConf
  3
AcMeServices
 90
        0
280
     0
281
     0
  0
CLASS
  1
ACMEBOMTABLE
  2
AcMeBOMTable
  3
AcMeServices
 90
        0
280
     0
281
     0
  0
CLASS
  1
ACMEBOMENTRY
  2
AcMeBOMEntry
  3
AcMeServices
 90
        0
280
     0
281
     0
  0
CLASS
  1
ACMEVIEW
  2
AcMeView
  3
AcMeServices
 90
        0
280
     0
281
     0
  0
CLASS
  1
LAYER_INDEX
  2
AcDbLayerIndex
  3
AutoCAD 2000
 90
        0
280
     0
281
     0
  0
CLASS
  1
ACIMSYSVARMAN
  2
AcImSysVarManager
  3
AcMeServices
 90
        0
280
     0
281
     0
  0
CLASS
  1
ACIMINTSYSVAR
  2
AcImIntSysVar
  3
AcMeServices
 90
        0
280
     0
281
     0
  0
CLASS
  1
ACIMSTRSYSVAR
  2
AcImStrSysVar
  3
AcMeServices
 90
        0
280
     0
281
     0
  0
CLASS
  1
ACMSTANDARDJIS
  2
AcmStandardJIS
  3
"AcmSymBB|Product Description: AutoCAD Mechanical 2000|Company: Autodesk"
 90
        0
280
     0
281
     0
  0
CLASS
  1
ACMSTANDARDANSI
  2
AcmStandardANSI
  3
"AcmSymBB|Product Description: AutoCAD Mechanical 2000|Company: Autodesk"
 90
        0
280
     0
281
     0
  0
CLASS
  1
ACMSTANDARDBSI
  2
AcmStandardBSI
  3
"AcmSymBB|Product Description: AutoCAD Mechanical 2000|Company: Autodesk"
 90
        0
280
     0
281
     0
  0
CLASS
  1
ACMSTANDARDDIN
  2
AcmStandardDIN
  3
"AcmSymBB|Product Description: AutoCAD Mechanical 2000|Company: Autodesk"
 90
        0
280
     0
281
     0
  0
CLASS
  1
ACMSTANDARDISO
  2
AcmStandardISO
  3
"AcmSymBB|Product Description: AutoCAD Mechanical 2000|Company: Autodesk"
 90
        0
280
     0
281
     0
  0
CLASS
  1
ACDBDICTIONARYWDFLT
  2
AcDbDictionaryWithDefault
  3
AutoCAD 2000
 90
        0
280
     0
281
     0
  0
CLASS
  1
ACDBPLACEHOLDER
  2
AcDbPlaceHolder
  3
AutoCAD 2000
 90
        0
280
     0
281
     0
  0
CLASS
  1
LAYOUT
  2
AcDbLayout
  3
AutoCAD 2000
 90
        0
280
     0
281
     0
  0
CLASS
  1
ACME_DOCUMENT
  2
AcMeDbDoc
  3
AcMeServices
 90
        0
280
     0
281
     0
  0
CLASS
  1
AMGSETTINGSOBJ
  2
AmgSettingsObj
  3
"AcadM|Product Description: AutoCAD Mechanical 2000|Company: Autodesk"
 90
        0
280
     0
281
     0
  0
CLASS
  1
ACIMREALSYSVAR
  2
AcImRealSysVar
  3
AcMeServices
 90
        0
280
     0
281
     0
  0
CLASS
  1
ACDBENTITYCACHE
  2
AcMeEntityCache
  3
AcMeServices
 90
        0
280
     0
281
     0
  0
CLASS
  1
GSMANAGER
  2
AcMeGSManager
  3
AcMeServices
 90
        0
280
     0
281
     0
  0
CLASS
  1
AmdtInternalReactor
  2
AmdtInternalReactor
  3
AcMeServices
 90
        0
280
     0
281
     0
  0
CLASS
  1
ACME_DATABASE
  2
AcMeDbDatabase
  3
AcMeServices
 90
        0
280
     0
281
     0
  0
CLASS
  1
ACMDATADICTIONARY
  2
AcmDataDictionary
  3
"AcmSymBB|Product Description: AutoCAD Mechanical 2000|Company: Autodesk"
 90
        0
280
     0
281
     0
  0
CLASS
  1
ACMDATAENTRYBLOCK
  2
AcmDataEntryBlock
  3
"AcmSymBB|Product Description: AutoCAD Mechanical 2000|Company: Autodesk"
 90
        0
280
     0
281
     0
  0
CLASS
  1
ACMSURFSTANDARDJIS
  2
AcmSurfTextStdJIS
  3
"AcmSymBB|Product Description: AutoCAD Mechanical 2000|Company: Autodesk"
 90
        0
280
     0
281
     0
  0
CLASS
  1
ACMFCFSTANDARDJIS
  2
AcmFCFStdJIS
  3
"AcmSymBB|Product Description: AutoCAD Mechanical 2000|Company: Autodesk"
 90
        0
280
     0
281
     0
  0
CLASS
  1
ACMWELDSTANDARDJIS
  2
AcmWeldingStdJIS
  3
"AcmSymBB|Product Description: AutoCAD Mechanical 2000|Company: Autodesk"
 90
        0
280
     0
281
     0
  0
CLASS
  1
ACMIDSTANDARDJIS
  2
AcmIdStdJIS
  3
"AcmSymBB|Product Description: AutoCAD Mechanical 2000|Company: Autodesk"
 90
        0
280
     0
281
     0
  0
CLASS
  1
ACMDATUMSTANDARDJIS
  2
AcmDatumStdJIS
  3
"AcmSymBB|Product Description: AutoCAD Mechanical 2000|Company: Autodesk"
 90
        0
280
     0
281
     0
  0
CLASS
  1
ACMBOMSTANDARDJIS
  2
AcmBOMStdJIS
  3
"AcmSymBB|Product Description: AutoCAD Mechanical 2000|Company: Autodesk"
 90
        0
280
     0
281
     0
  0
CLASS
  1
AMGOBJPROPCFG
  2
AmgObjPropCfg
  3
"AmgLay|Product Description: AutoCAD Mechanical 2000|Company: Autodesk"
 90
        1
280
     0
281
     0
  0
CLASS
  1
ACMSURFSTANDARDANSI
  2
AcmSurfTextStdANSI
  3
"AcmSymBB|Product Description: AutoCAD Mechanical 2000|Company: Autodesk"
 90
        0
280
     0
281
     0
  0
CLASS
  1
ACMFCFSTANDARDANSI
  2
AcmFCFStdANSI
  3
"AcmSymBB|Product Description: AutoCAD Mechanical 2000|Company: Autodesk"
 90
        0
280
     0
281
     0
  0
CLASS
  1
ACMWELDSTANDARDANSI
  2
AcmWeldingStdANSI
  3
"AcmSymBB|Product Description: AutoCAD Mechanical 2000|Company: Autodesk"
 90
        0
280
     0
281
     0
  0
CLASS
  1
ACMIDSTANDARDANSI
  2
AcmIdStdANSI
  3
"AcmSymBB|Product Description: AutoCAD Mechanical 2000|Company: Autodesk"
 90
        0
280
     0
281
     0
  0
CLASS
  1
ACMDATUMSTANDARDANSI
  2
AcmDatumStdANSI
  3
"AcmSymBB|Product Description: AutoCAD Mechanical 2000|Company: Autodesk"
 90
        0
280
     0
281
     0
  0
CLASS
  1
ACMBOMSTANDARDANSI
  2
AcmBOMStdANSI
  3
"AcmSymBB|Product Description: AutoCAD Mechanical 2000|Company: Autodesk"
 90
        0
280
     0
281
     0
  0
CLASS
  1
ACMSURFSTANDARDBSI
  2
AcmSurfTextStdBSI
  3
"AcmSymBB|Product Description: AutoCAD Mechanical 2000|Company: Autodesk"
 90
        0
280
     0
281
     0
  0
CLASS
  1
ACMFCFSTANDARDBSI
  2
AcmFCFStdBSI
  3
"AcmSymBB|Product Description: AutoCAD Mechanical 2000|Company: Autodesk"
 90
        0
280
     0
281
     0
  0
CLASS
  1
ACMWELDSTANDARDBSI
  2
AcmWeldingStdBSI
  3
"AcmSymBB|Product Description: AutoCAD Mechanical 2000|Company: Autodesk"
 90
        0
280
     0
281
     0
  0
CLASS
  1
ACMIDSTANDARDBSI
  2
AcmIdStdBSI
  3
"AcmSymBB|Product Description: AutoCAD Mechanical 2000|Company: Autodesk"
 90
        0
280
     0
281
     0
  0
CLASS
  1
ACMDATUMSTANDARDBSI
  2
AcmDatumStdBSI
  3
"AcmSymBB|Product Description: AutoCAD Mechanical 2000|Company: Autodesk"
 90
        0
280
     0
281
     0
  0
CLASS
  1
ACMBOMSTANDARDBSI
  2
AcmBOMStdBSI
  3
"AcmSymBB|Product Description: AutoCAD Mechanical 2000|Company: Autodesk"
 90
        0
280
     0
281
     0
  0
CLASS
  1
AMDTEDGESTANDARDDIN
  2
AmdtEdgeStdDIN
  3
"AcmSymBB|Product Description: AutoCAD Mechanical 2000|Company: Autodesk"
 90
        0
280
     0
281
     0
  0
CLASS
  1
ACMSURFSTANDARDDIN
  2
AcmSurfTextStdDIN
  3
"AcmSymBB|Product Description: AutoCAD Mechanical 2000|Company: Autodesk"
 90
        0
280
     0
281
     0
  0
CLASS
  1
ACMFCFSTANDARDDIN
  2
AcmFCFStdDIN
  3
"AcmSymBB|Product Description: AutoCAD Mechanical 2000|Company: Autodesk"
 90
        0
280
     0
281
     0
  0
CLASS
  1
ACMWELDSTANDARDDIN
  2
AcmWeldingStdDIN
  3
"AcmSymBB|Product Description: AutoCAD Mechanical 2000|Company: Autodesk"
 90
        0
280
     0
281
     0
  0
CLASS
  1
ACMIDSTANDARDDIN
  2
AcmIdStdDIN
  3
"AcmSymBB|Product Description: AutoCAD Mechanical 2000|Company: Autodesk"
 90
        0
280
     0
281
     0
  0
CLASS
  1
ACMDATUMSTANDARDDIN
  2
AcmDatumStdDIN
  3
"AcmSymBB|Product Description: AutoCAD Mechanical 2000|Company: Autodesk"
 90
        0
280
     0
281
     0
  0
CLASS
  1
ACMBOMSTANDARDDIN
  2
AcmBOMStdDIN
  3
"AcmSymBB|Product Description: AutoCAD Mechanical 2000|Company: Autodesk"
 90
        0
280
     0
281
     0
  0
CLASS
  1
AMDTEDGESTANDARDISO
  2
AmdtEdgeStdISO
  3
"AcmSymBB|Product Description: AutoCAD Mechanical 2000|Company: Autodesk"
 90
        0
280
     0
281
     0
  0
CLASS
  1
ACMSURFSTANDARDISO
  2
AcmSurfTextStdISO
  3
"AcmSymBB|Product Description: AutoCAD Mechanical 2000|Company: Autodesk"
 90
        0
280
     0
281
     0
  0
CLASS
  1
ACMFCFSTANDARDISO
  2
AcmFCFStdISO
  3
"AcmSymBB|Product Description: AutoCAD Mechanical 2000|Company: Autodesk"
 90
        0
280
     0
281
     0
  0
CLASS
  1
ACMWELDSTANDARDISO
  2
AcmWeldingStdISO
  3
"AcmSymBB|Product Description: AutoCAD Mechanical 2000|Company: Autodesk"
 90
        0
280
     0
281
     0
  0
CLASS
  1
ACMIDSTANDARDISO
  2
AcmIdStdISO
  3
"AcmSymBB|Product Description: AutoCAD Mechanical 2000|Company: Autodesk"
 90
        0
280
     0
281
     0
  0
CLASS
  1
ACMDATUMSTANDARDISO
  2
AcmDatumStdISO
  3
"AcmSymBB|Product Description: AutoCAD Mechanical 2000|Company: Autodesk"
 90
        0
280
     0
281
     0
  0
CLASS
  1
ACMBOMSTANDARDISO
  2
AcmBOMStdISO
  3
"AcmSymBB|Product Description: AutoCAD Mechanical 2000|Company: Autodesk"
 90
        0
280
     0
281
     0
  0
CLASS
  1
ACAMGFILTERDAT
  2
AcAmgFilterDat
  3
"AcadM|Product Description: AutoCAD Mechanical 2000|Company: Autodesk"
 90
        0
280
     0
281
     0
  0
CLASS
  1
ACMDIMBREAKPERSREACTOR
  2
AcmDimBreakPersReactor
  3
AutoCadMServices
 90
     1023
280
     0
281
     0
  0
CLASS
  1
LONG_TRANSACTION
  2
AcDbLongTransaction
  3
AutoCAD 2000
 90
        0
280
     0
281
     0
  0
CLASS
  1
LWPOLYLINE
  2
AcDbPolyline
  3
AutoCAD 2000
 90
        0
280
     0
281
     1
  0
CLASS
  1
HATCH
  2
AcDbHatch
  3
AutoCAD 2000
 90
        0
280
     0
281
     1
  0
CLASS
  1
XRECORD
  2
AcDbXrecord
  3
AutoCAD 2000
 90
        0
280
     0
281
     0
  0
ENDSEC
  0
SECTION
  2
TABLES
  0
TABLE
  2
VPORT
  5
12
330
0
100
AcDbSymbolTable
 70
     7
  0
VPORT
  5
2C70
330
12
100
AcDbSymbolTableRecord
100
AcDbViewportTableRecord
  2
*ACTIVE
 70
     0
 10
0.0
 20
0.0
 11
1.0
 21
1.0
 12
649.5347629922312
 22
302.842779166911
 13
0.0
 23
0.0
 14
10.0
 24
10.0
 15
50.0
 25
50.0
 16
0.0
 26
0.0
 36
1.0
 17
0.0
 27
0.0
 37
0.0
 40
512.3650207542347
 41
1.981912144702842
 42
50.0
 43
0.0
 44
0.0
 50
0.0
 51
0.0
 71
     0
 72
   100
 73
     1
 74
     0
 75
     0
 76
     0
 77
     0
 78
     0
  0
ENDTAB
  0
TABLE
  2
LTYPE
  5
D
330
0
100
AcDbSymbolTable
 70
    19
  0
LTYPE
  5
E
330
D
100
AcDbSymbolTableRecord
100
AcDbLinetypeTableRecord
  2
BYBLOCK
 70
     0
  3

 72
    65
 73
     0
 40
0.0
  0
LTYPE
  5
F
330
D
100
AcDbSymbolTableRecord
100
AcDbLinetypeTableRecord
  2
BYLAYER
 70
     0
  3

 72
    65
 73
     0
 40
0.0
  0
LTYPE
  5
5
330
D
100
AcDbSymbolTableRecord
100
AcDbLinetypeTableRecord
  2
CONTINUOUS
 70
     0
  3
Solid line
 72
    65
 73
     0
 40
0.0
  0
LTYPE
  5
4B
330
D
100
AcDbSymbolTableRecord
100
AcDbLinetypeTableRecord
  2
MITTE
 70
     0
  3
____ _ ____ _ ____ _ ____ _ ____ _ ____ _ ____ 
 72
    65
 73
     4
 40
2.0
 49
1.25
 74
     0
 49
-0.25
 74
     0
 49
0.25
 74
     0
 49
-0.25
 74
     0
  0
LTYPE
  5
8A
330
D
100
AcDbSymbolTableRecord
100
AcDbLinetypeTableRecord
  2
STRICHLINIE
 70
     0
  3
Strichlinie __ __ __ __ __ __ __ __ __ __ __ __
 72
    65
 73
     2
 40
0.75
 49
0.5
 74
     0
 49
-0.25
 74
     0
  0
LTYPE
  5
293
330
D
100
AcDbSymbolTableRecord
100
AcDbLinetypeTableRecord
  2
ACJISTGB
 70
     0
  3
__ . . __ . .
 72
    65
 73
     6
 40
9.0
 49
4.0
 74
     0
 49
-1.0
 74
     0
 49
1.0
 74
     0
 49
-1.0
 74
     0
 49
1.0
 74
     0
 49
-1.0
 74
     0
  0
LTYPE
  5
294
330
D
100
AcDbSymbolTableRecord
100
AcDbLinetypeTableRecord
  2
ACJISTGL
 70
     0
  3
_ _ _ _ _
 72
    65
 73
     2
 40
3.0
 49
2.0
 74
     0
 49
-1.0
 74
     0
  0
LTYPE
  5
297
330
D
100
AcDbSymbolTableRecord
100
AcDbLinetypeTableRecord
  2
ACANSTGB
 70
     0
  3
__ . . __ . .
 72
    65
 73
     6
 40
0.35433070866
 49
0.15748031496
 74
     0
 49
-0.03937007874
 74
     0
 49
0.03937007874
 74
     0
 49
-0.03937007874
 74
     0
 49
0.03937007874
 74
     0
 49
-0.03937007874
 74
     0
  0
LTYPE
  5
298
330
D
100
AcDbSymbolTableRecord
100
AcDbLinetypeTableRecord
  2
ACANSTGL
 70
     0
  3
_ _ _ _ _
 72
    65
 73
     2
 40
0.11811023622
 49
0.07874015748
 74
     0
 49
-0.03937007874
 74
     0
  0
LTYPE
  5
29B
330
D
100
AcDbSymbolTableRecord
100
AcDbLinetypeTableRecord
  2
ACBSIWELD
 70
     0
  3
_ _ _ _ _
 72
    65
 73
     2
 40
2.0
 49
2.0
 74
     0
 49
-1.0
 74
     0
  0
LTYPE
  5
29C
330
D
100
AcDbSymbolTableRecord
100
AcDbLinetypeTableRecord
  2
ACBSITGB
 70
     0
  3
__ . . __ . .
 72
    65
 73
     6
 40
9.0
 49
4.0
 74
     0
 49
-1.0
 74
     0
 49
1.0
 74
     0
 49
-1.0
 74
     0
 49
1.0
 74
     0
 49
-1.0
 74
     0
  0
LTYPE
  5
29D
330
D
100
AcDbSymbolTableRecord
100
AcDbLinetypeTableRecord
  2
ACBSITGL
 70
     0
  3
_ _ _ _ _
 72
    65
 73
     2
 40
3.0
 49
2.0
 74
     0
 49
-1.0
 74
     0
  0
LTYPE
  5
2A0
330
D
100
AcDbSymbolTableRecord
100
AcDbLinetypeTableRecord
  2
ACDINWELD
 70
     0
  3
_ _ _ _ _
 72
    65
 73
     2
 40
2.0
 49
2.0
 74
     0
 49
-1.0
 74
     0
  0
LTYPE
  5
2A1
330
D
100
AcDbSymbolTableRecord
100
AcDbLinetypeTableRecord
  2
ACDINTGB
 70
     0
  3
__ . . __ . .
 72
    65
 73
     6
 40
9.0
 49
4.0
 74
     0
 49
-1.0
 74
     0
 49
1.0
 74
     0
 49
-1.0
 74
     0
 49
1.0
 74
     0
 49
-1.0
 74
     0
  0
LTYPE
  5
2A2
330
D
100
AcDbSymbolTableRecord
100
AcDbLinetypeTableRecord
  2
ACDINTGL
 70
     0
  3
_ _ _ _ _
 72
    65
 73
     2
 40
3.0
 49
2.0
 74
     0
 49
-1.0
 74
     0
  0
LTYPE
  5
2A5
330
D
100
AcDbSymbolTableRecord
100
AcDbLinetypeTableRecord
  2
ACISOWELD
 70
     0
  3
_ _ _ _ _
 72
    65
 73
     2
 40
2.0
 49
2.0
 74
     0
 49
-1.0
 74
     0
  0
LTYPE
  5
2A6
330
D
100
AcDbSymbolTableRecord
100
AcDbLinetypeTableRecord
  2
ACISOTGB
 70
     0
  3
__ . . __ . .
 72
    65
 73
     6
 40
9.0
 49
4.0
 74
     0
 49
-1.0
 74
     0
 49
1.0
 74
     0
 49
-1.0
 74
     0
 49
1.0
 74
     0
 49
-1.0
 74
     0
  0
LTYPE
  5
2A7
330
D
100
AcDbSymbolTableRecord
100
AcDbLinetypeTableRecord
  2
ACISOTGL
 70
     0
  3
_ _ _ _ _
 72
    65
 73
     2
 40
3.0
 49
2.0
 74
     0
 49
-1.0
 74
     0
  0
LTYPE
  5
301
330
D
100
AcDbSymbolTableRecord
100
AcDbLinetypeTableRecord
  2
AMCONSTR
 70
     0
  3
_______________________
 72
    65
 73
     2
 40
9999.0
 49
9999.0
 74
     0
 49
0.0
 74
     0
  0
LTYPE
  5
307
330
D
100
AcDbSymbolTableRecord
100
AcDbLinetypeTableRecord
  2
PHANTOM2
 70
     0
  3
Phantom (.5x) ___ _ _ ___ _ _ ___ _ _ ___ _ _
 72
    65
 73
     6
 40
1.25
 49
0.625
 74
     0
 49
-0.125
 74
     0
 49
0.125
 74
     0
 49
-0.125
 74
     0
 49
0.125
 74
     0
 49
-0.125
 74
     0
  0
LTYPE
  5
308
330
D
100
AcDbSymbolTableRecord
100
AcDbLinetypeTableRecord
  2
AMZIGZAG2
 70
     0
  3
/\/-/\/-/\/-/\/-/\/-/\/
 72
    65
 73
     2
 40
0.4401
 49
0.0001
 74
     4
 75
   135
340
305
 46
0.0016
 50
0.0
 44
0.0
 45
0.0
 49
-0.4400000000000001
 74
     0
  0
ENDTAB
  0
TABLE
  2
LAYER
  5
A
330
0
100
AcDbSymbolTable
 70
     6
  0
LAYER
  5
4
330
A
100
AcDbSymbolTableRecord
100
AcDbLayerTableRecord
  2
0
 70
     0
 62
     7
  6
CONTINUOUS
  0
LAYER
  5
21
330
A
100
AcDbSymbolTableRecord
100
AcDbLayerTableRecord
  2
BEM
 70
     0
 62
     1
  6
CONTINUOUS
  0
LAYER
  5
4A
330
A
100
AcDbSymbolTableRecord
100
AcDbLayerTableRecord
  2
MITTE
 70
     0
 62
     6
  6
MITTE
  0
LAYER
  5
87
330
A
100
AcDbSymbolTableRecord
100
AcDbLayerTableRecord
  2
LINIE
 70
     0
 62
     6
  6
CONTINUOUS
  0
LAYER
  5
28D7
330
A
100
AcDbSymbolTableRecord
100
AcDbLayerTableRecord
  2
SCHRAFF
 70
     0
 62
    62
  6
CONTINUOUS
  0
ENDTAB
  0
TABLE
  2
STYLE
  5
B
330
0
100
AcDbSymbolTable
 70
    12
  0
STYLE
  5
C
330
B
100
AcDbSymbolTableRecord
100
AcDbTextStyleTableRecord
  2
STANDARD
 70
     0
 40
0.0
 41
1.0
 50
0.0
 71
     0
 42
10.0
  3
romans.shx
  4

  0
STYLE
  5
291
330
B
100
AcDbSymbolTableRecord
100
AcDbTextStyleTableRecord
  2
ACJISTS
 70
     0
 40
1.0
 41
1.0
 50
0.0
 71
     0
 42
10.0
  3
isocp.shx
  4
bigfont.shx
  0
STYLE
  5
292
330
B
100
AcDbSymbolTableRecord
100
AcDbTextStyleTableRecord
  2
ACJISGDT
 70
     0
 40
0.0
 41
1.0
 50
0.0
 71
     0
 42
10.0
  3
amgdt.shx
  4

  0
STYLE
  5
295
330
B
100
AcDbSymbolTableRecord
100
AcDbTextStyleTableRecord
  2
ACANSTSB
 70
     0
 40
1.0
 41
1.0
 50
0.0
 71
     0
 42
10.0
  3
romans.shx
  4

  0
STYLE
  5
296
330
B
100
AcDbSymbolTableRecord
100
AcDbTextStyleTableRecord
  2
ACANSGDT
 70
     0
 40
0.0
 41
1.0
 50
0.0
 71
     0
 42
10.0
  3
amgdt.shx
  4

  0
STYLE
  5
299
330
B
100
AcDbSymbolTableRecord
100
AcDbTextStyleTableRecord
  2
ACBSITS
 70
     0
 40
1.0
 41
1.0
 50
0.0
 71
     0
 42
10.0
  3
isocp.shx
  4

  0
STYLE
  5
29A
330
B
100
AcDbSymbolTableRecord
100
AcDbTextStyleTableRecord
  2
ACBSIGDT
 70
     0
 40
0.0
 41
1.0
 50
0.0
 71
     0
 42
10.0
  3
amgdt.shx
  4

  0
STYLE
  5
29E
330
B
100
AcDbSymbolTableRecord
100
AcDbTextStyleTableRecord
  2
ACDINTS
 70
     0
 40
1.0
 41
1.0
 50
0.0
 71
     0
 42
10.0
  3
isocp.shx
  4

  0
STYLE
  5
29F
330
B
100
AcDbSymbolTableRecord
100
AcDbTextStyleTableRecord
  2
ACDINGDT
 70
     0
 40
0.0
 41
1.0
 50
0.0
 71
     0
 42
10.0
  3
amgdt.shx
  4

  0
STYLE
  5
2A3
330
B
100
AcDbSymbolTableRecord
100
AcDbTextStyleTableRecord
  2
ACISOTS
 70
     0
 40
1.0
 41
1.0
 50
0.0
 71
     0
 42
10.0
  3
isocp.shx
  4

  0
STYLE
  5
2A4
330
B
100
AcDbSymbolTableRecord
100
AcDbTextStyleTableRecord
  2
ACISOGDT
 70
     0
 40
0.0
 41
1.0
 50
0.0
 71
     0
 42
10.0
  3
amgdt.shx
  4

  0
STYLE
  5
305
330
B
100
AcDbSymbolTableRecord
100
AcDbTextStyleTableRecord
  2

 70
     1
 40
0.0
 41
1.0
 50
0.0
 71
     0
 42
10.0
  3
ltypeshp.shx
  4

  0
ENDTAB
  0
TABLE
  2
VIEW
  5
10
330
0
100
AcDbSymbolTable
 70
     0
  0
ENDTAB
  0
TABLE
  2
UCS
  5
11
330
0
100
AcDbSymbolTable
 70
     0
  0
ENDTAB
  0
TABLE
  2
APPID
  5
14
330
0
100
AcDbSymbolTable
 70
     3
  0
APPID
  5
15
330
14
100
AcDbSymbolTableRecord
100
AcDbRegAppTableRecord
  2
ACAD
 70
     0
  0
APPID
  5
251
330
14
100
AcDbSymbolTableRecord
100
AcDbRegAppTableRecord
  2
MCAD_NO_VIS
 70
     0
  0
APPID
  5
2E5
330
14
100
AcDbSymbolTableRecord
100
AcDbRegAppTableRecord
  2
ACAD_TEMP_GRAPHIC
 70
     0
  0
ENDTAB
  0
TABLE
  2
DIMSTYLE
  5
16
330
0
100
AcDbSymbolTable
 70
     2
  0
DIMSTYLE
105
1C
102
{ACAD_REACTORS
330
C17
330
C21
330
C18
330
C98
330
C97
330
C42
330
C41
330
C64
330
C99
330
C38
330
CE0
330
CDF
330
D1D
330
D1A
330
D19
330
D18
330
D17
330
D16
330
D15
330
D14
330
2B28
330
D24
330
D5F
330
D67
330
D71
330
D69
102
}
330
16
100
AcDbSymbolTableRecord
100
AcDbDimStyleTableRecord
  2
ISO-25
 70
     0
  3

  4

  5

  6

  7

 40
0.0
 41
7.0
 42
0.0
 43
7.0
 44
1.25
 45
0.0
 46
0.0
 47
0.0
 48
0.0
140
10.0
141
0.0
142
0.0
143
25.4
144
1.0
145
0.0
146
1.0
147
4.0
 71
     0
 72
     0
 73
     0
 74
     0
 75
     0
 76
     0
 77
     1
 78
     8
170
     0
171
     2
172
     1
173
     0
174
     0
175
     0
176
   256
177
   256
178
   256
270
     2
271
     4
272
     4
273
     2
274
     2
340
C
275
     0
280
     0
281
     0
282
     0
283
     1
284
     8
285
     0
286
     0
287
     0
288
     1
  0
ENDTAB
  0
TABLE
  2
BLOCK_RECORD
  5
1
330
0
100
AcDbSymbolTable
 70
    27
  0
BLOCK_RECORD
  5
2
102
{ACAD_XDICTIONARY
360
270
102
}
330
1
100
AcDbSymbolTableRecord
100
AcDbBlockTableRecord
  2
*MODEL_SPACE
  0
BLOCK_RECORD
  5
7
102
{ACAD_XDICTIONARY
360
2C93
102
}
330
1
100
AcDbSymbolTableRecord
100
AcDbBlockTableRecord
  2
*PAPER_SPACE
  0
BLOCK_RECORD
  5
2696
330
1
100
AcDbSymbolTableRecord
100
AcDbBlockTableRecord
  2
*X25
  0
ENDTAB
  0
ENDSEC
  0
SECTION
  2
BLOCKS
  0
BLOCK
  5
3
330
2
100
AcDbEntity
  8
0
100
AcDbBlockBegin
  2
*MODEL_SPACE
 70
     0
 10
0.0
 20
0.0
 30
0.0
  3
*MODEL_SPACE
  1

  0
ENDBLK
  5
6
330
2
100
AcDbEntity
  8
0
100
AcDbBlockEnd
  0
BLOCK
  5
8
330
7
100
AcDbEntity
 67
     1
  8
0
100
AcDbBlockBegin
  2
*PAPER_SPACE
 70
     0
 10
0.0
 20
0.0
 30
0.0
  3
*PAPER_SPACE
  1

  0
ENDBLK
  5
9
330
7
100
AcDbEntity
 67
     1
  8
0
100
AcDbBlockEnd
  0
BLOCK
  5
28D5
330
2696
100
AcDbEntity
  8
0
 48
10.0
100
AcDbBlockBegin
  2
*X25
 70
     1
 10
0.0
 20
0.0
 30
0.0
  3
*X25
  1

  0
LINE
  5
2697
330
2696
100
AcDbEntity
  8
0
 62
     0
 48
10.0
100
AcDbLine
 10
98.35104377251177
 20
163.0876864723723
 30
0.0
 11
98.44746191396474
 21
163.2025931388402
 31
0.0
  0
LINE
  5
2698
330
2696
100
AcDbEntity
  8
0
 62
     0
 48
10.0
100
AcDbLine
 10
99.50806146994754
 20
164.4665664699865
 30
0.0
 11
99.60447961140053
 21
164.5814731364543
 31
0.0
  0
LINE
  5
2699
330
2696
100
AcDbEntity
  8
0
 62
     0
 48
10.0
100
AcDbLine
 10
100.6650791673833
 20
165.8454464676006
 30
0.0
 11
100.72699073486
 21
165.9192298005641
 31
0.0
  0
LINE
  5
269A
330
2696
100
AcDbEntity
  8
0
 62
     0
 48
10.0
100
AcDbLine
 10
100.72699073486
 20
165.9192298005642
 30
0.0
 11
100.7614973088362
 21
165.9603531340685
 31
0.0
  0
LINE
  5
269B
330
2696
100
AcDbEntity
  8
0
 62
     0
 48
10.0
100
AcDbLine
 10
101.822096864819
 20
167.2243264652148
 30
0.0
 11
101.918515006272
 21
167.3392331316826
 31
0.0
  0
LINE
  5
269C
330
2696
100
AcDbEntity
  8
0
 62
     0
 48
10.0
100
AcDbLine
 10
102.9791145622548
 20
168.6032064628289
 30
0.0
 11
103.0755327037078
 21
168.7181131292968
 31
0.0
  0
LINE
  5
269D
330
2696
100
AcDbEntity
  8
0
 62
     0
 48
10.0
100
AcDbLine
 10
98.62854644027748
 20
161.583302204793
 30
0.0
 11
98.72496458173047
 21
161.6982088712608
 31
0.0
  0
LINE
  5
269E
330
2696
100
AcDbEntity
  8
0
 62
     0
 48
10.0
100
AcDbLine
 10
99.78556413771327
 20
162.9621822024071
 30
0.0
 11
99.88198227916626
 21
163.077088868875
 31
0.0
  0
LINE
  5
269F
330
2696
100
AcDbEntity
  8
0
 62
     0
 48
10.0
100
AcDbLine
 10
100.942581835149
 20
164.3410622000213
 30
0.0
 11
101.038999976602
 21
164.4559688664891
 31
0.0
  0
LINE
  5
26A0
330
2696
100
AcDbEntity
  8
0
 62
     0
 48
10.0
100
AcDbLine
 10
102.0995995325848
 20
165.7199421976354
 30
0.0
 11
102.1960176740377
 21
165.8348488641033
 31
0.0
  0
LINE
  5
26A1
330
2696
100
AcDbEntity
  8
0
 62
     0
 48
10.0
100
AcDbLine
 10
103.2566172300205
 20
167.0988221952496
 30
0.0
 11
103.3530353714735
 21
167.2137288617174
 31
0.0
  0
LINE
  5
26A2
330
2696
100
AcDbEntity
  8
0
 62
     0
 48
10.0
100
AcDbLine
 10
100.063066805479
 20
161.4577979348278
 30
0.0
 11
100.1594849469319
 21
161.5727046012956
 31
0.0
  0
LINE
  5
26A3
330
2696
100
AcDbEntity
  8
0
 62
     0
 48
10.0
100
AcDbLine
 10
101.2200845029147
 20
162.8366779324419
 30
0.0
 11
101.3165026443677
 21
162.9515845989098
 31
0.0
  0
LINE
  5
26A4
330
2696
100
AcDbEntity
  8
0
 62
     0
 48
10.0
100
AcDbLine
 10
102.3771022003505
 20
164.2155579300561
 30
0.0
 11
102.4735203418035
 21
164.3304645965239
 31
0.0
  0
LINE
  5
26A5
330
2696
100
AcDbEntity
  8
0
 62
     0
 48
10.0
100
AcDbLine
 10
101.5436325231569
 20
161.3871683790986
 30
0.0
 11
101.5940053121334
 21
161.4472003313304
 31
0.0
  0
LINE
  5
26A6
330
2696
100
AcDbEntity
  8
0
 62
     0
 48
10.0
100
AcDbLine
 10
102.6546048681162
 20
162.7111736624768
 30
0.0
 11
102.7510230095692
 21
162.8260803289446
 31
0.0
  0
LINE
  5
26A7
330
2696
100
AcDbEntity
  8
0
 62
     0
 48
10.0
100
AcDbLine
 10
98.07354110474603
 20
164.5920707399517
 30
0.0
 11
98.16995924619902
 21
164.7069774064195
 31
0.0
  0
LINE
  5
26A8
330
2696
100
AcDbEntity
  8
0
 62
     0
 48
10.0
100
AcDbLine
 10
99.2305588021818
 20
165.9709507375658
 30
0.0
 11
99.32697694363479
 21
166.0858574040337
 31
0.0
  0
LINE
  5
26A9
330
2696
100
AcDbEntity
  8
0
 62
     0
 48
10.0
100
AcDbLine
 10
100.3875764996175
 20
167.34983073518
 30
0.0
 11
100.4839946410705
 21
167.4647374016478
 31
0.0
  0
LINE
  5
26AA
330
2696
100
AcDbEntity
  8
0
 62
     0
 48
10.0
100
AcDbLine
 10
101.5445941970533
 20
168.7287107327942
 30
0.0
 11
101.6410123385063
 21
168.843617399262
 31
0.0
  0
LINE
  5
26AB
330
2696
100
AcDbEntity
  8
0
 62
     0
 48
10.0
100
AcDbLine
 10
102.7016118944891
 20
170.1075907304083
 30
0.0
 11
102.7980300359421
 21
170.2224973968762
 31
0.0
  0
LINE
  5
26AC
330
2696
100
AcDbEntity
  8
0
 62
     0
 48
10.0
100
AcDbLine
 10
98.95305613441607
 20
167.4753350051452
 30
0.0
 11
99.04947427586904
 21
167.590241671613
 31
0.0
  0
LINE
  5
26AD
330
2696
100
AcDbEntity
  8
0
 62
     0
 48
10.0
100
AcDbLine
 10
100.1100738318518
 20
168.8542150027593
 30
0.0
 11
100.2064919733048
 21
168.9691216692272
 31
0.0
  0
LINE
  5
26AE
330
2696
100
AcDbEntity
  8
0
 62
     0
 48
10.0
100
AcDbLine
 10
101.2670915292876
 20
170.2330950003735
 30
0.0
 11
101.3635096707405
 21
170.3480016668414
 31
0.0
  0
LINE
  5
26AF
330
2696
100
AcDbEntity
  8
0
 62
     0
 48
10.0
100
AcDbLine
 10
102.4241092267233
 20
171.6119749979877
 30
0.0
 11
102.5205273681763
 21
171.7268816644555
 31
0.0
  0
LINE
  5
26B0
330
2696
100
AcDbEntity
  8
0
 62
     0
 48
10.0
100
AcDbLine
 10
98.67555346665033
 20
168.9797192727245
 30
0.0
 11
98.77197160810332
 21
169.0946259391924
 31
0.0
  0
LINE
  5
26B1
330
2696
100
AcDbEntity
  8
0
 62
     0
 48
10.0
100
AcDbLine
 10
99.8325711640861
 20
170.3585992703387
 30
0.0
 11
99.92898930553909
 21
170.4735059368065
 31
0.0
  0
LINE
  5
26B2
330
2696
100
AcDbEntity
  8
0
 62
     0
 48
10.0
100
AcDbLine
 10
100.9895888615218
 20
171.7374792679528
 30
0.0
 11
101.0860070029748
 21
171.8523859344207
 31
0.0
  0
LINE
  5
26B3
330
2696
100
AcDbEntity
  8
0
 62
     0
 48
10.0
100
AcDbLine
 10
102.1466065589576
 20
173.116359265567
 30
0.0
 11
102.2430247004106
 21
173.2312659320348
 31
0.0
  0
LINE
  5
26B4
330
2696
100
AcDbEntity
  8
0
 62
     0
 48
10.0
100
AcDbLine
 10
98.43297771752247
 20
170.5257278210688
 30
0.0
 11
98.49446894033755
 21
170.5990102067717
 31
0.0
  0
LINE
  5
26B5
330
2696
100
AcDbEntity
  8
0
 62
     0
 48
10.0
100
AcDbLine
 10
99.55506849632035
 20
171.862983537918
 30
0.0
 11
99.65148663777334
 21
171.9778902043859
 31
0.0
  0
LINE
  5
26B6
330
2696
100
AcDbEntity
  8
0
 62
     0
 48
10.0
100
AcDbLine
 10
100.7120861937561
 20
173.2418635355322
 30
0.0
 11
100.72699073486
 21
173.2596260759387
 31
0.0
  0
LINE
  5
26B7
330
2696
100
AcDbEntity
  8
0
 62
     0
 48
10.0
100
AcDbLine
 10
100.72699073486
 20
173.2596260759388
 30
0.0
 11
100.808504335209
 21
173.356770202
 31
0.0
  0
LINE
  5
26B8
330
2696
100
AcDbEntity
  8
0
 62
     0
 48
10.0
100
AcDbLine
 10
99.2775658285546
 20
173.3673678054974
 30
0.0
 11
99.29418048256046
 21
173.3871683790986
 31
0.0
  0
LINE
  5
26B9
330
2696
100
AcDbEntity
  8
0
 62
     0
 48
10.0
100
AcDbLine
 10
98.9530562033004
 20
167.475335021393
 30
0.0
 11
99.07259956707141
 21
167.4648763322633
 31
0.0
  0
LINE
  5
26BA
330
2696
100
AcDbEntity
  8
0
 62
     0
 48
10.0
100
AcDbLine
 10
100.3875765685525
 20
167.3498307518364
 30
0.0
 11
100.5071199323235
 21
167.3393720627067
 31
0.0
  0
LINE
  5
26BB
330
2696
100
AcDbEntity
  8
0
 62
     0
 48
10.0
100
AcDbLine
 10
101.8220969338046
 20
167.2243264822798
 30
0.0
 11
101.9416402975756
 21
167.21386779315
 31
0.0
  0
LINE
  5
26BC
330
2696
100
AcDbEntity
  8
0
 62
     0
 48
10.0
100
AcDbLine
 10
103.2566172990567
 20
167.0988222127231
 30
0.0
 11
103.3741750844858
 21
167.0885372391889
 31
0.0
  0
LINE
  5
26BD
330
2696
100
AcDbEntity
  8
0
 62
     0
 48
10.0
100
AcDbLine
 10
98.67555353607443
 20
168.979719288793
 30
0.0
 11
98.79509689984544
 21
168.9692605996634
 31
0.0
  0
LINE
  5
26BE
330
2696
100
AcDbEntity
  8
0
 62
     0
 48
10.0
100
AcDbLine
 10
100.1100739013265
 20
168.8542150192364
 30
0.0
 11
100.2296172650975
 21
168.8437563301067
 31
0.0
  0
LINE
  5
26BF
330
2696
100
AcDbEntity
  8
0
 62
     0
 48
10.0
100
AcDbLine
 10
101.5445942665786
 20
168.7287107496798
 30
0.0
 11
101.6641376303496
 21
168.7182520605501
 31
0.0
  0
LINE
  5
26C0
330
2696
100
AcDbEntity
  8
0
 62
     0
 48
10.0
100
AcDbLine
 10
102.9791146318307
 20
168.6032064801232
 30
0.0
 11
103.0986579956017
 21
168.5927477909935
 31
0.0
  0
LINE
  5
26C1
330
2696
100
AcDbEntity
  8
0
 62
     0
 48
10.0
100
AcDbLine
 10
98.42842775252039
 20
170.4814459232385
 30
0.0
 11
98.51759423261938
 21
170.4736448670634
 31
0.0
  0
LINE
  5
26C2
330
2696
100
AcDbEntity
  8
0
 62
     0
 48
10.0
100
AcDbLine
 10
99.8325712341005
 20
170.3585992866365
 30
0.0
 11
99.95211459787151
 21
170.3481405975067
 31
0.0
  0
LINE
  5
26C3
330
2696
100
AcDbEntity
  8
0
 62
     0
 48
10.0
100
AcDbLine
 10
101.2670915993526
 20
170.2330950170798
 30
0.0
 11
101.3866349631236
 21
170.2226363279501
 31
0.0
  0
LINE
  5
26C4
330
2696
100
AcDbEntity
  8
0
 62
     0
 48
10.0
100
AcDbLine
 10
102.7016119646047
 20
170.1075907475232
 30
0.0
 11
102.8211553283757
 21
170.0971320583934
 31
0.0
  0
LINE
  5
26C5
330
2696
100
AcDbEntity
  8
0
 62
     0
 48
10.0
100
AcDbLine
 10
99.55506856687449
 20
171.8629835540365
 30
0.0
 11
99.67461193064551
 21
171.8525248649068
 31
0.0
  0
LINE
  5
26C6
330
2696
100
AcDbEntity
  8
0
 62
     0
 48
10.0
100
AcDbLine
 10
100.9895889321266
 20
171.7374792844798
 30
0.0
 11
101.1091322958976
 21
171.7270205953501
 31
0.0
  0
LINE
  5
26C7
330
2696
100
AcDbEntity
  8
0
 62
     0
 48
10.0
100
AcDbLine
 10
102.4241092973787
 20
171.6119750149232
 30
0.0
 11
102.5436526611497
 21
171.6015163257935
 31
0.0
  0
LINE
  5
26C8
330
2696
100
AcDbEntity
  8
0
 62
     0
 48
10.0
100
AcDbLine
 10
99.27756589964852
 20
173.3673678214365
 30
0.0
 11
99.39710926341954
 21
173.3569091323068
 31
0.0
  0
LINE
  5
26C9
330
2696
100
AcDbEntity
  8
0
 62
     0
 48
10.0
100
AcDbLine
 10
100.7120862649006
 20
173.2418635518799
 30
0.0
 11
100.72699073486
 21
173.2405595797226
 31
0.0
  0
LINE
  5
26CA
330
2696
100
AcDbEntity
  8
0
 62
     0
 48
10.0
100
AcDbLine
 10
100.72699073486
 20
173.2405595797225
 30
0.0
 11
100.8316296286716
 21
173.2314048627501
 31
0.0
  0
LINE
  5
26CB
330
2696
100
AcDbEntity
  8
0
 62
     0
 48
10.0
100
AcDbLine
 10
102.1466066301527
 20
173.1163592823232
 30
0.0
 11
102.2661499939237
 21
173.1059005931935
 31
0.0
  0
LINE
  5
26CC
330
2696
100
AcDbEntity
  8
0
 62
     0
 48
10.0
100
AcDbLine
 10
99.2305588705264
 20
165.970950753993
 30
0.0
 11
99.35010223429742
 21
165.9604920648633
 31
0.0
  0
LINE
  5
26CD
330
2696
100
AcDbEntity
  8
0
 62
     0
 48
10.0
100
AcDbLine
 10
100.6650792357785
 20
165.8454464844364
 30
0.0
 11
100.72699073486
 21
165.8400299301248
 31
0.0
  0
LINE
  5
26CE
330
2696
100
AcDbEntity
  8
0
 62
     0
 48
10.0
100
AcDbLine
 10
100.72699073486
 20
165.8400299301248
 30
0.0
 11
100.7846225995495
 21
165.8349877953066
 31
0.0
  0
LINE
  5
26CF
330
2696
100
AcDbEntity
  8
0
 62
     0
 48
10.0
100
AcDbLine
 10
102.0995996010306
 20
165.7199422148797
 30
0.0
 11
102.2191429648016
 21
165.70948352575
 31
0.0
  0
LINE
  5
26D0
330
2696
100
AcDbEntity
  8
0
 62
     0
 48
10.0
100
AcDbLine
 10
98.0735411725003
 20
164.5920707561496
 30
0.0
 11
98.19308453627131
 21
164.5816120670199
 31
0.0
  0
LINE
  5
26D1
330
2696
100
AcDbEntity
  8
0
 62
     0
 48
10.0
100
AcDbLine
 10
99.50806153775243
 20
164.466566486593
 30
0.0
 11
99.62760490152344
 21
164.4561077974633
 31
0.0
  0
LINE
  5
26D2
330
2696
100
AcDbEntity
  8
0
 62
     0
 48
10.0
100
AcDbLine
 10
100.9425819030045
 20
164.3410622170363
 30
0.0
 11
101.0621252667755
 21
164.3306035279066
 31
0.0
  0
LINE
  5
26D3
330
2696
100
AcDbEntity
  8
0
 62
     0
 48
10.0
100
AcDbLine
 10
102.3771022682566
 20
164.2155579474797
 30
0.0
 11
102.4966456320276
 21
164.20509925835
 31
0.0
  0
LINE
  5
26D4
330
2696
100
AcDbEntity
  8
0
 62
     0
 48
10.0
100
AcDbLine
 10
98.35104383972627
 20
163.0876864887496
 30
0.0
 11
98.47058720349728
 21
163.0772277996199
 31
0.0
  0
LINE
  5
26D5
330
2696
100
AcDbEntity
  8
0
 62
     0
 48
10.0
100
AcDbLine
 10
99.7855642049784
 20
162.962182219193
 30
0.0
 11
99.90510756874941
 21
162.9517235300633
 31
0.0
  0
LINE
  5
26D6
330
2696
100
AcDbEntity
  8
0
 62
     0
 48
10.0
100
AcDbLine
 10
101.2200845702305
 20
162.8366779496364
 30
0.0
 11
101.3396279340015
 21
162.8262192605066
 31
0.0
  0
LINE
  5
26D7
330
2696
100
AcDbEntity
  8
0
 62
     0
 48
10.0
100
AcDbLine
 10
102.6546049354826
 20
162.7111736800797
 30
0.0
 11
102.7741482992536
 21
162.70071499095
 31
0.0
  0
LINE
  5
26D8
330
2696
100
AcDbEntity
  8
0
 62
     0
 48
10.0
100
AcDbLine
 10
98.62854650695226
 20
161.5833022213496
 30
0.0
 11
98.74808987072327
 21
161.5728435322199
 31
0.0
  0
LINE
  5
26D9
330
2696
100
AcDbEntity
  8
0
 62
     0
 48
10.0
100
AcDbLine
 10
100.0630668722043
 20
161.457797951793
 30
0.0
 11
100.1826102359754
 21
161.4473392626632
 31
0.0
  0
LINE
  5
26DA
330
2696
100
AcDbEntity
  8
0
 62
     0
 48
10.0
100
AcDbLine
 10
101.6051892029216
 20
161.3871683790987
 30
0.0
 11
101.5941304023094
 21
161.4471200855588
 31
0.0
  0
LINE
  5
26DB
330
2696
100
AcDbEntity
  8
0
 62
     0
 48
10.0
100
AcDbLine
 10
101.3397540336111
 20
162.8261391963499
 30
0.0
 11
101.3166289099096
 21
162.9515045661246
 31
0.0
  0
LINE
  5
26DC
330
2696
100
AcDbEntity
  8
0
 62
     0
 48
10.0
100
AcDbLine
 10
101.0622525412112
 20
164.3305236769157
 30
0.0
 11
101.0391274175097
 21
164.4558890466903
 31
0.0
  0
LINE
  5
26DD
330
2696
100
AcDbEntity
  8
0
 62
     0
 48
10.0
100
AcDbLine
 10
100.7847510488113
 20
165.8349081574814
 30
0.0
 11
100.7616259251098
 21
165.9602735272561
 31
0.0
  0
LINE
  5
26DE
330
2696
100
AcDbEntity
  8
0
 62
     0
 48
10.0
100
AcDbLine
 10
100.5072495564115
 20
167.3392926380472
 30
0.0
 11
100.48412443271
 21
167.4646580078218
 31
0.0
  0
LINE
  5
26DF
330
2696
100
AcDbEntity
  8
0
 62
     0
 48
10.0
100
AcDbLine
 10
100.2297480640117
 20
168.8436771186129
 30
0.0
 11
100.2066229403101
 21
168.9690424883876
 31
0.0
  0
LINE
  5
26E0
330
2696
100
AcDbEntity
  8
0
 62
     0
 48
10.0
100
AcDbLine
 10
99.95224657161184
 20
170.3480615991787
 30
0.0
 11
99.92912144791032
 21
170.4734269689534
 31
0.0
  0
LINE
  5
26E1
330
2696
100
AcDbEntity
  8
0
 62
     0
 48
10.0
100
AcDbLine
 10
99.67474507921197
 20
171.8524460797445
 30
0.0
 11
99.65161995551046
 21
171.9778114495191
 31
0.0
  0
LINE
  5
26E2
330
2696
100
AcDbEntity
  8
0
 62
     0
 48
10.0
100
AcDbLine
 10
99.3972435868121
 20
173.3568305603102
 30
0.0
 11
99.39164741768202
 21
173.3871683790986
 31
0.0
  0
LINE
  5
26E3
330
2696
100
AcDbEntity
  8
0
 62
     0
 48
10.0
100
AcDbLine
 10
102.774274289439
 20
162.700633799906
 30
0.0
 11
102.7511491657375
 21
162.8259991696807
 31
0.0
  0
LINE
  5
26E4
330
2696
100
AcDbEntity
  8
0
 62
     0
 48
10.0
100
AcDbLine
 10
102.4967727970391
 20
164.2050182804718
 30
0.0
 11
102.4736476733376
 21
164.3303836502465
 31
0.0
  0
LINE
  5
26E5
330
2696
100
AcDbEntity
  8
0
 62
     0
 48
10.0
100
AcDbLine
 10
102.2192713046393
 20
165.7094027610376
 30
0.0
 11
102.1961461809377
 21
165.8347681308122
 31
0.0
  0
LINE
  5
26E6
330
2696
100
AcDbEntity
  8
0
 62
     0
 48
10.0
100
AcDbLine
 10
101.9417698122394
 20
167.2137872416033
 30
0.0
 11
101.9186446885379
 21
167.339152611378
 31
0.0
  0
LINE
  5
26E7
330
2696
100
AcDbEntity
  8
0
 62
     0
 48
10.0
100
AcDbLine
 10
101.6642683198395
 20
168.7181717221691
 30
0.0
 11
101.641143196138
 21
168.8435370919437
 31
0.0
  0
LINE
  5
26E8
330
2696
100
AcDbEntity
  8
0
 62
     0
 48
10.0
100
AcDbLine
 10
101.3867668274397
 20
170.2225562027348
 30
0.0
 11
101.3636417037382
 21
170.3479215725095
 31
0.0
  0
LINE
  5
26E9
330
2696
100
AcDbEntity
  8
0
 62
     0
 48
10.0
100
AcDbLine
 10
101.1092653350398
 20
171.7269406833006
 30
0.0
 11
101.0861402113383
 21
171.8523060530753
 31
0.0
  0
LINE
  5
26EA
330
2696
100
AcDbEntity
  8
0
 62
     0
 48
10.0
100
AcDbLine
 10
100.83176384264
 20
173.2313251638664
 30
0.0
 11
100.8086387189384
 21
173.356690533641
 31
0.0
  0
LINE
  5
26EB
330
2696
100
AcDbEntity
  8
0
 62
     0
 48
10.0
100
AcDbLine
 10
103.3715748000164
 20
167.1138441440004
 30
0.0
 11
103.3531649443658
 21
167.2136472149341
 31
0.0
  0
LINE
  5
26EC
330
2696
100
AcDbEntity
  8
0
 62
     0
 48
10.0
100
AcDbLine
 10
103.0987885756675
 20
168.5926663257253
 30
0.0
 11
103.075663451966
 21
168.7180316954999
 31
0.0
  0
LINE
  5
26ED
330
2696
100
AcDbEntity
  8
0
 62
     0
 48
10.0
100
AcDbLine
 10
102.8212870832676
 20
170.097050806291
 30
0.0
 11
102.7981619595661
 21
170.2224161760657
 31
0.0
  0
LINE
  5
26EE
330
2696
100
AcDbEntity
  8
0
 62
     0
 48
10.0
100
AcDbLine
 10
102.5437855908678
 20
171.6014352868568
 30
0.0
 11
102.5206604671662
 21
171.7268006566314
 31
0.0
  0
LINE
  5
26EF
330
2696
100
AcDbEntity
  8
0
 62
     0
 48
10.0
100
AcDbLine
 10
102.2662840984679
 20
173.1058197674225
 30
0.0
 11
102.2431589747664
 21
173.2311851371972
 31
0.0
  0
LINE
  5
26F0
330
2696
100
AcDbEntity
  8
0
 62
     0
 48
10.0
100
AcDbLine
 10
100.182735270183
 20
161.447260112228
 30
0.0
 11
100.1596101464815
 21
161.5726254820026
 31
0.0
  0
LINE
  5
26F1
330
2696
100
AcDbEntity
  8
0
 62
     0
 48
10.0
100
AcDbLine
 10
99.90523377778322
 20
162.9516445927938
 30
0.0
 11
99.8821086540817
 21
163.0770099625684
 31
0.0
  0
LINE
  5
26F2
330
2696
100
AcDbEntity
  8
0
 62
     0
 48
10.0
100
AcDbLine
 10
99.62773228538335
 20
164.4560290733595
 30
0.0
 11
99.60460716168183
 21
164.5813944431341
 31
0.0
  0
LINE
  5
26F3
330
2696
100
AcDbEntity
  8
0
 62
     0
 48
10.0
100
AcDbLine
 10
99.35023079298348
 20
165.9604135539253
 30
0.0
 11
99.32710566928196
 21
166.0857789236999
 31
0.0
  0
LINE
  5
26F4
330
2696
100
AcDbEntity
  8
0
 62
     0
 48
10.0
100
AcDbLine
 10
99.07272930058361
 20
167.464798034491
 30
0.0
 11
99.0496041768821
 21
167.5901634042657
 31
0.0
  0
LINE
  5
26F5
330
2696
100
AcDbEntity
  8
0
 62
     0
 48
10.0
100
AcDbLine
 10
98.79522780818376
 20
168.9691825150568
 30
0.0
 11
98.77210268448223
 21
169.0945478848314
 31
0.0
  0
LINE
  5
26F6
330
2696
100
AcDbEntity
  8
0
 62
     0
 48
10.0
100
AcDbLine
 10
98.5177263157839
 20
170.4735669956226
 30
0.0
 11
98.49460119208238
 21
170.5989323653972
 31
0.0
  0
LINE
  5
26F7
330
2696
100
AcDbEntity
  8
0
 62
     0
 48
10.0
100
AcDbLine
 10
98.74821501435516
 20
161.5727655086718
 30
0.0
 11
98.72508989065364
 21
161.6981308784465
 31
0.0
  0
LINE
  5
26F8
330
2696
100
AcDbEntity
  8
0
 62
     0
 48
10.0
100
AcDbLine
 10
98.47071352195529
 20
163.0771499892376
 30
0.0
 11
98.44758839825377
 21
163.2025153590122
 31
0.0
  0
LINE
  5
26F9
330
2696
100
AcDbEntity
  8
0
 62
     0
 48
10.0
100
AcDbLine
 10
98.19321202955542
 20
164.5815344698034
 30
0.0
 11
98.17008690585391
 21
164.706899839578
 31
0.0
  0
LINE
  5
26FA
330
2696
100
AcDbEntity
  8
0
 62
     0
 48
10.0
100
AcDbLine
 10
98.31834089388953
 20
164.2038888008513
 30
0.0
 11
98.47411788475195
 21
164.366241900969
 31
0.0
  0
LINE
  5
26FB
330
2696
100
AcDbEntity
  8
0
 62
     0
 48
10.0
100
AcDbLine
 10
100.1876647842385
 20
166.1521260022645
 30
0.0
 11
100.3434417751009
 21
166.3144791023823
 31
0.0
  0
LINE
  5
26FC
330
2696
100
AcDbEntity
  8
0
 62
     0
 48
10.0
100
AcDbLine
 10
102.0569886745875
 20
168.1003632036778
 30
0.0
 11
102.21276566545
 21
168.2627163037955
 31
0.0
  0
LINE
  5
26FD
330
2696
100
AcDbEntity
  8
0
 62
     0
 48
10.0
100
AcDbLine
 10
98.58349910079187
 20
161.92461357078
 30
0.0
 11
98.73927609165429
 21
162.0869666708978
 31
0.0
  0
LINE
  5
26FE
330
2696
100
AcDbEntity
  8
0
 62
     0
 48
10.0
100
AcDbLine
 10
100.4528229911408
 20
163.8728507721932
 30
0.0
 11
100.6085999820033
 21
164.035203872311
 31
0.0
  0
LINE
  5
26FF
330
2696
100
AcDbEntity
  8
0
 62
     0
 48
10.0
100
AcDbLine
 10
102.3221468814898
 20
165.8210879736065
 30
0.0
 11
102.4779238723522
 21
165.9834410737242
 31
0.0
  0
LINE
  5
2700
330
2696
100
AcDbEntity
  8
0
 62
     0
 48
10.0
100
AcDbLine
 10
100.7179811980431
 20
161.593575542122
 30
0.0
 11
100.72699073486
 21
161.6029654155863
 31
0.0
  0
LINE
  5
2701
330
2696
100
AcDbEntity
  8
0
 62
     0
 48
10.0
100
AcDbLine
 10
100.72699073486
 20
161.6029654155863
 30
0.0
 11
100.8737581889055
 21
161.7559286422397
 31
0.0
  0
LINE
  5
2702
330
2696
100
AcDbEntity
  8
0
 62
     0
 48
10.0
100
AcDbLine
 10
102.5873050883921
 20
163.5418127435352
 30
0.0
 11
102.7430820792545
 21
163.704165843653
 31
0.0
  0
LINE
  5
2703
330
2696
100
AcDbEntity
  8
0
 62
     0
 48
10.0
100
AcDbLine
 10
102.9720459900694
 20
161.3871683790986
 30
0.0
 11
103.0082402861568
 21
161.4248906135817
 31
0.0
  0
LINE
  5
2704
330
2696
100
AcDbEntity
  8
0
 62
     0
 48
10.0
100
AcDbLine
 10
98.05318268698727
 20
166.4831640309225
 30
0.0
 11
98.2089596778497
 21
166.6455171310403
 31
0.0
  0
LINE
  5
2705
330
2696
100
AcDbEntity
  8
0
 62
     0
 48
10.0
100
AcDbLine
 10
99.92250657733627
 20
168.4314012323358
 30
0.0
 11
100.0782835681987
 21
168.5937543324535
 31
0.0
  0
LINE
  5
2706
330
2696
100
AcDbEntity
  8
0
 62
     0
 48
10.0
100
AcDbLine
 10
101.7918304676852
 20
170.379638433749
 30
0.0
 11
101.9476074585477
 21
170.5419915338668
 31
0.0
  0
LINE
  5
2707
330
2696
100
AcDbEntity
  8
0
 62
     0
 48
10.0
100
AcDbLine
 10
99.65734837043399
 20
170.710676462407
 30
0.0
 11
99.81312536129641
 21
170.8730295625248
 31
0.0
  0
LINE
  5
2708
330
2696
100
AcDbEntity
  8
0
 62
     0
 48
10.0
100
AcDbLine
 10
101.526672260783
 20
172.6589136638203
 30
0.0
 11
101.6824492516454
 21
172.821266763938
 31
0.0
  0
LINE
  5
2709
330
2696
100
AcDbEntity
  8
0
 62
     0
 48
10.0
100
AcDbLine
 10
99.39219016353174
 20
172.9899516924783
 30
0.0
 11
99.54796715439416
 21
173.1523047925961
 31
0.0
  0
LINE
  5
270A
330
2696
100
AcDbEntity
  8
0
 62
     0
 48
10.0
100
AcDbLine
 10
100.8959813784587
 20
161.5659029505792
 30
0.0
 11
100.8738850095258
 21
161.7558425703686
 31
0.0
  0
LINE
  5
270B
330
2696
100
AcDbEntity
  8
0
 62
     0
 48
10.0
100
AcDbLine
 10
100.6308249900908
 20
163.8451780543032
 30
0.0
 11
100.6087286211579
 21
164.0351176740927
 31
0.0
  0
LINE
  5
270C
330
2696
100
AcDbEntity
  8
0
 62
     0
 48
10.0
100
AcDbLine
 10
100.3656686017229
 20
166.1244531580273
 30
0.0
 11
100.34357223279
 21
166.3143927778167
 31
0.0
  0
LINE
  5
270D
330
2696
100
AcDbEntity
  8
0
 62
     0
 48
10.0
100
AcDbLine
 10
100.100512213355
 20
168.4037282617513
 30
0.0
 11
100.0784158444222
 21
168.5936678815408
 31
0.0
  0
LINE
  5
270E
330
2696
100
AcDbEntity
  8
0
 62
     0
 48
10.0
100
AcDbLine
 10
99.83535582498717
 20
170.6830033654754
 30
0.0
 11
99.81325945605433
 21
170.8729429852648
 31
0.0
  0
LINE
  5
270F
330
2696
100
AcDbEntity
  8
0
 62
     0
 48
10.0
100
AcDbLine
 10
99.57019943661929
 20
172.9622784691994
 30
0.0
 11
99.54810306768644
 21
173.1522180889889
 31
0.0
  0
LINE
  5
2710
330
2696
100
AcDbEntity
  8
0
 62
     0
 48
10.0
100
AcDbLine
 10
103.0127450059934
 20
161.3871683790986
 30
0.0
 11
103.0083668089911
 21
161.4248032084455
 31
0.0
  0
LINE
  5
2711
330
2696
100
AcDbEntity
  8
0
 62
     0
 48
10.0
100
AcDbLine
 10
102.7653067895561
 20
163.5141386923801
 30
0.0
 11
102.7432104206232
 21
163.7040783121695
 31
0.0
  0
LINE
  5
2712
330
2696
100
AcDbEntity
  8
0
 62
     0
 48
10.0
100
AcDbLine
 10
102.5001504011882
 20
165.7934137961041
 30
0.0
 11
102.4780540322554
 21
165.9833534158936
 31
0.0
  0
LINE
  5
2713
330
2696
100
AcDbEntity
  8
0
 62
     0
 48
10.0
100
AcDbLine
 10
102.2349940128203
 20
168.0726888998282
 30
0.0
 11
102.2128976438875
 21
168.2626285196176
 31
0.0
  0
LINE
  5
2714
330
2696
100
AcDbEntity
  8
0
 62
     0
 48
10.0
100
AcDbLine
 10
101.9698376244524
 20
170.3519640035522
 30
0.0
 11
101.9477412555196
 21
170.5419036233417
 31
0.0
  0
LINE
  5
2715
330
2696
100
AcDbEntity
  8
0
 62
     0
 48
10.0
100
AcDbLine
 10
101.7046812360846
 20
172.6312391072763
 30
0.0
 11
101.6825848671517
 21
172.8211787270657
 31
0.0
  0
LINE
  5
2716
330
2696
100
AcDbEntity
  8
0
 62
     0
 48
10.0
100
AcDbLine
 10
98.76149957899343
 20
161.8969423125023
 30
0.0
 11
98.73940321006058
 21
162.0868819322918
 31
0.0
  0
LINE
  5
2717
330
2696
100
AcDbEntity
  8
0
 62
     0
 48
10.0
100
AcDbLine
 10
98.49634319062554
 20
164.1762174162264
 30
0.0
 11
98.47424682169268
 21
164.3661570360158
 31
0.0
  0
LINE
  5
2718
330
2696
100
AcDbEntity
  8
0
 62
     0
 48
10.0
100
AcDbLine
 10
98.23118680225766
 20
166.4554925199504
 30
0.0
 11
98.20909043332481
 21
166.6454321397399
 31
0.0
  0
LINE
  5
2719
330
2696
100
AcDbEntity
  8
0
 62
     0
 48
10.0
100
AcDbLine
 10
98.05318267745223
 20
166.4831640511927
 30
0.0
 11
98.23105618556622
 21
166.455577548855
 31
0.0
  0
LINE
  5
271A
330
2696
100
AcDbEntity
  8
0
 62
     0
 48
10.0
100
AcDbLine
 10
100.18766477482
 20
166.1521260231411
 30
0.0
 11
100.365538282934
 21
166.1245395208034
 31
0.0
  0
LINE
  5
271B
330
2696
100
AcDbEntity
  8
0
 62
     0
 48
10.0
100
AcDbLine
 10
102.3221468721878
 20
165.8210879950894
 30
0.0
 11
102.5000203803018
 21
165.7935014927518
 31
0.0
  0
LINE
  5
271C
330
2696
100
AcDbEntity
  8
0
 62
     0
 48
10.0
100
AcDbLine
 10
99.92250656771947
 20
168.4314012530433
 30
0.0
 11
100.1003800758334
 21
168.4038147507056
 31
0.0
  0
LINE
  5
271D
330
2696
100
AcDbEntity
  8
0
 62
     0
 48
10.0
100
AcDbLine
 10
102.0569886650873
 20
168.1003632249917
 30
0.0
 11
102.2348621732012
 21
168.072776722654
 31
0.0
  0
LINE
  5
271E
330
2696
100
AcDbEntity
  8
0
 62
     0
 48
10.0
100
AcDbLine
 10
99.65734836061891
 20
170.7106764829456
 30
0.0
 11
99.8352218687329
 21
170.683089980608
 31
0.0
  0
LINE
  5
271F
330
2696
100
AcDbEntity
  8
0
 62
     0
 48
10.0
100
AcDbLine
 10
101.7918304579867
 20
170.379638454894
 30
0.0
 11
101.9697039661007
 21
170.3520519525563
 31
0.0
  0
LINE
  5
2720
330
2696
100
AcDbEntity
  8
0
 62
     0
 48
10.0
100
AcDbLine
 10
99.39219015351834
 20
172.9899517128478
 30
0.0
 11
99.57006366163234
 21
172.9623652105101
 31
0.0
  0
LINE
  5
2721
330
2696
100
AcDbEntity
  8
0
 62
     0
 48
10.0
100
AcDbLine
 10
101.5266722508861
 20
172.6589136847962
 30
0.0
 11
101.7045457590001
 21
172.6313271824585
 31
0.0
  0
LINE
  5
2722
330
2696
100
AcDbEntity
  8
0
 62
     0
 48
10.0
100
AcDbLine
 10
98.31834088455275
 20
164.2038888212904
 30
0.0
 11
98.49621439266675
 21
164.1763023189528
 31
0.0
  0
LINE
  5
2723
330
2696
100
AcDbEntity
  8
0
 62
     0
 48
10.0
100
AcDbLine
 10
100.4528229819205
 20
163.8728507932388
 30
0.0
 11
100.6306964900345
 21
163.8452642909012
 31
0.0
  0
LINE
  5
2724
330
2696
100
AcDbEntity
  8
0
 62
     0
 48
10.0
100
AcDbLine
 10
102.5873050792883
 20
163.5418127651872
 30
0.0
 11
102.7651785874023
 21
163.5142262628496
 31
0.0
  0
LINE
  5
2725
330
2696
100
AcDbEntity
  8
0
 62
     0
 48
10.0
100
AcDbLine
 10
98.58349909165331
 20
161.9246135913881
 30
0.0
 11
98.76137259976729
 21
161.8970270890505
 31
0.0
  0
LINE
  5
2726
330
2696
100
AcDbEntity
  8
0
 62
     0
 48
10.0
100
AcDbLine
 10
100.7179811890211
 20
161.5935755633365
 30
0.0
 11
100.72699073486
 21
161.592178267809
 31
0.0
  0
LINE
  5
2727
330
2696
100
AcDbEntity
  8
0
 62
     0
 48
10.0
100
AcDbLine
 10
100.72699073486
 20
161.592178267809
 30
0.0
 11
100.8958546971351
 21
161.5659890609989
 31
0.0
  0
LINE
  5
2728
330
2696
100
AcDbEntity
  8
0
 62
     0
 48
10.0
100
AcDbLine
 10
98.08259527241595
 20
165.4871161079986
 30
0.0
 11
98.22263233639054
 21
165.5408713004304
 31
0.0
  0
LINE
  5
2729
330
2696
100
AcDbEntity
  8
0
 62
     0
 48
10.0
100
AcDbLine
 10
99.7630400401109
 20
166.1321784171802
 30
0.0
 11
99.90307710408549
 21
166.185933609612
 31
0.0
  0
LINE
  5
272A
330
2696
100
AcDbEntity
  8
0
 62
     0
 48
10.0
100
AcDbLine
 10
101.4434848078058
 20
166.7772407263617
 30
0.0
 11
101.5835218717804
 21
166.8309959187935
 31
0.0
  0
LINE
  5
272B
330
2696
100
AcDbEntity
  8
0
 62
     0
 48
10.0
100
AcDbLine
 10
103.1239295755008
 20
167.4223030355432
 30
0.0
 11
103.2639666394753
 21
167.476058227975
 31
0.0
  0
LINE
  5
272C
330
2696
100
AcDbEntity
  8
0
 62
     0
 48
10.0
100
AcDbLine
 10
99.27640937665287
 20
164.681878326668
 30
0.0
 11
99.41644644062744
 21
164.7356335190997
 31
0.0
  0
LINE
  5
272D
330
2696
100
AcDbEntity
  8
0
 62
     0
 48
10.0
100
AcDbLine
 10
100.9568541443478
 20
165.3269406358495
 30
0.0
 11
101.0968912083224
 21
165.3806958282813
 31
0.0
  0
LINE
  5
272E
330
2696
100
AcDbEntity
  8
0
 62
     0
 48
10.0
100
AcDbLine
 10
102.6372989120428
 20
165.972002945031
 30
0.0
 11
102.7773359760173
 21
166.0257581374628
 31
0.0
  0
LINE
  5
272F
330
2696
100
AcDbEntity
  8
0
 62
     0
 48
10.0
100
AcDbLine
 10
98.78977871319484
 20
163.2315782361557
 30
0.0
 11
98.92981577716941
 21
163.2853334285876
 31
0.0
  0
LINE
  5
2730
330
2696
100
AcDbEntity
  8
0
 62
     0
 48
10.0
100
AcDbLine
 10
100.4702234808897
 20
163.8766405453373
 30
0.0
 11
100.6102605448643
 21
163.9303957377691
 31
0.0
  0
LINE
  5
2731
330
2696
100
AcDbEntity
  8
0
 62
     0
 48
10.0
100
AcDbLine
 10
102.1506682485847
 20
164.5217028545188
 30
0.0
 11
102.2907053125593
 21
164.5754580469506
 31
0.0
  0
LINE
  5
2732
330
2696
100
AcDbEntity
  8
0
 62
     0
 48
10.0
100
AcDbLine
 10
98.3031480497368
 20
161.7812781456435
 30
0.0
 11
98.44318511371136
 21
161.8350333380753
 31
0.0
  0
LINE
  5
2733
330
2696
100
AcDbEntity
  8
0
 62
     0
 48
10.0
100
AcDbLine
 10
99.98359281743175
 20
162.426340454825
 30
0.0
 11
100.1236298814063
 21
162.4800956472568
 31
0.0
  0
LINE
  5
2734
330
2696
100
AcDbEntity
  8
0
 62
     0
 48
10.0
100
AcDbLine
 10
101.6640375851267
 20
163.0714027640066
 30
0.0
 11
101.8040746491013
 21
163.1251579564384
 31
0.0
  0
LINE
  5
2735
330
2696
100
AcDbEntity
  8
0
 62
     0
 48
10.0
100
AcDbLine
 10
103.3444823528216
 20
163.7164650731881
 30
0.0
 11
103.4845194167962
 21
163.77022026562
 31
0.0
  0
LINE
  5
2736
330
2696
100
AcDbEntity
  8
0
 62
     0
 48
10.0
100
AcDbLine
 10
101.1774069216686
 20
161.6211026734944
 30
0.0
 11
101.3174439856432
 21
161.6748578659262
 31
0.0
  0
LINE
  5
2737
330
2696
100
AcDbEntity
  8
0
 62
     0
 48
10.0
100
AcDbLine
 10
102.8578516893636
 20
162.2661649826759
 30
0.0
 11
102.9978887533382
 21
162.3199201751077
 31
0.0
  0
LINE
  5
2738
330
2696
100
AcDbEntity
  8
0
 62
     0
 48
10.0
100
AcDbLine
 10
98.56922593587398
 20
166.9374161985109
 30
0.0
 11
98.70926299984855
 21
166.9911713909427
 31
0.0
  0
LINE
  5
2739
330
2696
100
AcDbEntity
  8
0
 62
     0
 48
10.0
100
AcDbLine
 10
100.2496707035689
 20
167.5824785076924
 30
0.0
 11
100.3897077675435
 21
167.6362337001242
 31
0.0
  0
LINE
  5
273A
330
2696
100
AcDbEntity
  8
0
 62
     0
 48
10.0
100
AcDbLine
 10
101.9301154712639
 20
168.2275408168739
 30
0.0
 11
102.0701525352385
 21
168.2812960093057
 31
0.0
  0
LINE
  5
273B
330
2696
100
AcDbEntity
  8
0
 62
     0
 48
10.0
100
AcDbLine
 10
99.05585659933203
 20
168.3877162890231
 30
0.0
 11
99.19589366330662
 21
168.4414714814549
 31
0.0
  0
LINE
  5
273C
330
2696
100
AcDbEntity
  8
0
 62
     0
 48
10.0
100
AcDbLine
 10
100.736301367027
 20
169.0327785982046
 30
0.0
 11
100.8763384310015
 21
169.0865337906364
 31
0.0
  0
LINE
  5
273D
330
2696
100
AcDbEntity
  8
0
 62
     0
 48
10.0
100
AcDbLine
 10
102.4167461347219
 20
169.6778409073861
 30
0.0
 11
102.5567831986965
 21
169.7315960998179
 31
0.0
  0
LINE
  5
273E
330
2696
100
AcDbEntity
  8
0
 62
     0
 48
10.0
100
AcDbLine
 10
99.54248726279006
 20
169.8380163795353
 30
0.0
 11
99.68252432676464
 21
169.8917715719671
 31
0.0
  0
LINE
  5
273F
330
2696
100
AcDbEntity
  8
0
 62
     0
 48
10.0
100
AcDbLine
 10
101.222932030485
 20
170.4830786887168
 30
0.0
 11
101.3629690944596
 21
170.5368338811486
 31
0.0
  0
LINE
  5
2740
330
2696
100
AcDbEntity
  8
0
 62
     0
 48
10.0
100
AcDbLine
 10
102.90337679818
 20
171.1281409978983
 30
0.0
 11
102.9569911398281
 21
171.1487216154191
 31
0.0
  0
LINE
  5
2741
330
2696
100
AcDbEntity
  8
0
 62
     0
 48
10.0
100
AcDbLine
 10
98.4490110802127
 20
170.6817702803413
 30
0.0
 11
98.48871022252772
 21
170.6970093532978
 31
0.0
  0
LINE
  5
2742
330
2696
100
AcDbEntity
  8
0
 62
     0
 48
10.0
100
AcDbLine
 10
100.029117926248
 20
171.2883164700475
 30
0.0
 11
100.1691549902226
 21
171.3420716624793
 31
0.0
  0
LINE
  5
2743
330
2696
100
AcDbEntity
  8
0
 62
     0
 48
10.0
100
AcDbLine
 10
101.709562693943
 20
171.9333787792291
 30
0.0
 11
101.8495997579176
 21
171.9871339716609
 31
0.0
  0
LINE
  5
2744
330
2696
100
AcDbEntity
  8
0
 62
     0
 48
10.0
100
AcDbLine
 10
98.83530382201117
 20
172.0935542513782
 30
0.0
 11
98.97534088598575
 21
172.14730944381
 31
0.0
  0
LINE
  5
2745
330
2696
100
AcDbEntity
  8
0
 62
     0
 48
10.0
100
AcDbLine
 10
100.5157485897061
 20
172.7386165605597
 30
0.0
 11
100.6557856536806
 21
172.7923717529915
 31
0.0
  0
LINE
  5
2746
330
2696
100
AcDbEntity
  8
0
 62
     0
 48
10.0
100
AcDbLine
 10
102.1961933574011
 20
173.3836788697413
 30
0.0
 11
102.2052838400689
 21
173.3871683790986
 31
0.0
  0
LINE
  5
2747
330
2696
100
AcDbEntity
  8
0
 62
     0
 48
10.0
100
AcDbLine
 10
99.05585665719607
 20
168.3877162434308
 30
0.0
 11
99.15534116590269
 21
168.3206130950143
 31
0.0
  0
LINE
  5
2748
330
2696
100
AcDbEntity
  8
0
 62
     0
 48
10.0
100
AcDbLine
 10
100.2496707616753
 20
167.5824784624329
 30
0.0
 11
100.3491552703819
 21
167.5153753140165
 31
0.0
  0
LINE
  5
2749
330
2696
100
AcDbEntity
  8
0
 62
     0
 48
10.0
100
AcDbLine
 10
101.4434848661545
 20
166.7772406814351
 30
0.0
 11
101.5429693748612
 21
166.7101375330186
 31
0.0
  0
LINE
  5
274A
330
2696
100
AcDbEntity
  8
0
 62
     0
 48
10.0
100
AcDbLine
 10
102.6372989706338
 20
165.9720029004372
 30
0.0
 11
102.7367834793404
 21
165.9048997520207
 31
0.0
  0
LINE
  5
274B
330
2696
100
AcDbEntity
  8
0
 62
     0
 48
10.0
100
AcDbLine
 10
98.43880677060223
 20
170.5824582646676
 30
0.0
 11
98.44815772526658
 21
170.5761509661059
 31
0.0
  0
LINE
  5
274C
330
2696
100
AcDbEntity
  8
0
 62
     0
 48
10.0
100
AcDbLine
 10
99.54248732103922
 20
169.8380163335245
 30
0.0
 11
99.64197182974583
 21
169.7709131851081
 31
0.0
  0
LINE
  5
274D
330
2696
100
AcDbEntity
  8
0
 62
     0
 48
10.0
100
AcDbLine
 10
100.7363014255185
 20
169.0327785525267
 30
0.0
 11
100.8357859342251
 21
168.9656754041102
 31
0.0
  0
LINE
  5
274E
330
2696
100
AcDbEntity
  8
0
 62
     0
 48
10.0
100
AcDbLine
 10
101.9301155299977
 20
168.2275407715288
 30
0.0
 11
102.0296000387043
 21
168.1604376231123
 31
0.0
  0
LINE
  5
274F
330
2696
100
AcDbEntity
  8
0
 62
     0
 48
10.0
100
AcDbLine
 10
103.123929634477
 20
167.4223029905309
 30
0.0
 11
103.2234141431836
 21
167.3551998421144
 31
0.0
  0
LINE
  5
2750
330
2696
100
AcDbEntity
  8
0
 62
     0
 48
10.0
100
AcDbLine
 10
98.83530388040313
 20
172.0935542046161
 30
0.0
 11
98.93478838910974
 21
172.0264510561996
 31
0.0
  0
LINE
  5
2751
330
2696
100
AcDbEntity
  8
0
 62
     0
 48
10.0
100
AcDbLine
 10
100.0291179848823
 20
171.2883164236182
 30
0.0
 11
100.1286024935889
 21
171.2212132752017
 31
0.0
  0
LINE
  5
2752
330
2696
100
AcDbEntity
  8
0
 62
     0
 48
10.0
100
AcDbLine
 10
101.2229320893616
 20
170.4830786426204
 30
0.0
 11
101.3224165980682
 21
170.4159754942039
 31
0.0
  0
LINE
  5
2753
330
2696
100
AcDbEntity
  8
0
 62
     0
 48
10.0
100
AcDbLine
 10
102.4167461938409
 20
169.6778408616225
 30
0.0
 11
102.5162307025475
 21
169.610737713206
 31
0.0
  0
LINE
  5
2754
330
2696
100
AcDbEntity
  8
0
 62
     0
 48
10.0
100
AcDbLine
 10
100.5157486487255
 20
172.738616513712
 30
0.0
 11
100.6152331574321
 21
172.6715133652955
 31
0.0
  0
LINE
  5
2755
330
2696
100
AcDbEntity
  8
0
 62
     0
 48
10.0
100
AcDbLine
 10
101.7095627532048
 20
171.9333787327141
 30
0.0
 11
101.8090472619114
 21
171.8662755842976
 31
0.0
  0
LINE
  5
2756
330
2696
100
AcDbEntity
  8
0
 62
     0
 48
10.0
100
AcDbLine
 10
102.903376857684
 20
171.1281409517162
 30
0.0
 11
102.9632557549114
 21
171.0877521255573
 31
0.0
  0
LINE
  5
2757
330
2696
100
AcDbEntity
  8
0
 62
     0
 48
10.0
100
AcDbLine
 10
102.1961934170479
 20
173.3836788228078
 30
0.0
 11
102.2956779257546
 21
173.3165756743913
 31
0.0
  0
LINE
  5
2758
330
2696
100
AcDbEntity
  8
0
 62
     0
 48
10.0
100
AcDbLine
 10
98.56922599335291
 20
166.9374161533372
 30
0.0
 11
98.66871050205952
 21
166.8703130049207
 31
0.0
  0
LINE
  5
2759
330
2696
100
AcDbEntity
  8
0
 62
     0
 48
10.0
100
AcDbLine
 10
99.76304009783218
 20
166.1321783723393
 30
0.0
 11
99.86252460653879
 21
166.0650752239228
 31
0.0
  0
LINE
  5
275A
330
2696
100
AcDbEntity
  8
0
 62
     0
 48
10.0
100
AcDbLine
 10
100.9568542023114
 20
165.3269405913414
 30
0.0
 11
101.056338711018
 21
165.259837442925
 31
0.0
  0
LINE
  5
275B
330
2696
100
AcDbEntity
  8
0
 62
     0
 48
10.0
100
AcDbLine
 10
102.1506683067906
 20
164.5217028103436
 30
0.0
 11
102.2501528154972
 21
164.4545996619271
 31
0.0
  0
LINE
  5
275C
330
2696
100
AcDbEntity
  8
0
 62
     0
 48
10.0
100
AcDbLine
 10
103.3444824112699
 20
163.7164650293457
 30
0.0
 11
103.4439669199765
 21
163.6493618809292
 31
0.0
  0
LINE
  5
275D
330
2696
100
AcDbEntity
  8
0
 62
     0
 48
10.0
100
AcDbLine
 10
98.08259532950975
 20
165.4871160632434
 30
0.0
 11
98.18207983821636
 21
165.4200129148269
 31
0.0
  0
LINE
  5
275E
330
2696
100
AcDbEntity
  8
0
 62
     0
 48
10.0
100
AcDbLine
 10
99.276409433989
 20
164.6818782822455
 30
0.0
 11
99.37589394269561
 21
164.614775133829
 31
0.0
  0
LINE
  5
275F
330
2696
100
AcDbEntity
  8
0
 62
     0
 48
10.0
100
AcDbLine
 10
100.4702235384682
 20
163.8766405012477
 30
0.0
 11
100.5697080471748
 21
163.8095373528312
 31
0.0
  0
LINE
  5
2760
330
2696
100
AcDbEntity
  8
0
 62
     0
 48
10.0
100
AcDbLine
 10
101.6640376429475
 20
163.0714027202498
 30
0.0
 11
101.7635221516541
 21
163.0042995718333
 31
0.0
  0
LINE
  5
2761
330
2696
100
AcDbEntity
  8
0
 62
     0
 48
10.0
100
AcDbLine
 10
102.8578517474267
 20
162.2661649392519
 30
0.0
 11
102.9573362561334
 21
162.1990617908354
 31
0.0
  0
LINE
  5
2762
330
2696
100
AcDbEntity
  8
0
 62
     0
 48
10.0
100
AcDbLine
 10
98.78977877014586
 20
163.2315781921519
 30
0.0
 11
98.88926327885247
 21
163.1644750437354
 31
0.0
  0
LINE
  5
2763
330
2696
100
AcDbEntity
  8
0
 62
     0
 48
10.0
100
AcDbLine
 10
99.98359287462513
 20
162.426340411154
 30
0.0
 11
100.0830773833317
 21
162.3592372627375
 31
0.0
  0
LINE
  5
2764
330
2696
100
AcDbEntity
  8
0
 62
     0
 48
10.0
100
AcDbLine
 10
101.1774069791043
 20
161.6211026301561
 30
0.0
 11
101.2768914878109
 21
161.5539994817396
 31
0.0
  0
LINE
  5
2765
330
2696
100
AcDbEntity
  8
0
 62
     0
 48
10.0
100
AcDbLine
 10
98.3031481063027
 20
161.7812781020582
 30
0.0
 11
98.40263261500929
 21
161.7141749536417
 31
0.0
  0
LINE
  5
2766
330
2696
100
AcDbEntity
  8
0
 62
     0
 48
10.0
100
AcDbLine
 10
98.40275806286673
 20
161.714097873231
 30
0.0
 11
98.44331071125983
 21
161.8349561786685
 31
0.0
  0
LINE
  5
2767
330
2696
100
AcDbEntity
  8
0
 62
     0
 48
10.0
100
AcDbLine
 10
98.88938985758079
 20
163.1643975801966
 30
0.0
 11
98.92994250597389
 21
163.2852558856342
 31
0.0
  0
LINE
  5
2768
330
2696
100
AcDbEntity
  8
0
 62
     0
 48
10.0
100
AcDbLine
 10
99.37602165229485
 20
164.6146972871622
 30
0.0
 11
99.41657430068794
 21
164.7355555925998
 31
0.0
  0
LINE
  5
2769
330
2696
100
AcDbEntity
  8
0
 62
     0
 48
10.0
100
AcDbLine
 10
99.86265344700889
 20
166.0649969941279
 30
0.0
 11
99.903206095402
 21
166.1858552995655
 31
0.0
  0
LINE
  5
276A
330
2696
100
AcDbEntity
  8
0
 62
     0
 48
10.0
100
AcDbLine
 10
100.3492852417229
 20
167.5152967010935
 30
0.0
 11
100.389837890116
 21
167.6361550065311
 31
0.0
  0
LINE
  5
276B
330
2696
100
AcDbEntity
  8
0
 62
     0
 48
10.0
100
AcDbLine
 10
100.8359170364369
 20
168.9655964080593
 30
0.0
 11
100.87646968483
 21
169.0864547134968
 31
0.0
  0
LINE
  5
276C
330
2696
100
AcDbEntity
  8
0
 62
     0
 48
10.0
100
AcDbLine
 10
101.322548831151
 20
170.4158961150249
 30
0.0
 11
101.3631014795441
 21
170.5367544204625
 31
0.0
  0
LINE
  5
276D
330
2696
100
AcDbEntity
  8
0
 62
     0
 48
10.0
100
AcDbLine
 10
101.8091806258651
 20
171.8661958219905
 30
0.0
 11
101.8497332742581
 21
171.9870541274281
 31
0.0
  0
LINE
  5
276E
330
2696
100
AcDbEntity
  8
0
 62
     0
 48
10.0
100
AcDbLine
 10
102.2958124205791
 20
173.3164955289562
 30
0.0
 11
102.3195259025147
 21
173.3871683790986
 31
0.0
  0
LINE
  5
276F
330
2696
100
AcDbEntity
  8
0
 62
     0
 48
10.0
100
AcDbLine
 10
100.0832033200296
 20
162.3591588666509
 30
0.0
 11
100.1237559684227
 21
162.4800171720885
 31
0.0
  0
LINE
  5
2770
330
2696
100
AcDbEntity
  8
0
 62
     0
 48
10.0
100
AcDbLine
 10
100.5698351147437
 20
163.8094585736165
 30
0.0
 11
100.6103877631368
 21
163.9303168790541
 31
0.0
  0
LINE
  5
2771
330
2696
100
AcDbEntity
  8
0
 62
     0
 48
10.0
100
AcDbLine
 10
101.0564669094578
 20
165.2597582805822
 30
0.0
 11
101.0970195578509
 21
165.3806165860198
 31
0.0
  0
LINE
  5
2772
330
2696
100
AcDbEntity
  8
0
 62
     0
 48
10.0
100
AcDbLine
 10
101.5430987041718
 20
166.7100579875478
 30
0.0
 11
101.5836513525649
 21
166.8309162929854
 31
0.0
  0
LINE
  5
2773
330
2696
100
AcDbEntity
  8
0
 62
     0
 48
10.0
100
AcDbLine
 10
102.0297304988859
 20
168.1603576945135
 30
0.0
 11
102.070283147279
 21
168.2812159999511
 31
0.0
  0
LINE
  5
2774
330
2696
100
AcDbEntity
  8
0
 62
     0
 48
10.0
100
AcDbLine
 10
102.5163622935999
 20
169.6106574014791
 30
0.0
 11
102.556914941993
 21
169.7315157069167
 31
0.0
  0
LINE
  5
2775
330
2696
100
AcDbEntity
  8
0
 62
     0
 48
10.0
100
AcDbLine
 10
101.2770167824786
 20
161.5539201531051
 30
0.0
 11
101.3175694308717
 21
161.6747784585427
 31
0.0
  0
LINE
  5
2776
330
2696
100
AcDbEntity
  8
0
 62
     0
 48
10.0
100
AcDbLine
 10
101.7636485771926
 20
163.0042198600708
 30
0.0
 11
101.8042012255857
 21
163.1250781655084
 31
0.0
  0
LINE
  5
2777
330
2696
100
AcDbEntity
  8
0
 62
     0
 48
10.0
100
AcDbLine
 10
102.2502803719067
 20
164.4545195670364
 30
0.0
 11
102.2908330202998
 21
164.575377872474
 31
0.0
  0
LINE
  5
2778
330
2696
100
AcDbEntity
  8
0
 62
     0
 48
10.0
100
AcDbLine
 10
102.7369121666207
 20
165.904819274002
 30
0.0
 11
102.7774648150139
 21
166.0256775794396
 31
0.0
  0
LINE
  5
2779
330
2696
100
AcDbEntity
  8
0
 62
     0
 48
10.0
100
AcDbLine
 10
103.2235439613348
 20
167.3551189809677
 30
0.0
 11
103.2640966097279
 21
167.4759772864053
 31
0.0
  0
LINE
  5
277A
330
2696
100
AcDbEntity
  8
0
 62
     0
 48
10.0
100
AcDbLine
 10
102.9574620396416
 20
162.198981146525
 30
0.0
 11
102.9980146880347
 21
162.3198394519626
 31
0.0
  0
LINE
  5
277B
330
2696
100
AcDbEntity
  8
0
 62
     0
 48
10.0
100
AcDbLine
 10
103.4440938343556
 20
163.6492808534907
 30
0.0
 11
103.4846464827487
 21
163.7701391589282
 31
0.0
  0
LINE
  5
277C
330
2696
100
AcDbEntity
  8
0
 62
     0
 48
10.0
100
AcDbLine
 10
98.18220818984592
 20
165.419936000708
 30
0.0
 11
98.22276083823901
 21
165.5407943061456
 31
0.0
  0
LINE
  5
277D
330
2696
100
AcDbEntity
  8
0
 62
     0
 48
10.0
100
AcDbLine
 10
98.66883998455996
 20
166.8702357076736
 30
0.0
 11
98.70939263295307
 21
166.9910940131112
 31
0.0
  0
LINE
  5
277E
330
2696
100
AcDbEntity
  8
0
 62
     0
 48
10.0
100
AcDbLine
 10
99.15547177927402
 20
168.3205354146393
 30
0.0
 11
99.19602442766713
 21
168.4413937200769
 31
0.0
  0
LINE
  5
277F
330
2696
100
AcDbEntity
  8
0
 62
     0
 48
10.0
100
AcDbLine
 10
99.64210357398808
 20
169.7708351216049
 30
0.0
 11
99.68265622238119
 21
169.8916934270425
 31
0.0
  0
LINE
  5
2780
330
2696
100
AcDbEntity
  8
0
 62
     0
 48
10.0
100
AcDbLine
 10
100.1287353687021
 20
171.2211348285705
 30
0.0
 11
100.1692880170952
 21
171.3419931340081
 31
0.0
  0
LINE
  5
2781
330
2696
100
AcDbEntity
  8
0
 62
     0
 48
10.0
100
AcDbLine
 10
100.6153671634161
 20
172.6714345355362
 30
0.0
 11
100.6559198118093
 21
172.7922928409738
 31
0.0
  0
LINE
  5
2782
330
2696
100
AcDbEntity
  8
0
 62
     0
 48
10.0
100
AcDbLine
 10
98.44829011153915
 20
170.5760738351507
 30
0.0
 11
98.48884275993226
 21
170.6969321405883
 31
0.0
  0
LINE
  5
2783
330
2696
100
AcDbEntity
  8
0
 62
     0
 48
10.0
100
AcDbLine
 10
98.93492190625321
 20
172.0263735421164
 30
0.0
 11
98.97547455464632
 21
172.147231847554
 31
0.0
  0
LINE
  5
2784
330
2696
100
AcDbEntity
  8
0
 62
     0
 48
10.0
100
AcDbLine
 10
98.87955476242396
 20
165.8235396206003
 30
0.0
 11
98.87955476242396
 21
165.8235396206003
 31
0.0
  0
LINE
  5
2785
330
2696
100
AcDbEntity
  8
0
 62
     0
 48
10.0
100
AcDbLine
 10
99.94264823841421
 20
166.639279935472
 30
0.0
 11
99.94264823841421
 21
166.639279935472
 31
0.0
  0
LINE
  5
2786
330
2696
100
AcDbEntity
  8
0
 62
     0
 48
10.0
100
AcDbLine
 10
100.9938414143001
 20
167.4458888289085
 30
0.0
 11
100.9938414143001
 21
167.4458888289085
 31
0.0
  0
LINE
  5
2787
330
2696
100
AcDbEntity
  8
0
 62
     0
 48
10.0
100
AcDbLine
 10
102.0283741700398
 20
168.2397137323359
 30
0.0
 11
102.0283741700398
 21
168.2397137323359
 31
0.0
  0
LINE
  5
2788
330
2696
100
AcDbEntity
  8
0
 62
     0
 48
10.0
100
AcDbLine
 10
103.0914676460301
 20
169.0554540472076
 30
0.0
 11
103.0914676460301
 21
169.0554540472076
 31
0.0
  0
LINE
  5
2789
330
2696
100
AcDbEntity
  8
0
 62
     0
 48
10.0
100
AcDbLine
 10
98.90387447305849
 20
166.4893273282629
 30
0.0
 11
98.90387447305849
 21
166.4893273282629
 31
0.0
  0
LINE
  5
278A
330
2696
100
AcDbEntity
  8
0
 62
     0
 48
10.0
100
AcDbLine
 10
99.96696794904876
 20
167.3050676431346
 30
0.0
 11
99.96696794904876
 21
167.3050676431346
 31
0.0
  0
LINE
  5
278B
330
2696
100
AcDbEntity
  8
0
 62
     0
 48
10.0
100
AcDbLine
 10
101.0181611249346
 20
168.1116765365712
 30
0.0
 11
101.0181611249346
 21
168.1116765365712
 31
0.0
  0
LINE
  5
278C
330
2696
100
AcDbEntity
  8
0
 62
     0
 48
10.0
100
AcDbLine
 10
102.0526938806744
 20
168.9055014399986
 30
0.0
 11
102.0526938806744
 21
168.9055014399986
 31
0.0
  0
LINE
  5
278D
330
2696
100
AcDbEntity
  8
0
 62
     0
 48
10.0
100
AcDbLine
 10
98.92819418369311
 20
167.1551150359256
 30
0.0
 11
98.92819418369311
 21
167.1551150359256
 31
0.0
  0
LINE
  5
278E
330
2696
100
AcDbEntity
  8
0
 62
     0
 48
10.0
100
AcDbLine
 10
99.99128765968336
 20
167.9708553507972
 30
0.0
 11
99.99128765968336
 21
167.9708553507972
 31
0.0
  0
LINE
  5
278F
330
2696
100
AcDbEntity
  8
0
 62
     0
 48
10.0
100
AcDbLine
 10
101.0424808355692
 20
168.7774642442338
 30
0.0
 11
101.0424808355692
 21
168.7774642442338
 31
0.0
  0
LINE
  5
2790
330
2696
100
AcDbEntity
  8
0
 62
     0
 48
10.0
100
AcDbLine
 10
102.077013591309
 20
169.5712891476611
 30
0.0
 11
102.077013591309
 21
169.5712891476611
 31
0.0
  0
LINE
  5
2791
330
2696
100
AcDbEntity
  8
0
 62
     0
 48
10.0
100
AcDbLine
 10
98.95251389432766
 20
167.8209027435882
 30
0.0
 11
98.95251389432766
 21
167.8209027435882
 31
0.0
  0
LINE
  5
2792
330
2696
100
AcDbEntity
  8
0
 62
     0
 48
10.0
100
AcDbLine
 10
100.0156073703179
 20
168.6366430584598
 30
0.0
 11
100.0156073703179
 21
168.6366430584598
 31
0.0
  0
LINE
  5
2793
330
2696
100
AcDbEntity
  8
0
 62
     0
 48
10.0
100
AcDbLine
 10
101.0668005462038
 20
169.4432519518964
 30
0.0
 11
101.0668005462038
 21
169.4432519518964
 31
0.0
  0
LINE
  5
2794
330
2696
100
AcDbEntity
  8
0
 62
     0
 48
10.0
100
AcDbLine
 10
102.1013333019435
 20
170.2370768553238
 30
0.0
 11
102.1013333019435
 21
170.2370768553238
 31
0.0
  0
LINE
  5
2795
330
2696
100
AcDbEntity
  8
0
 62
     0
 48
10.0
100
AcDbLine
 10
98.97683360496225
 20
168.4866904512508
 30
0.0
 11
98.97683360496225
 21
168.4866904512508
 31
0.0
  0
LINE
  5
2796
330
2696
100
AcDbEntity
  8
0
 62
     0
 48
10.0
100
AcDbLine
 10
100.0399270809525
 20
169.3024307661225
 30
0.0
 11
100.0399270809525
 21
169.3024307661225
 31
0.0
  0
LINE
  5
2797
330
2696
100
AcDbEntity
  8
0
 62
     0
 48
10.0
100
AcDbLine
 10
101.0911202568383
 20
170.109039659559
 30
0.0
 11
101.0911202568383
 21
170.109039659559
 31
0.0
  0
LINE
  5
2798
330
2696
100
AcDbEntity
  8
0
 62
     0
 48
10.0
100
AcDbLine
 10
102.1256530125781
 20
170.9028645629864
 30
0.0
 11
102.1256530125781
 21
170.9028645629864
 31
0.0
  0
LINE
  5
2799
330
2696
100
AcDbEntity
  8
0
 62
     0
 48
10.0
100
AcDbLine
 10
99.00115331559684
 20
169.1524781589134
 30
0.0
 11
99.00115331559684
 21
169.1524781589134
 31
0.0
  0
LINE
  5
279A
330
2696
100
AcDbEntity
  8
0
 62
     0
 48
10.0
100
AcDbLine
 10
100.064246791587
 20
169.9682184737851
 30
0.0
 11
100.064246791587
 21
169.9682184737851
 31
0.0
  0
LINE
  5
279B
330
2696
100
AcDbEntity
  8
0
 62
     0
 48
10.0
100
AcDbLine
 10
101.1154399674729
 20
170.7748273672217
 30
0.0
 11
101.1154399674729
 21
170.7748273672217
 31
0.0
  0
LINE
  5
279C
330
2696
100
AcDbEntity
  8
0
 62
     0
 48
10.0
100
AcDbLine
 10
102.1499727232127
 20
171.5686522706491
 30
0.0
 11
102.1499727232127
 21
171.5686522706491
 31
0.0
  0
LINE
  5
279D
330
2696
100
AcDbEntity
  8
0
 62
     0
 48
10.0
100
AcDbLine
 10
99.0254730262314
 20
169.818265866576
 30
0.0
 11
99.0254730262314
 21
169.818265866576
 31
0.0
  0
LINE
  5
279E
330
2696
100
AcDbEntity
  8
0
 62
     0
 48
10.0
100
AcDbLine
 10
100.0885665022216
 20
170.6340061814477
 30
0.0
 11
100.0885665022216
 21
170.6340061814477
 31
0.0
  0
LINE
  5
279F
330
2696
100
AcDbEntity
  8
0
 62
     0
 48
10.0
100
AcDbLine
 10
101.1397596781075
 20
171.4406150748843
 30
0.0
 11
101.1397596781075
 21
171.4406150748843
 31
0.0
  0
LINE
  5
27A0
330
2696
100
AcDbEntity
  8
0
 62
     0
 48
10.0
100
AcDbLine
 10
102.1742924338473
 20
172.2344399783117
 30
0.0
 11
102.1742924338473
 21
172.2344399783117
 31
0.0
  0
LINE
  5
27A1
330
2696
100
AcDbEntity
  8
0
 62
     0
 48
10.0
100
AcDbLine
 10
99.04979273686599
 20
170.4840535742386
 30
0.0
 11
99.04979273686599
 21
170.4840535742386
 31
0.0
  0
LINE
  5
27A2
330
2696
100
AcDbEntity
  8
0
 62
     0
 48
10.0
100
AcDbLine
 10
100.1128862128562
 20
171.2997938891103
 30
0.0
 11
100.1128862128562
 21
171.2997938891103
 31
0.0
  0
LINE
  5
27A3
330
2696
100
AcDbEntity
  8
0
 62
     0
 48
10.0
100
AcDbLine
 10
101.1640793887421
 20
172.1064027825469
 30
0.0
 11
101.1640793887421
 21
172.1064027825469
 31
0.0
  0
LINE
  5
27A4
330
2696
100
AcDbEntity
  8
0
 62
     0
 48
10.0
100
AcDbLine
 10
102.1986121444819
 20
172.9002276859743
 30
0.0
 11
102.1986121444819
 21
172.9002276859743
 31
0.0
  0
LINE
  5
27A5
330
2696
100
AcDbEntity
  8
0
 62
     0
 48
10.0
100
AcDbLine
 10
99.07411244750058
 20
171.1498412819013
 30
0.0
 11
99.07411244750058
 21
171.1498412819013
 31
0.0
  0
LINE
  5
27A6
330
2696
100
AcDbEntity
  8
0
 62
     0
 48
10.0
100
AcDbLine
 10
100.1372059234908
 20
171.965581596773
 30
0.0
 11
100.1372059234908
 21
171.965581596773
 31
0.0
  0
LINE
  5
27A7
330
2696
100
AcDbEntity
  8
0
 62
     0
 48
10.0
100
AcDbLine
 10
101.1883990993767
 20
172.7721904902095
 30
0.0
 11
101.1883990993767
 21
172.7721904902095
 31
0.0
  0
LINE
  5
27A8
330
2696
100
AcDbEntity
  8
0
 62
     0
 48
10.0
100
AcDbLine
 10
99.09843215813518
 20
171.8156289895639
 30
0.0
 11
99.09843215813518
 21
171.8156289895639
 31
0.0
  0
LINE
  5
27A9
330
2696
100
AcDbEntity
  8
0
 62
     0
 48
10.0
100
AcDbLine
 10
100.1615256341254
 20
172.6313693044356
 30
0.0
 11
100.1615256341254
 21
172.6313693044356
 31
0.0
  0
LINE
  5
27AA
330
2696
100
AcDbEntity
  8
0
 62
     0
 48
10.0
100
AcDbLine
 10
99.12275186876975
 20
172.4814166972265
 30
0.0
 11
99.12275186876975
 21
172.4814166972265
 31
0.0
  0
LINE
  5
27AB
330
2696
100
AcDbEntity
  8
0
 62
     0
 48
10.0
100
AcDbLine
 10
100.18584534476
 20
173.2971570120982
 30
0.0
 11
100.18584534476
 21
173.2971570120982
 31
0.0
  0
LINE
  5
27AC
330
2696
100
AcDbEntity
  8
0
 62
     0
 48
10.0
100
AcDbLine
 10
99.14707157940434
 20
173.1472044048891
 30
0.0
 11
99.14707157940434
 21
173.1472044048891
 31
0.0
  0
LINE
  5
27AD
330
2696
100
AcDbEntity
  8
0
 62
     0
 48
10.0
100
AcDbLine
 10
97.82070229604959
 20
164.3639270095103
 30
0.0
 11
97.82070229604959
 21
164.3639270095103
 31
0.0
  0
LINE
  5
27AE
330
2696
100
AcDbEntity
  8
0
 62
     0
 48
10.0
100
AcDbLine
 10
98.85523505178937
 20
165.1577519129377
 30
0.0
 11
98.85523505178937
 21
165.1577519129377
 31
0.0
  0
LINE
  5
27AF
330
2696
100
AcDbEntity
  8
0
 62
     0
 48
10.0
100
AcDbLine
 10
99.91832852777962
 20
165.9734922278094
 30
0.0
 11
99.91832852777962
 21
165.9734922278094
 31
0.0
  0
LINE
  5
27B0
330
2696
100
AcDbEntity
  8
0
 62
     0
 48
10.0
100
AcDbLine
 10
100.9695217036654
 20
166.7801011212459
 30
0.0
 11
100.9695217036654
 21
166.7801011212459
 31
0.0
  0
LINE
  5
27B1
330
2696
100
AcDbEntity
  8
0
 62
     0
 48
10.0
100
AcDbLine
 10
102.0040544594052
 20
167.5739260246733
 30
0.0
 11
102.0040544594052
 21
167.5739260246733
 31
0.0
  0
LINE
  5
27B2
330
2696
100
AcDbEntity
  8
0
 62
     0
 48
10.0
100
AcDbLine
 10
103.0671479353955
 20
168.389666339545
 30
0.0
 11
103.0671479353955
 21
168.389666339545
 31
0.0
  0
LINE
  5
27B3
330
2696
100
AcDbEntity
  8
0
 62
     0
 48
10.0
100
AcDbLine
 10
97.79638258541503
 20
163.6981393018477
 30
0.0
 11
97.79638258541503
 21
163.6981393018477
 31
0.0
  0
LINE
  5
27B4
330
2696
100
AcDbEntity
  8
0
 62
     0
 48
10.0
100
AcDbLine
 10
98.83091534115481
 20
164.4919642052751
 30
0.0
 11
98.83091534115481
 21
164.4919642052751
 31
0.0
  0
LINE
  5
27B5
330
2696
100
AcDbEntity
  8
0
 62
     0
 48
10.0
100
AcDbLine
 10
99.89400881714507
 20
165.3077045201467
 30
0.0
 11
99.89400881714507
 21
165.3077045201467
 31
0.0
  0
LINE
  5
27B6
330
2696
100
AcDbEntity
  8
0
 62
     0
 48
10.0
100
AcDbLine
 10
100.9452019930308
 20
166.1143134135833
 30
0.0
 11
100.9452019930308
 21
166.1143134135833
 31
0.0
  0
LINE
  5
27B7
330
2696
100
AcDbEntity
  8
0
 62
     0
 48
10.0
100
AcDbLine
 10
101.9797347487706
 20
166.9081383170107
 30
0.0
 11
101.9797347487706
 21
166.9081383170107
 31
0.0
  0
LINE
  5
27B8
330
2696
100
AcDbEntity
  8
0
 62
     0
 48
10.0
100
AcDbLine
 10
103.0428282247609
 20
167.7238786318824
 30
0.0
 11
103.0428282247609
 21
167.7238786318824
 31
0.0
  0
LINE
  5
27B9
330
2696
100
AcDbEntity
  8
0
 62
     0
 48
10.0
100
AcDbLine
 10
97.77206287478044
 20
163.0323515941851
 30
0.0
 11
97.77206287478044
 21
163.0323515941851
 31
0.0
  0
LINE
  5
27BA
330
2696
100
AcDbEntity
  8
0
 62
     0
 48
10.0
100
AcDbLine
 10
98.80659563052022
 20
163.8261764976125
 30
0.0
 11
98.80659563052022
 21
163.8261764976125
 31
0.0
  0
LINE
  5
27BB
330
2696
100
AcDbEntity
  8
0
 62
     0
 48
10.0
100
AcDbLine
 10
99.86968910651048
 20
164.6419168124841
 30
0.0
 11
99.86968910651048
 21
164.6419168124841
 31
0.0
  0
LINE
  5
27BC
330
2696
100
AcDbEntity
  8
0
 62
     0
 48
10.0
100
AcDbLine
 10
100.9208822823963
 20
165.4485257059207
 30
0.0
 11
100.9208822823963
 21
165.4485257059207
 31
0.0
  0
LINE
  5
27BD
330
2696
100
AcDbEntity
  8
0
 62
     0
 48
10.0
100
AcDbLine
 10
101.9554150381361
 20
166.2423506093481
 30
0.0
 11
101.9554150381361
 21
166.2423506093481
 31
0.0
  0
LINE
  5
27BE
330
2696
100
AcDbEntity
  8
0
 62
     0
 48
10.0
100
AcDbLine
 10
103.0185085141263
 20
167.0580909242197
 30
0.0
 11
103.0185085141263
 21
167.0580909242197
 31
0.0
  0
LINE
  5
27BF
330
2696
100
AcDbEntity
  8
0
 62
     0
 48
10.0
100
AcDbLine
 10
97.74774316414585
 20
162.3665638865225
 30
0.0
 11
97.74774316414585
 21
162.3665638865225
 31
0.0
  0
LINE
  5
27C0
330
2696
100
AcDbEntity
  8
0
 62
     0
 48
10.0
100
AcDbLine
 10
98.78227591988562
 20
163.1603887899498
 30
0.0
 11
98.78227591988562
 21
163.1603887899498
 31
0.0
  0
LINE
  5
27C1
330
2696
100
AcDbEntity
  8
0
 62
     0
 48
10.0
100
AcDbLine
 10
99.84536939587588
 20
163.9761291048215
 30
0.0
 11
99.84536939587588
 21
163.9761291048215
 31
0.0
  0
LINE
  5
27C2
330
2696
100
AcDbEntity
  8
0
 62
     0
 48
10.0
100
AcDbLine
 10
100.8965625717617
 20
164.782737998258
 30
0.0
 11
100.8965625717617
 21
164.782737998258
 31
0.0
  0
LINE
  5
27C3
330
2696
100
AcDbEntity
  8
0
 62
     0
 48
10.0
100
AcDbLine
 10
101.9310953275015
 20
165.5765629016854
 30
0.0
 11
101.9310953275015
 21
165.5765629016854
 31
0.0
  0
LINE
  5
27C4
330
2696
100
AcDbEntity
  8
0
 62
     0
 48
10.0
100
AcDbLine
 10
102.9941888034917
 20
166.3923032165571
 30
0.0
 11
102.9941888034917
 21
166.3923032165571
 31
0.0
  0
LINE
  5
27C5
330
2696
100
AcDbEntity
  8
0
 62
     0
 48
10.0
100
AcDbLine
 10
97.72342345351127
 20
161.7007761788598
 30
0.0
 11
97.72342345351127
 21
161.7007761788598
 31
0.0
  0
LINE
  5
27C6
330
2696
100
AcDbEntity
  8
0
 62
     0
 48
10.0
100
AcDbLine
 10
98.75795620925105
 20
162.4946010822872
 30
0.0
 11
98.75795620925105
 21
162.4946010822872
 31
0.0
  0
LINE
  5
27C7
330
2696
100
AcDbEntity
  8
0
 62
     0
 48
10.0
100
AcDbLine
 10
99.82104968524131
 20
163.3103413971589
 30
0.0
 11
99.82104968524131
 21
163.3103413971589
 31
0.0
  0
LINE
  5
27C8
330
2696
100
AcDbEntity
  8
0
 62
     0
 48
10.0
100
AcDbLine
 10
100.8722428611271
 20
164.1169502905954
 30
0.0
 11
100.8722428611271
 21
164.1169502905954
 31
0.0
  0
LINE
  5
27C9
330
2696
100
AcDbEntity
  8
0
 62
     0
 48
10.0
100
AcDbLine
 10
101.9067756168669
 20
164.9107751940228
 30
0.0
 11
101.9067756168669
 21
164.9107751940228
 31
0.0
  0
LINE
  5
27CA
330
2696
100
AcDbEntity
  8
0
 62
     0
 48
10.0
100
AcDbLine
 10
102.9698690928572
 20
165.7265155088945
 30
0.0
 11
102.9698690928572
 21
165.7265155088945
 31
0.0
  0
LINE
  5
27CB
330
2696
100
AcDbEntity
  8
0
 62
     0
 48
10.0
100
AcDbLine
 10
98.73363649861644
 20
161.8288133746245
 30
0.0
 11
98.73363649861644
 21
161.8288133746245
 31
0.0
  0
LINE
  5
27CC
330
2696
100
AcDbEntity
  8
0
 62
     0
 48
10.0
100
AcDbLine
 10
99.79672997460671
 20
162.6445536894962
 30
0.0
 11
99.79672997460671
 21
162.6445536894962
 31
0.0
  0
LINE
  5
27CD
330
2696
100
AcDbEntity
  8
0
 62
     0
 48
10.0
100
AcDbLine
 10
100.8479231504925
 20
163.4511625829328
 30
0.0
 11
100.8479231504925
 21
163.4511625829328
 31
0.0
  0
LINE
  5
27CE
330
2696
100
AcDbEntity
  8
0
 62
     0
 48
10.0
100
AcDbLine
 10
101.8824559062323
 20
164.2449874863602
 30
0.0
 11
101.8824559062323
 21
164.2449874863602
 31
0.0
  0
LINE
  5
27CF
330
2696
100
AcDbEntity
  8
0
 62
     0
 48
10.0
100
AcDbLine
 10
102.9455493822226
 20
165.0607278012319
 30
0.0
 11
102.9455493822226
 21
165.0607278012319
 31
0.0
  0
LINE
  5
27D0
330
2696
100
AcDbEntity
  8
0
 62
     0
 48
10.0
100
AcDbLine
 10
99.77241026397212
 20
161.9787659818336
 30
0.0
 11
99.77241026397212
 21
161.9787659818336
 31
0.0
  0
LINE
  5
27D1
330
2696
100
AcDbEntity
  8
0
 62
     0
 48
10.0
100
AcDbLine
 10
100.823603439858
 20
162.7853748752702
 30
0.0
 11
100.823603439858
 21
162.7853748752702
 31
0.0
  0
LINE
  5
27D2
330
2696
100
AcDbEntity
  8
0
 62
     0
 48
10.0
100
AcDbLine
 10
101.8581361955977
 20
163.5791997786975
 30
0.0
 11
101.8581361955977
 21
163.5791997786975
 31
0.0
  0
LINE
  5
27D3
330
2696
100
AcDbEntity
  8
0
 62
     0
 48
10.0
100
AcDbLine
 10
102.921229671588
 20
164.3949400935692
 30
0.0
 11
102.921229671588
 21
164.3949400935692
 31
0.0
  0
LINE
  5
27D4
330
2696
100
AcDbEntity
  8
0
 62
     0
 48
10.0
100
AcDbLine
 10
100.7992837292234
 20
162.1195871676075
 30
0.0
 11
100.7992837292234
 21
162.1195871676075
 31
0.0
  0
LINE
  5
27D5
330
2696
100
AcDbEntity
  8
0
 62
     0
 48
10.0
100
AcDbLine
 10
101.8338164849632
 20
162.9134120710349
 30
0.0
 11
101.8338164849632
 21
162.9134120710349
 31
0.0
  0
LINE
  5
27D6
330
2696
100
AcDbEntity
  8
0
 62
     0
 48
10.0
100
AcDbLine
 10
102.8969099609534
 20
163.7291523859066
 30
0.0
 11
102.8969099609534
 21
163.7291523859066
 31
0.0
  0
LINE
  5
27D7
330
2696
100
AcDbEntity
  8
0
 62
     0
 48
10.0
100
AcDbLine
 10
100.7749640185888
 20
161.4537994599449
 30
0.0
 11
100.7749640185888
 21
161.4537994599449
 31
0.0
  0
LINE
  5
27D8
330
2696
100
AcDbEntity
  8
0
 62
     0
 48
10.0
100
AcDbLine
 10
101.8094967743286
 20
162.2476243633723
 30
0.0
 11
101.8094967743286
 21
162.2476243633723
 31
0.0
  0
LINE
  5
27D9
330
2696
100
AcDbEntity
  8
0
 62
     0
 48
10.0
100
AcDbLine
 10
102.8725902503188
 20
163.063364678244
 30
0.0
 11
102.8725902503188
 21
163.063364678244
 31
0.0
  0
LINE
  5
27DA
330
2696
100
AcDbEntity
  8
0
 62
     0
 48
10.0
100
AcDbLine
 10
101.785177063694
 20
161.5818366557097
 30
0.0
 11
101.785177063694
 21
161.5818366557097
 31
0.0
  0
LINE
  5
27DB
330
2696
100
AcDbEntity
  8
0
 62
     0
 48
10.0
100
AcDbLine
 10
102.8482705396843
 20
162.3975769705814
 30
0.0
 11
102.8482705396843
 21
162.3975769705814
 31
0.0
  0
LINE
  5
27DC
330
2696
100
AcDbEntity
  8
0
 62
     0
 48
10.0
100
AcDbLine
 10
102.8239508290497
 20
161.7317892629188
 30
0.0
 11
102.8239508290497
 21
161.7317892629188
 31
0.0
  0
LINE
  5
27DD
330
2696
100
AcDbEntity
  8
0
 62
     0
 48
10.0
100
AcDbLine
 10
103.850824294301
 20
161.8726104486927
 30
0.0
 11
103.850824294301
 21
161.8726104486927
 31
0.0
  0
LINE
  5
27DE
330
2696
100
AcDbEntity
  8
0
 62
     0
 48
10.0
100
AcDbLine
 10
98.22376020448764
 20
166.9163660556127
 30
0.0
 11
98.22376020448764
 21
166.9163660556127
 31
0.0
  0
LINE
  5
27DF
330
2696
100
AcDbEntity
  8
0
 62
     0
 48
10.0
100
AcDbLine
 10
99.48686095787786
 20
167.0826564245011
 30
0.0
 11
99.48686095787786
 21
167.0826564245011
 31
0.0
  0
LINE
  5
27E0
330
2696
100
AcDbEntity
  8
0
 62
     0
 48
10.0
100
AcDbLine
 10
99.98754061287165
 20
167.1485721515722
 30
0.0
 11
99.98754061287165
 21
167.1485721515722
 31
0.0
  0
LINE
  5
27E1
330
2696
100
AcDbEntity
  8
0
 62
     0
 48
10.0
100
AcDbLine
 10
100.7450044869612
 20
167.2482941624283
 30
0.0
 11
100.7450044869612
 21
167.2482941624283
 31
0.0
  0
LINE
  5
27E2
330
2696
100
AcDbEntity
  8
0
 62
     0
 48
10.0
100
AcDbLine
 10
102.0081052403514
 20
167.4145845313166
 30
0.0
 11
102.0081052403514
 21
167.4145845313166
 31
0.0
  0
LINE
  5
27E3
330
2696
100
AcDbEntity
  8
0
 62
     0
 48
10.0
100
AcDbLine
 10
102.5087848953452
 20
167.4805002583877
 30
0.0
 11
102.5087848953452
 21
167.4805002583877
 31
0.0
  0
LINE
  5
27E4
330
2696
100
AcDbEntity
  8
0
 62
     0
 48
10.0
100
AcDbLine
 10
103.2662487694348
 20
167.5802222692439
 30
0.0
 11
103.2662487694348
 21
167.5802222692439
 31
0.0
  0
LINE
  5
27E5
330
2696
100
AcDbEntity
  8
0
 62
     0
 48
10.0
100
AcDbLine
 10
98.74989927937194
 20
167.7051894793774
 30
0.0
 11
98.74989927937194
 21
167.7051894793774
 31
0.0
  0
LINE
  5
27E6
330
2696
100
AcDbEntity
  8
0
 62
     0
 48
10.0
100
AcDbLine
 10
100.0130000327621
 20
167.8714798482658
 30
0.0
 11
100.0130000327621
 21
167.8714798482658
 31
0.0
  0
LINE
  5
27E7
330
2696
100
AcDbEntity
  8
0
 62
     0
 48
10.0
100
AcDbLine
 10
100.5136796877559
 20
167.9373955753369
 30
0.0
 11
100.5136796877559
 21
167.9373955753369
 31
0.0
  0
LINE
  5
27E8
330
2696
100
AcDbEntity
  8
0
 62
     0
 48
10.0
100
AcDbLine
 10
101.2711435618455
 20
168.037117586193
 30
0.0
 11
101.2711435618455
 21
168.037117586193
 31
0.0
  0
LINE
  5
27E9
330
2696
100
AcDbEntity
  8
0
 62
     0
 48
10.0
100
AcDbLine
 10
102.5342443152357
 20
168.2034079550814
 30
0.0
 11
102.5342443152357
 21
168.2034079550814
 31
0.0
  0
LINE
  5
27EA
330
2696
100
AcDbEntity
  8
0
 62
     0
 48
10.0
100
AcDbLine
 10
103.0349239702295
 20
168.2693236821525
 30
0.0
 11
103.0349239702295
 21
168.2693236821525
 31
0.0
  0
LINE
  5
27EB
330
2696
100
AcDbEntity
  8
0
 62
     0
 48
10.0
100
AcDbLine
 10
98.51857448016664
 20
168.394290892286
 30
0.0
 11
98.51857448016664
 21
168.394290892286
 31
0.0
  0
LINE
  5
27EC
330
2696
100
AcDbEntity
  8
0
 62
     0
 48
10.0
100
AcDbLine
 10
99.27603835425623
 20
168.4940129031421
 30
0.0
 11
99.27603835425623
 21
168.4940129031421
 31
0.0
  0
LINE
  5
27ED
330
2696
100
AcDbEntity
  8
0
 62
     0
 48
10.0
100
AcDbLine
 10
100.5391391076464
 20
168.6603032720305
 30
0.0
 11
100.5391391076464
 21
168.6603032720305
 31
0.0
  0
LINE
  5
27EE
330
2696
100
AcDbEntity
  8
0
 62
     0
 48
10.0
100
AcDbLine
 10
101.0398187626402
 20
168.7262189991016
 30
0.0
 11
101.0398187626402
 21
168.7262189991016
 31
0.0
  0
LINE
  5
27EF
330
2696
100
AcDbEntity
  8
0
 62
     0
 48
10.0
100
AcDbLine
 10
101.7972826367298
 20
168.8259410099577
 30
0.0
 11
101.7972826367298
 21
168.8259410099577
 31
0.0
  0
LINE
  5
27F0
330
2696
100
AcDbEntity
  8
0
 62
     0
 48
10.0
100
AcDbLine
 10
103.06038339012
 20
168.9922313788461
 30
0.0
 11
103.06038339012
 21
168.9922313788461
 31
0.0
  0
LINE
  5
27F1
330
2696
100
AcDbEntity
  8
0
 62
     0
 48
10.0
100
AcDbLine
 10
98.54403390005714
 20
169.1171985889796
 30
0.0
 11
98.54403390005714
 21
169.1171985889796
 31
0.0
  0
LINE
  5
27F2
330
2696
100
AcDbEntity
  8
0
 62
     0
 48
10.0
100
AcDbLine
 10
99.04471355505092
 20
169.1831143160507
 30
0.0
 11
99.04471355505092
 21
169.1831143160507
 31
0.0
  0
LINE
  5
27F3
330
2696
100
AcDbEntity
  8
0
 62
     0
 48
10.0
100
AcDbLine
 10
99.80217742914051
 20
169.2828363269068
 30
0.0
 11
99.80217742914051
 21
169.2828363269068
 31
0.0
  0
LINE
  5
27F4
330
2696
100
AcDbEntity
  8
0
 62
     0
 48
10.0
100
AcDbLine
 10
101.0652781825307
 20
169.4491266957952
 30
0.0
 11
101.0652781825307
 21
169.4491266957952
 31
0.0
  0
LINE
  5
27F5
330
2696
100
AcDbEntity
  8
0
 62
     0
 48
10.0
100
AcDbLine
 10
101.5659578375245
 20
169.5150424228663
 30
0.0
 11
101.5659578375245
 21
169.5150424228663
 31
0.0
  0
LINE
  5
27F6
330
2696
100
AcDbEntity
  8
0
 62
     0
 48
10.0
100
AcDbLine
 10
102.3234217116141
 20
169.6147644337225
 30
0.0
 11
102.3234217116141
 21
169.6147644337225
 31
0.0
  0
LINE
  5
27F7
330
2696
100
AcDbEntity
  8
0
 62
     0
 48
10.0
100
AcDbLine
 10
99.07017297494146
 20
169.9060220127443
 30
0.0
 11
99.07017297494146
 21
169.9060220127443
 31
0.0
  0
LINE
  5
27F8
330
2696
100
AcDbEntity
  8
0
 62
     0
 48
10.0
100
AcDbLine
 10
99.57085262993523
 20
169.9719377398154
 30
0.0
 11
99.57085262993523
 21
169.9719377398154
 31
0.0
  0
LINE
  5
27F9
330
2696
100
AcDbEntity
  8
0
 62
     0
 48
10.0
100
AcDbLine
 10
100.3283165040248
 20
170.0716597506715
 30
0.0
 11
100.3283165040248
 21
170.0716597506715
 31
0.0
  0
LINE
  5
27FA
330
2696
100
AcDbEntity
  8
0
 62
     0
 48
10.0
100
AcDbLine
 10
101.591417257415
 20
170.2379501195599
 30
0.0
 11
101.591417257415
 21
170.2379501195599
 31
0.0
  0
LINE
  5
27FB
330
2696
100
AcDbEntity
  8
0
 62
     0
 48
10.0
100
AcDbLine
 10
102.0920969124088
 20
170.303865846631
 30
0.0
 11
102.0920969124088
 21
170.303865846631
 31
0.0
  0
LINE
  5
27FC
330
2696
100
AcDbEntity
  8
0
 62
     0
 48
10.0
100
AcDbLine
 10
102.8495607864984
 20
170.4035878574871
 30
0.0
 11
102.8495607864984
 21
170.4035878574871
 31
0.0
  0
LINE
  5
27FD
330
2696
100
AcDbEntity
  8
0
 62
     0
 48
10.0
100
AcDbLine
 10
99.59631204982574
 20
170.694845436509
 30
0.0
 11
99.59631204982574
 21
170.694845436509
 31
0.0
  0
LINE
  5
27FE
330
2696
100
AcDbEntity
  8
0
 62
     0
 48
10.0
100
AcDbLine
 10
100.0969917048195
 20
170.7607611635801
 30
0.0
 11
100.0969917048195
 21
170.7607611635801
 31
0.0
  0
LINE
  5
27FF
330
2696
100
AcDbEntity
  8
0
 62
     0
 48
10.0
100
AcDbLine
 10
100.8544555789091
 20
170.8604831744363
 30
0.0
 11
100.8544555789091
 21
170.8604831744363
 31
0.0
  0
LINE
  5
2800
330
2696
100
AcDbEntity
  8
0
 62
     0
 48
10.0
100
AcDbLine
 10
102.1175563322993
 20
171.0267735433247
 30
0.0
 11
102.1175563322993
 21
171.0267735433247
 31
0.0
  0
LINE
  5
2801
330
2696
100
AcDbEntity
  8
0
 62
     0
 48
10.0
100
AcDbLine
 10
102.6182359872931
 20
171.0926892703958
 30
0.0
 11
102.6182359872931
 21
171.0926892703958
 31
0.0
  0
LINE
  5
2802
330
2696
100
AcDbEntity
  8
0
 62
     0
 48
10.0
100
AcDbLine
 10
98.85935037131984
 20
171.3173784913854
 30
0.0
 11
98.85935037131984
 21
171.3173784913854
 31
0.0
  0
LINE
  5
2803
330
2696
100
AcDbEntity
  8
0
 62
     0
 48
10.0
100
AcDbLine
 10
100.12245112471
 20
171.4836688602737
 30
0.0
 11
100.12245112471
 21
171.4836688602737
 31
0.0
  0
LINE
  5
2804
330
2696
100
AcDbEntity
  8
0
 62
     0
 48
10.0
100
AcDbLine
 10
100.6231307797038
 20
171.5495845873449
 30
0.0
 11
100.6231307797038
 21
171.5495845873449
 31
0.0
  0
LINE
  5
2805
330
2696
100
AcDbEntity
  8
0
 62
     0
 48
10.0
100
AcDbLine
 10
101.3805946537934
 20
171.649306598201
 30
0.0
 11
101.3805946537934
 21
171.649306598201
 31
0.0
  0
LINE
  5
2806
330
2696
100
AcDbEntity
  8
0
 62
     0
 48
10.0
100
AcDbLine
 10
102.6436954071836
 20
171.8155969670893
 30
0.0
 11
102.6436954071836
 21
171.8155969670893
 31
0.0
  0
LINE
  5
2807
330
2696
100
AcDbEntity
  8
0
 62
     0
 48
10.0
100
AcDbLine
 10
98.62802557211452
 20
172.006479904294
 30
0.0
 11
98.62802557211452
 21
172.006479904294
 31
0.0
  0
LINE
  5
2808
330
2696
100
AcDbEntity
  8
0
 62
     0
 48
10.0
100
AcDbLine
 10
99.38548944620411
 20
172.1062019151502
 30
0.0
 11
99.38548944620411
 21
172.1062019151502
 31
0.0
  0
LINE
  5
2809
330
2696
100
AcDbEntity
  8
0
 62
     0
 48
10.0
100
AcDbLine
 10
100.6485901995943
 20
172.2724922840385
 30
0.0
 11
100.6485901995943
 21
172.2724922840385
 31
0.0
  0
LINE
  5
280A
330
2696
100
AcDbEntity
  8
0
 62
     0
 48
10.0
100
AcDbLine
 10
101.1492698545881
 20
172.3384080111096
 30
0.0
 11
101.1492698545881
 21
172.3384080111096
 31
0.0
  0
LINE
  5
280B
330
2696
100
AcDbEntity
  8
0
 62
     0
 48
10.0
100
AcDbLine
 10
101.9067337286777
 20
172.4381300219657
 30
0.0
 11
101.9067337286777
 21
172.4381300219657
 31
0.0
  0
LINE
  5
280C
330
2696
100
AcDbEntity
  8
0
 62
     0
 48
10.0
100
AcDbLine
 10
99.15416464699882
 20
172.7953033280588
 30
0.0
 11
99.15416464699882
 21
172.7953033280588
 31
0.0
  0
LINE
  5
280D
330
2696
100
AcDbEntity
  8
0
 62
     0
 48
10.0
100
AcDbLine
 10
99.91162852108843
 20
172.8950253389149
 30
0.0
 11
99.91162852108843
 21
172.8950253389149
 31
0.0
  0
LINE
  5
280E
330
2696
100
AcDbEntity
  8
0
 62
     0
 48
10.0
100
AcDbLine
 10
101.1747292744786
 20
173.0613157078033
 30
0.0
 11
101.1747292744786
 21
173.0613157078033
 31
0.0
  0
LINE
  5
280F
330
2696
100
AcDbEntity
  8
0
 62
     0
 48
10.0
100
AcDbLine
 10
101.6754089294724
 20
173.1272314348744
 30
0.0
 11
101.6754089294724
 21
173.1272314348744
 31
0.0
  0
LINE
  5
2810
330
2696
100
AcDbEntity
  8
0
 62
     0
 48
10.0
100
AcDbLine
 10
102.432872803562
 20
173.2269534457305
 30
0.0
 11
102.432872803562
 21
173.2269534457305
 31
0.0
  0
LINE
  5
2811
330
2696
100
AcDbEntity
  8
0
 62
     0
 48
10.0
100
AcDbLine
 10
98.96072188299356
 20
166.2938330007363
 30
0.0
 11
98.96072188299356
 21
166.2938330007363
 31
0.0
  0
LINE
  5
2812
330
2696
100
AcDbEntity
  8
0
 62
     0
 48
10.0
100
AcDbLine
 10
99.46140153798733
 20
166.3597487278074
 30
0.0
 11
99.46140153798733
 21
166.3597487278074
 31
0.0
  0
LINE
  5
2813
330
2696
100
AcDbEntity
  8
0
 62
     0
 48
10.0
100
AcDbLine
 10
100.2188654120769
 20
166.4594707386636
 30
0.0
 11
100.2188654120769
 21
166.4594707386636
 31
0.0
  0
LINE
  5
2814
330
2696
100
AcDbEntity
  8
0
 62
     0
 48
10.0
100
AcDbLine
 10
101.4819661654671
 20
166.625761107552
 30
0.0
 11
101.4819661654671
 21
166.625761107552
 31
0.0
  0
LINE
  5
2815
330
2696
100
AcDbEntity
  8
0
 62
     0
 48
10.0
100
AcDbLine
 10
101.9826458204609
 20
166.6916768346231
 30
0.0
 11
101.9826458204609
 21
166.6916768346231
 31
0.0
  0
LINE
  5
2816
330
2696
100
AcDbEntity
  8
0
 62
     0
 48
10.0
100
AcDbLine
 10
102.7401096945505
 20
166.7913988454792
 30
0.0
 11
102.7401096945505
 21
166.7913988454792
 31
0.0
  0
LINE
  5
2817
330
2696
100
AcDbEntity
  8
0
 62
     0
 48
10.0
100
AcDbLine
 10
98.43458280810926
 20
165.5050095769716
 30
0.0
 11
98.43458280810926
 21
165.5050095769716
 31
0.0
  0
LINE
  5
2818
330
2696
100
AcDbEntity
  8
0
 62
     0
 48
10.0
100
AcDbLine
 10
98.93526246310303
 20
165.5709253040427
 30
0.0
 11
98.93526246310303
 21
165.5709253040427
 31
0.0
  0
LINE
  5
2819
330
2696
100
AcDbEntity
  8
0
 62
     0
 48
10.0
100
AcDbLine
 10
99.69272633719263
 20
165.6706473148989
 30
0.0
 11
99.69272633719263
 21
165.6706473148989
 31
0.0
  0
LINE
  5
281A
330
2696
100
AcDbEntity
  8
0
 62
     0
 48
10.0
100
AcDbLine
 10
100.9558270905828
 20
165.8369376837872
 30
0.0
 11
100.9558270905828
 21
165.8369376837872
 31
0.0
  0
LINE
  5
281B
330
2696
100
AcDbEntity
  8
0
 62
     0
 48
10.0
100
AcDbLine
 10
101.4565067455766
 20
165.9028534108584
 30
0.0
 11
101.4565067455766
 21
165.9028534108584
 31
0.0
  0
LINE
  5
281C
330
2696
100
AcDbEntity
  8
0
 62
     0
 48
10.0
100
AcDbLine
 10
102.2139706196662
 20
166.0025754217144
 30
0.0
 11
102.2139706196662
 21
166.0025754217144
 31
0.0
  0
LINE
  5
281D
330
2696
100
AcDbEntity
  8
0
 62
     0
 48
10.0
100
AcDbLine
 10
97.90844373322499
 20
164.7161861532069
 30
0.0
 11
97.90844373322499
 21
164.7161861532069
 31
0.0
  0
LINE
  5
281E
330
2696
100
AcDbEntity
  8
0
 62
     0
 48
10.0
100
AcDbLine
 10
98.40912338821876
 20
164.782101880278
 30
0.0
 11
98.40912338821876
 21
164.782101880278
 31
0.0
  0
LINE
  5
281F
330
2696
100
AcDbEntity
  8
0
 62
     0
 48
10.0
100
AcDbLine
 10
99.16658726230835
 20
164.8818238911341
 30
0.0
 11
99.16658726230835
 21
164.8818238911341
 31
0.0
  0
LINE
  5
2820
330
2696
100
AcDbEntity
  8
0
 62
     0
 48
10.0
100
AcDbLine
 10
100.4296880156985
 20
165.0481142600225
 30
0.0
 11
100.4296880156985
 21
165.0481142600225
 31
0.0
  0
LINE
  5
2821
330
2696
100
AcDbEntity
  8
0
 62
     0
 48
10.0
100
AcDbLine
 10
100.9303676706923
 20
165.1140299870936
 30
0.0
 11
100.9303676706923
 21
165.1140299870936
 31
0.0
  0
LINE
  5
2822
330
2696
100
AcDbEntity
  8
0
 62
     0
 48
10.0
100
AcDbLine
 10
101.6878315447819
 20
165.2137519979497
 30
0.0
 11
101.6878315447819
 21
165.2137519979497
 31
0.0
  0
LINE
  5
2823
330
2696
100
AcDbEntity
  8
0
 62
     0
 48
10.0
100
AcDbLine
 10
102.9509322981721
 20
165.3800423668381
 30
0.0
 11
102.9509322981721
 21
165.3800423668381
 31
0.0
  0
LINE
  5
2824
330
2696
100
AcDbEntity
  8
0
 62
     0
 48
10.0
100
AcDbLine
 10
103.4516119531659
 20
165.4459580939092
 30
0.0
 11
103.4516119531659
 21
165.4459580939092
 31
0.0
  0
LINE
  5
2825
330
2696
100
AcDbEntity
  8
0
 62
     0
 48
10.0
100
AcDbLine
 10
97.88298431333444
 20
163.9932784565133
 30
0.0
 11
97.88298431333444
 21
163.9932784565133
 31
0.0
  0
LINE
  5
2826
330
2696
100
AcDbEntity
  8
0
 62
     0
 48
10.0
100
AcDbLine
 10
98.64044818742405
 20
164.0930004673694
 30
0.0
 11
98.64044818742405
 21
164.0930004673694
 31
0.0
  0
LINE
  5
2827
330
2696
100
AcDbEntity
  8
0
 62
     0
 48
10.0
100
AcDbLine
 10
99.90354894081427
 20
164.2592908362578
 30
0.0
 11
99.90354894081427
 21
164.2592908362578
 31
0.0
  0
LINE
  5
2828
330
2696
100
AcDbEntity
  8
0
 62
     0
 48
10.0
100
AcDbLine
 10
100.404228595808
 20
164.3252065633289
 30
0.0
 11
100.404228595808
 21
164.3252065633289
 31
0.0
  0
LINE
  5
2829
330
2696
100
AcDbEntity
  8
0
 62
     0
 48
10.0
100
AcDbLine
 10
101.1616924698976
 20
164.424928574185
 30
0.0
 11
101.1616924698976
 21
164.424928574185
 31
0.0
  0
LINE
  5
282A
330
2696
100
AcDbEntity
  8
0
 62
     0
 48
10.0
100
AcDbLine
 10
102.4247932232878
 20
164.5912189430734
 30
0.0
 11
102.4247932232878
 21
164.5912189430734
 31
0.0
  0
LINE
  5
282B
330
2696
100
AcDbEntity
  8
0
 62
     0
 48
10.0
100
AcDbLine
 10
102.9254728782816
 20
164.6571346701445
 30
0.0
 11
102.9254728782816
 21
164.6571346701445
 31
0.0
  0
LINE
  5
282C
330
2696
100
AcDbEntity
  8
0
 62
     0
 48
10.0
100
AcDbLine
 10
98.11430911253976
 20
163.3041770436047
 30
0.0
 11
98.11430911253976
 21
163.3041770436047
 31
0.0
  0
LINE
  5
282D
330
2696
100
AcDbEntity
  8
0
 62
     0
 48
10.0
100
AcDbLine
 10
99.37740986592999
 20
163.470467412493
 30
0.0
 11
99.37740986592999
 21
163.470467412493
 31
0.0
  0
LINE
  5
282E
330
2696
100
AcDbEntity
  8
0
 62
     0
 48
10.0
100
AcDbLine
 10
99.87808952092377
 20
163.5363831395642
 30
0.0
 11
99.87808952092377
 21
163.5363831395642
 31
0.0
  0
LINE
  5
282F
330
2696
100
AcDbEntity
  8
0
 62
     0
 48
10.0
100
AcDbLine
 10
100.6355533950133
 20
163.6361051504203
 30
0.0
 11
100.6355533950133
 21
163.6361051504203
 31
0.0
  0
LINE
  5
2830
330
2696
100
AcDbEntity
  8
0
 62
     0
 48
10.0
100
AcDbLine
 10
101.8986541484036
 20
163.8023955193087
 30
0.0
 11
101.8986541484036
 21
163.8023955193087
 31
0.0
  0
LINE
  5
2831
330
2696
100
AcDbEntity
  8
0
 62
     0
 48
10.0
100
AcDbLine
 10
102.3993338033973
 20
163.8683112463798
 30
0.0
 11
102.3993338033973
 21
163.8683112463798
 31
0.0
  0
LINE
  5
2832
330
2696
100
AcDbEntity
  8
0
 62
     0
 48
10.0
100
AcDbLine
 10
103.1567976774869
 20
163.9680332572359
 30
0.0
 11
103.1567976774869
 21
163.9680332572359
 31
0.0
  0
LINE
  5
2833
330
2696
100
AcDbEntity
  8
0
 62
     0
 48
10.0
100
AcDbLine
 10
98.85127079104568
 20
162.6816439887283
 30
0.0
 11
98.85127079104568
 21
162.6816439887283
 31
0.0
  0
LINE
  5
2834
330
2696
100
AcDbEntity
  8
0
 62
     0
 48
10.0
100
AcDbLine
 10
99.35195044603945
 20
162.7475597157994
 30
0.0
 11
99.35195044603945
 21
162.7475597157994
 31
0.0
  0
LINE
  5
2835
330
2696
100
AcDbEntity
  8
0
 62
     0
 48
10.0
100
AcDbLine
 10
100.109414320129
 20
162.8472817266555
 30
0.0
 11
100.109414320129
 21
162.8472817266555
 31
0.0
  0
LINE
  5
2836
330
2696
100
AcDbEntity
  8
0
 62
     0
 48
10.0
100
AcDbLine
 10
101.3725150735192
 20
163.0135720955439
 30
0.0
 11
101.3725150735192
 21
163.0135720955439
 31
0.0
  0
LINE
  5
2837
330
2696
100
AcDbEntity
  8
0
 62
     0
 48
10.0
100
AcDbLine
 10
101.873194728513
 20
163.079487822615
 30
0.0
 11
101.873194728513
 21
163.079487822615
 31
0.0
  0
LINE
  5
2838
330
2696
100
AcDbEntity
  8
0
 62
     0
 48
10.0
100
AcDbLine
 10
102.6306586026026
 20
163.1792098334711
 30
0.0
 11
102.6306586026026
 21
163.1792098334711
 31
0.0
  0
LINE
  5
2839
330
2696
100
AcDbEntity
  8
0
 62
     0
 48
10.0
100
AcDbLine
 10
98.3251317161614
 20
161.8928205649636
 30
0.0
 11
98.3251317161614
 21
161.8928205649636
 31
0.0
  0
LINE
  5
283A
330
2696
100
AcDbEntity
  8
0
 62
     0
 48
10.0
100
AcDbLine
 10
98.82581137115517
 20
161.9587362920347
 30
0.0
 11
98.82581137115517
 21
161.9587362920347
 31
0.0
  0
LINE
  5
283B
330
2696
100
AcDbEntity
  8
0
 62
     0
 48
10.0
100
AcDbLine
 10
99.58327524524477
 20
162.0584583028908
 30
0.0
 11
99.58327524524477
 21
162.0584583028908
 31
0.0
  0
LINE
  5
283C
330
2696
100
AcDbEntity
  8
0
 62
     0
 48
10.0
100
AcDbLine
 10
100.8463759986349
 20
162.2247486717792
 30
0.0
 11
100.8463759986349
 21
162.2247486717792
 31
0.0
  0
LINE
  5
283D
330
2696
100
AcDbEntity
  8
0
 62
     0
 48
10.0
100
AcDbLine
 10
101.3470556536287
 20
162.2906643988503
 30
0.0
 11
101.3470556536287
 21
162.2906643988503
 31
0.0
  0
LINE
  5
283E
330
2696
100
AcDbEntity
  8
0
 62
     0
 48
10.0
100
AcDbLine
 10
102.1045195277183
 20
162.3903864097064
 30
0.0
 11
102.1045195277183
 21
162.3903864097064
 31
0.0
  0
LINE
  5
283F
330
2696
100
AcDbEntity
  8
0
 62
     0
 48
10.0
100
AcDbLine
 10
103.3676202811085
 20
162.5566767785947
 30
0.0
 11
103.3676202811085
 21
162.5566767785947
 31
0.0
  0
LINE
  5
2840
330
2696
100
AcDbEntity
  8
0
 62
     0
 48
10.0
100
AcDbLine
 10
100.3202369237506
 20
161.4359252480145
 30
0.0
 11
100.3202369237506
 21
161.4359252480145
 31
0.0
  0
LINE
  5
2841
330
2696
100
AcDbEntity
  8
0
 62
     0
 48
10.0
100
AcDbLine
 10
100.8209165787444
 20
161.5018409750856
 30
0.0
 11
100.8209165787444
 21
161.5018409750856
 31
0.0
  0
LINE
  5
2842
330
2696
100
AcDbEntity
  8
0
 62
     0
 48
10.0
100
AcDbLine
 10
101.578380452834
 20
161.6015629859417
 30
0.0
 11
101.578380452834
 21
161.6015629859417
 31
0.0
  0
LINE
  5
2843
330
2696
100
AcDbEntity
  8
0
 62
     0
 48
10.0
100
AcDbLine
 10
102.8414812062242
 20
161.7678533548301
 30
0.0
 11
102.8414812062242
 21
161.7678533548301
 31
0.0
  0
LINE
  5
2844
330
2696
100
AcDbEntity
  8
0
 62
     0
 48
10.0
100
AcDbLine
 10
103.342160861218
 20
161.8337690819012
 30
0.0
 11
103.342160861218
 21
161.8337690819012
 31
0.0
  0
LINE
  5
2845
330
2696
100
AcDbEntity
  8
0
 62
     0
 48
10.0
100
AcDbLine
 10
98.39240440282679
 20
168.8280865683884
 30
0.0
 11
98.39240440282679
 21
168.8280865683884
 31
0.0
  0
LINE
  5
2846
330
2696
100
AcDbEntity
  8
0
 62
     0
 48
10.0
100
AcDbLine
 10
100.1382246956594
 20
167.7158763791105
 30
0.0
 11
100.1382246956594
 21
167.7158763791105
 31
0.0
  0
LINE
  5
2847
330
2696
100
AcDbEntity
  8
0
 62
     0
 48
10.0
100
AcDbLine
 10
100.5599204185659
 20
167.4472265749371
 30
0.0
 11
100.5599204185659
 21
167.4472265749371
 31
0.0
  0
LINE
  5
2848
330
2696
100
AcDbEntity
  8
0
 62
     0
 48
10.0
100
AcDbLine
 10
101.875611074034
 20
166.609039185916
 30
0.0
 11
101.875611074034
 21
166.609039185916
 31
0.0
  0
LINE
  5
2849
330
2696
100
AcDbEntity
  8
0
 62
     0
 48
10.0
100
AcDbLine
 10
99.4600492751716
 20
168.7829768249197
 30
0.0
 11
99.4600492751716
 21
168.7829768249197
 31
0.0
  0
LINE
  5
284A
330
2696
100
AcDbEntity
  8
0
 62
     0
 48
10.0
100
AcDbLine
 10
101.2058695680042
 20
167.6707666356417
 30
0.0
 11
101.2058695680042
 21
167.6707666356417
 31
0.0
  0
LINE
  5
284B
330
2696
100
AcDbEntity
  8
0
 62
     0
 48
10.0
100
AcDbLine
 10
101.6275652909107
 20
167.4021168314683
 30
0.0
 11
101.6275652909107
 21
167.4021168314683
 31
0.0
  0
LINE
  5
284C
330
2696
100
AcDbEntity
  8
0
 62
     0
 48
10.0
100
AcDbLine
 10
102.9432559463788
 20
166.5639294424473
 30
0.0
 11
102.9432559463788
 21
166.5639294424473
 31
0.0
  0
LINE
  5
284D
330
2696
100
AcDbEntity
  8
0
 62
     0
 48
10.0
100
AcDbLine
 10
98.79030776914193
 20
169.8447042746454
 30
0.0
 11
98.79030776914193
 21
169.8447042746454
 31
0.0
  0
LINE
  5
284E
330
2696
100
AcDbEntity
  8
0
 62
     0
 48
10.0
100
AcDbLine
 10
99.21200349204838
 20
169.576054470472
 30
0.0
 11
99.21200349204838
 21
169.576054470472
 31
0.0
  0
LINE
  5
284F
330
2696
100
AcDbEntity
  8
0
 62
     0
 48
10.0
100
AcDbLine
 10
100.5276941475164
 20
168.7378670814509
 30
0.0
 11
100.5276941475164
 21
168.7378670814509
 31
0.0
  0
LINE
  5
2850
330
2696
100
AcDbEntity
  8
0
 62
     0
 48
10.0
100
AcDbLine
 10
102.2735144403491
 20
167.625656892173
 30
0.0
 11
102.2735144403491
 21
167.625656892173
 31
0.0
  0
LINE
  5
2851
330
2696
100
AcDbEntity
  8
0
 62
     0
 48
10.0
100
AcDbLine
 10
102.6952101632555
 20
167.3570070879996
 30
0.0
 11
102.6952101632555
 21
167.3570070879996
 31
0.0
  0
LINE
  5
2852
330
2696
100
AcDbEntity
  8
0
 62
     0
 48
10.0
100
AcDbLine
 10
99.85795264148674
 20
169.7995945311766
 30
0.0
 11
99.85795264148674
 21
169.7995945311766
 31
0.0
  0
LINE
  5
2853
330
2696
100
AcDbEntity
  8
0
 62
     0
 48
10.0
100
AcDbLine
 10
100.2796483643931
 20
169.5309447270032
 30
0.0
 11
100.2796483643931
 21
169.5309447270032
 31
0.0
  0
LINE
  5
2854
330
2696
100
AcDbEntity
  8
0
 62
     0
 48
10.0
100
AcDbLine
 10
101.5953390198612
 20
168.6927573379822
 30
0.0
 11
101.5953390198612
 21
168.6927573379822
 31
0.0
  0
LINE
  5
2855
330
2696
100
AcDbEntity
  8
0
 62
     0
 48
10.0
100
AcDbLine
 10
99.17977722099889
 20
170.8666949769858
 30
0.0
 11
99.17977722099889
 21
170.8666949769858
 31
0.0
  0
LINE
  5
2856
330
2696
100
AcDbEntity
  8
0
 62
     0
 48
10.0
100
AcDbLine
 10
100.9255975138315
 20
169.7544847877078
 30
0.0
 11
100.9255975138315
 21
169.7544847877078
 31
0.0
  0
LINE
  5
2857
330
2696
100
AcDbEntity
  8
0
 62
     0
 48
10.0
100
AcDbLine
 10
101.3472932367379
 20
169.4858349835344
 30
0.0
 11
101.3472932367379
 21
169.4858349835344
 31
0.0
  0
LINE
  5
2858
330
2696
100
AcDbEntity
  8
0
 62
     0
 48
10.0
100
AcDbLine
 10
102.662983892206
 20
168.6476475945134
 30
0.0
 11
102.662983892206
 21
168.6476475945134
 31
0.0
  0
LINE
  5
2859
330
2696
100
AcDbEntity
  8
0
 62
     0
 48
10.0
100
AcDbLine
 10
98.93173143787556
 20
171.6597726225381
 30
0.0
 11
98.93173143787556
 21
171.6597726225381
 31
0.0
  0
LINE
  5
285A
330
2696
100
AcDbEntity
  8
0
 62
     0
 48
10.0
100
AcDbLine
 10
100.2474220933436
 20
170.821585233517
 30
0.0
 11
100.2474220933436
 21
170.821585233517
 31
0.0
  0
LINE
  5
285B
330
2696
100
AcDbEntity
  8
0
 62
     0
 48
10.0
100
AcDbLine
 10
101.9932423861763
 20
169.7093750442391
 30
0.0
 11
101.9932423861763
 21
169.7093750442391
 31
0.0
  0
LINE
  5
285C
330
2696
100
AcDbEntity
  8
0
 62
     0
 48
10.0
100
AcDbLine
 10
102.4149381090827
 20
169.4407252400657
 30
0.0
 11
102.4149381090827
 21
169.4407252400657
 31
0.0
  0
LINE
  5
285D
330
2696
100
AcDbEntity
  8
0
 62
     0
 48
10.0
100
AcDbLine
 10
99.57768058731401
 20
171.8833126832427
 30
0.0
 11
99.57768058731401
 21
171.8833126832427
 31
0.0
  0
LINE
  5
285E
330
2696
100
AcDbEntity
  8
0
 62
     0
 48
10.0
100
AcDbLine
 10
99.99937631022046
 20
171.6146628790693
 30
0.0
 11
99.99937631022046
 21
171.6146628790693
 31
0.0
  0
LINE
  5
285F
330
2696
100
AcDbEntity
  8
0
 62
     0
 48
10.0
100
AcDbLine
 10
101.3150669656884
 20
170.7764754900483
 30
0.0
 11
101.3150669656884
 21
170.7764754900483
 31
0.0
  0
LINE
  5
2860
330
2696
100
AcDbEntity
  8
0
 62
     0
 48
10.0
100
AcDbLine
 10
103.0608872585211
 20
169.6642653007703
 30
0.0
 11
103.0608872585211
 21
169.6642653007703
 31
0.0
  0
LINE
  5
2861
330
2696
100
AcDbEntity
  8
0
 62
     0
 48
10.0
100
AcDbLine
 10
98.8995051668261
 20
172.9504131290519
 30
0.0
 11
98.8995051668261
 21
172.9504131290519
 31
0.0
  0
LINE
  5
2862
330
2696
100
AcDbEntity
  8
0
 62
     0
 48
10.0
100
AcDbLine
 10
100.6453254596587
 20
171.8382029397739
 30
0.0
 11
100.6453254596587
 21
171.8382029397739
 31
0.0
  0
LINE
  5
2863
330
2696
100
AcDbEntity
  8
0
 62
     0
 48
10.0
100
AcDbLine
 10
101.0670211825652
 20
171.5695531356005
 30
0.0
 11
101.0670211825652
 21
171.5695531356005
 31
0.0
  0
LINE
  5
2864
330
2696
100
AcDbEntity
  8
0
 62
     0
 48
10.0
100
AcDbLine
 10
102.3827118380333
 20
170.7313657465795
 30
0.0
 11
102.3827118380333
 21
170.7313657465795
 31
0.0
  0
LINE
  5
2865
330
2696
100
AcDbEntity
  8
0
 62
     0
 48
10.0
100
AcDbLine
 10
99.96715003917094
 20
172.9053033855831
 30
0.0
 11
99.96715003917094
 21
172.9053033855831
 31
0.0
  0
LINE
  5
2866
330
2696
100
AcDbEntity
  8
0
 62
     0
 48
10.0
100
AcDbLine
 10
101.7129703320036
 20
171.7930931963052
 30
0.0
 11
101.7129703320036
 21
171.7930931963052
 31
0.0
  0
LINE
  5
2867
330
2696
100
AcDbEntity
  8
0
 62
     0
 48
10.0
100
AcDbLine
 10
102.13466605491
 20
171.5244433921318
 30
0.0
 11
102.13466605491
 21
171.5244433921318
 31
0.0
  0
LINE
  5
2868
330
2696
100
AcDbEntity
  8
0
 62
     0
 48
10.0
100
AcDbLine
 10
101.0347949115156
 20
172.8601936421144
 30
0.0
 11
101.0347949115156
 21
172.8601936421144
 31
0.0
  0
LINE
  5
2869
330
2696
100
AcDbEntity
  8
0
 62
     0
 48
10.0
100
AcDbLine
 10
102.7806152043483
 20
171.7479834528364
 30
0.0
 11
102.7806152043483
 21
171.7479834528364
 31
0.0
  0
LINE
  5
286A
330
2696
100
AcDbEntity
  8
0
 62
     0
 48
10.0
100
AcDbLine
 10
102.1024397838605
 20
172.8150838986456
 30
0.0
 11
102.1024397838605
 21
172.8150838986456
 31
0.0
  0
LINE
  5
286B
330
2696
100
AcDbEntity
  8
0
 62
     0
 48
10.0
100
AcDbLine
 10
99.07057982331462
 20
167.7609861225793
 30
0.0
 11
99.07057982331462
 21
167.7609861225793
 31
0.0
  0
LINE
  5
286C
330
2696
100
AcDbEntity
  8
0
 62
     0
 48
10.0
100
AcDbLine
 10
99.49227554622106
 20
167.4923363184059
 30
0.0
 11
99.49227554622106
 21
167.4923363184059
 31
0.0
  0
LINE
  5
286D
330
2696
100
AcDbEntity
  8
0
 62
     0
 48
10.0
100
AcDbLine
 10
100.8079662016892
 20
166.6541489293848
 30
0.0
 11
100.8079662016892
 21
166.6541489293848
 31
0.0
  0
LINE
  5
286E
330
2696
100
AcDbEntity
  8
0
 62
     0
 48
10.0
100
AcDbLine
 10
102.5537864945218
 20
165.5419387401069
 30
0.0
 11
102.5537864945218
 21
165.5419387401069
 31
0.0
  0
LINE
  5
286F
330
2696
100
AcDbEntity
  8
0
 62
     0
 48
10.0
100
AcDbLine
 10
102.9754822174283
 20
165.2732889359335
 30
0.0
 11
102.9754822174283
 21
165.2732889359335
 31
0.0
  0
LINE
  5
2870
330
2696
100
AcDbEntity
  8
0
 62
     0
 48
10.0
100
AcDbLine
 10
98.42463067387638
 20
167.5374460618746
 30
0.0
 11
98.42463067387638
 21
167.5374460618746
 31
0.0
  0
LINE
  5
2871
330
2696
100
AcDbEntity
  8
0
 62
     0
 48
10.0
100
AcDbLine
 10
99.74032132934448
 20
166.6992586728535
 30
0.0
 11
99.74032132934448
 21
166.6992586728535
 31
0.0
  0
LINE
  5
2872
330
2696
100
AcDbEntity
  8
0
 62
     0
 48
10.0
100
AcDbLine
 10
101.4861416221771
 20
165.5870484835756
 30
0.0
 11
101.4861416221771
 21
165.5870484835756
 31
0.0
  0
LINE
  5
2873
330
2696
100
AcDbEntity
  8
0
 62
     0
 48
10.0
100
AcDbLine
 10
101.9078373450835
 20
165.3183986794022
 30
0.0
 11
101.9078373450835
 21
165.3183986794022
 31
0.0
  0
LINE
  5
2874
330
2696
100
AcDbEntity
  8
0
 62
     0
 48
10.0
100
AcDbLine
 10
103.2235280005517
 20
164.4802112903811
 30
0.0
 11
103.2235280005517
 21
164.4802112903811
 31
0.0
  0
LINE
  5
2875
330
2696
100
AcDbEntity
  8
0
 62
     0
 48
10.0
100
AcDbLine
 10
98.67267645699962
 20
166.7443684163223
 30
0.0
 11
98.67267645699962
 21
166.7443684163223
 31
0.0
  0
LINE
  5
2876
330
2696
100
AcDbEntity
  8
0
 62
     0
 48
10.0
100
AcDbLine
 10
100.4184967498322
 20
165.6321582270444
 30
0.0
 11
100.4184967498322
 21
165.6321582270444
 31
0.0
  0
LINE
  5
2877
330
2696
100
AcDbEntity
  8
0
 62
     0
 48
10.0
100
AcDbLine
 10
100.8401924727387
 20
165.3635084228709
 30
0.0
 11
100.8401924727387
 21
165.3635084228709
 31
0.0
  0
LINE
  5
2878
330
2696
100
AcDbEntity
  8
0
 62
     0
 48
10.0
100
AcDbLine
 10
102.1558831282068
 20
164.5253210338499
 30
0.0
 11
102.1558831282068
 21
164.5253210338499
 31
0.0
  0
LINE
  5
2879
330
2696
100
AcDbEntity
  8
0
 62
     0
 48
10.0
100
AcDbLine
 10
99.35085187748747
 20
165.6772679705132
 30
0.0
 11
99.35085187748747
 21
165.6772679705132
 31
0.0
  0
LINE
  5
287A
330
2696
100
AcDbEntity
  8
0
 62
     0
 48
10.0
100
AcDbLine
 10
99.77254760039393
 20
165.4086181663398
 30
0.0
 11
99.77254760039393
 21
165.4086181663398
 31
0.0
  0
LINE
  5
287B
330
2696
100
AcDbEntity
  8
0
 62
     0
 48
10.0
100
AcDbLine
 10
101.088238255862
 20
164.5704307773187
 30
0.0
 11
101.088238255862
 21
164.5704307773187
 31
0.0
  0
LINE
  5
287C
330
2696
100
AcDbEntity
  8
0
 62
     0
 48
10.0
100
AcDbLine
 10
102.8340585486946
 20
163.4582205880408
 30
0.0
 11
102.8340585486946
 21
163.4582205880408
 31
0.0
  0
LINE
  5
287D
330
2696
100
AcDbEntity
  8
0
 62
     0
 48
10.0
100
AcDbLine
 10
103.2557542716011
 20
163.1895707838674
 30
0.0
 11
103.2557542716011
 21
163.1895707838674
 31
0.0
  0
LINE
  5
287E
330
2696
100
AcDbEntity
  8
0
 62
     0
 48
10.0
100
AcDbLine
 10
98.28320700514268
 20
165.7223777139819
 30
0.0
 11
98.28320700514268
 21
165.7223777139819
 31
0.0
  0
LINE
  5
287F
330
2696
100
AcDbEntity
  8
0
 62
     0
 48
10.0
100
AcDbLine
 10
98.70490272804914
 20
165.4537279098085
 30
0.0
 11
98.70490272804914
 21
165.4537279098085
 31
0.0
  0
LINE
  5
2880
330
2696
100
AcDbEntity
  8
0
 62
     0
 48
10.0
100
AcDbLine
 10
100.0205933835172
 20
164.6155405207874
 30
0.0
 11
100.0205933835172
 21
164.6155405207874
 31
0.0
  0
LINE
  5
2881
330
2696
100
AcDbEntity
  8
0
 62
     0
 48
10.0
100
AcDbLine
 10
101.7664136763499
 20
163.5033303315095
 30
0.0
 11
101.7664136763499
 21
163.5033303315095
 31
0.0
  0
LINE
  5
2882
330
2696
100
AcDbEntity
  8
0
 62
     0
 48
10.0
100
AcDbLine
 10
102.1881093992563
 20
163.2346805273361
 30
0.0
 11
102.1881093992563
 21
163.2346805273361
 31
0.0
  0
LINE
  5
2883
330
2696
100
AcDbEntity
  8
0
 62
     0
 48
10.0
100
AcDbLine
 10
103.5038000547244
 20
162.396493138315
 30
0.0
 11
103.5038000547244
 21
162.396493138315
 31
0.0
  0
LINE
  5
2884
330
2696
100
AcDbEntity
  8
0
 62
     0
 48
10.0
100
AcDbLine
 10
98.95294851117235
 20
164.6606502642562
 30
0.0
 11
98.95294851117235
 21
164.6606502642562
 31
0.0
  0
LINE
  5
2885
330
2696
100
AcDbEntity
  8
0
 62
     0
 48
10.0
100
AcDbLine
 10
100.698768804005
 20
163.5484400749783
 30
0.0
 11
100.698768804005
 21
163.5484400749783
 31
0.0
  0
LINE
  5
2886
330
2696
100
AcDbEntity
  8
0
 62
     0
 48
10.0
100
AcDbLine
 10
101.1204645269114
 20
163.2797902708049
 30
0.0
 11
101.1204645269114
 21
163.2797902708049
 31
0.0
  0
LINE
  5
2887
330
2696
100
AcDbEntity
  8
0
 62
     0
 48
10.0
100
AcDbLine
 10
102.4361551823795
 20
162.4416028817838
 30
0.0
 11
102.4361551823795
 21
162.4416028817838
 31
0.0
  0
LINE
  5
2888
330
2696
100
AcDbEntity
  8
0
 62
     0
 48
10.0
100
AcDbLine
 10
97.88530363882754
 20
164.705760007725
 30
0.0
 11
97.88530363882754
 21
164.705760007725
 31
0.0
  0
LINE
  5
2889
330
2696
100
AcDbEntity
  8
0
 62
     0
 48
10.0
100
AcDbLine
 10
99.63112393166021
 20
163.593549818447
 30
0.0
 11
99.63112393166021
 21
163.593549818447
 31
0.0
  0
LINE
  5
288A
330
2696
100
AcDbEntity
  8
0
 62
     0
 48
10.0
100
AcDbLine
 10
100.0528196545666
 20
163.3249000142736
 30
0.0
 11
100.0528196545666
 21
163.3249000142736
 31
0.0
  0
LINE
  5
288B
330
2696
100
AcDbEntity
  8
0
 62
     0
 48
10.0
100
AcDbLine
 10
101.3685103100347
 20
162.4867126252526
 30
0.0
 11
101.3685103100347
 21
162.4867126252526
 31
0.0
  0
LINE
  5
288C
330
2696
100
AcDbEntity
  8
0
 62
     0
 48
10.0
100
AcDbLine
 10
98.56347905931544
 20
163.6386595619158
 30
0.0
 11
98.56347905931544
 21
163.6386595619158
 31
0.0
  0
LINE
  5
288D
330
2696
100
AcDbEntity
  8
0
 62
     0
 48
10.0
100
AcDbLine
 10
98.98517478222188
 20
163.3700097577424
 30
0.0
 11
98.98517478222188
 21
163.3700097577424
 31
0.0
  0
LINE
  5
288E
330
2696
100
AcDbEntity
  8
0
 62
     0
 48
10.0
100
AcDbLine
 10
100.3008654376899
 20
162.5318223687214
 30
0.0
 11
100.3008654376899
 21
162.5318223687214
 31
0.0
  0
LINE
  5
288F
330
2696
100
AcDbEntity
  8
0
 62
     0
 48
10.0
100
AcDbLine
 10
102.0466857305226
 20
161.4196121794434
 30
0.0
 11
102.0466857305226
 21
161.4196121794434
 31
0.0
  0
LINE
  5
2890
330
2696
100
AcDbEntity
  8
0
 62
     0
 48
10.0
100
AcDbLine
 10
97.91752990987703
 20
163.4151195012111
 30
0.0
 11
97.91752990987703
 21
163.4151195012111
 31
0.0
  0
LINE
  5
2891
330
2696
100
AcDbEntity
  8
0
 62
     0
 48
10.0
100
AcDbLine
 10
99.23322056534514
 20
162.5769321121901
 30
0.0
 11
99.23322056534514
 21
162.5769321121901
 31
0.0
  0
LINE
  5
2892
330
2696
100
AcDbEntity
  8
0
 62
     0
 48
10.0
100
AcDbLine
 10
100.9790408581778
 20
161.4647219229122
 30
0.0
 11
100.9790408581778
 21
161.4647219229122
 31
0.0
  0
LINE
  5
2893
330
2696
100
AcDbEntity
  8
0
 62
     0
 48
10.0
100
AcDbLine
 10
98.16557569300028
 20
162.6220418556589
 30
0.0
 11
98.16557569300028
 21
162.6220418556589
 31
0.0
  0
LINE
  5
2894
330
2696
100
AcDbEntity
  8
0
 62
     0
 48
10.0
100
AcDbLine
 10
99.91139598583295
 20
161.509831666381
 30
0.0
 11
99.91139598583295
 21
161.509831666381
 31
0.0
  0
LINE
  5
2895
330
2696
100
AcDbEntity
  8
0
 62
     0
 48
10.0
100
AcDbLine
 10
98.84375111348818
 20
161.5549414098497
 30
0.0
 11
98.84375111348818
 21
161.5549414098497
 31
0.0
  0
LINE
  5
2896
330
2696
100
AcDbEntity
  8
0
 62
     0
 48
10.0
100
AcDbLine
 10
97.77610624114331
 20
161.6000511533184
 30
0.0
 11
97.77610624114331
 21
161.6000511533184
 31
0.0
  0
LINE
  5
2897
330
2696
100
AcDbEntity
  8
0
 62
     0
 48
10.0
100
AcDbLine
 10
98.84949293201328
 20
168.9728044703517
 30
0.0
 11
98.84949293201328
 21
168.9728044703517
 31
0.0
  0
LINE
  5
2898
330
2696
100
AcDbEntity
  8
0
 62
     0
 48
10.0
100
AcDbLine
 10
99.32872320093986
 20
168.5336708354015
 30
0.0
 11
99.32872320093986
 21
168.5336708354015
 31
0.0
  0
LINE
  5
2899
330
2696
100
AcDbEntity
  8
0
 62
     0
 48
10.0
100
AcDbLine
 10
100.0925425218751
 20
167.8337593803117
 30
0.0
 11
100.0925425218751
 21
167.8337593803117
 31
0.0
  0
LINE
  5
289A
330
2696
100
AcDbEntity
  8
0
 62
     0
 48
10.0
100
AcDbLine
 10
101.176340206986
 20
166.8406417751166
 30
0.0
 11
101.176340206986
 21
166.8406417751166
 31
0.0
  0
LINE
  5
289B
330
2696
100
AcDbEntity
  8
0
 62
     0
 48
10.0
100
AcDbLine
 10
101.6555704759126
 20
166.4015081401664
 30
0.0
 11
101.6555704759126
 21
166.4015081401664
 31
0.0
  0
LINE
  5
289C
330
2696
100
AcDbEntity
  8
0
 62
     0
 48
10.0
100
AcDbLine
 10
102.4193897968478
 20
165.7015966850766
 30
0.0
 11
102.4193897968478
 21
165.7015966850766
 31
0.0
  0
LINE
  5
289D
330
2696
100
AcDbEntity
  8
0
 62
     0
 48
10.0
100
AcDbLine
 10
103.5031874819587
 20
164.7084790798816
 30
0.0
 11
103.5031874819587
 21
164.7084790798816
 31
0.0
  0
LINE
  5
289E
330
2696
100
AcDbEntity
  8
0
 62
     0
 48
10.0
100
AcDbLine
 10
98.93206758558715
 20
170.1661320402113
 30
0.0
 11
98.93206758558715
 21
170.1661320402113
 31
0.0
  0
LINE
  5
289F
330
2696
100
AcDbEntity
  8
0
 62
     0
 48
10.0
100
AcDbLine
 10
100.015865270698
 20
169.1730144350163
 30
0.0
 11
100.015865270698
 21
169.1730144350163
 31
0.0
  0
LINE
  5
28A0
330
2696
100
AcDbEntity
  8
0
 62
     0
 48
10.0
100
AcDbLine
 10
100.4950955396246
 20
168.7338808000661
 30
0.0
 11
100.4950955396246
 21
168.7338808000661
 31
0.0
  0
LINE
  5
28A1
330
2696
100
AcDbEntity
  8
0
 62
     0
 48
10.0
100
AcDbLine
 10
101.2589148605598
 20
168.0339693449762
 30
0.0
 11
101.2589148605598
 21
168.0339693449762
 31
0.0
  0
LINE
  5
28A2
330
2696
100
AcDbEntity
  8
0
 62
     0
 48
10.0
100
AcDbLine
 10
102.3427125456707
 20
167.0408517397812
 30
0.0
 11
102.3427125456707
 21
167.0408517397812
 31
0.0
  0
LINE
  5
28A3
330
2696
100
AcDbEntity
  8
0
 62
     0
 48
10.0
100
AcDbLine
 10
102.8219428145973
 20
166.6017181048311
 30
0.0
 11
102.8219428145973
 21
166.6017181048311
 31
0.0
  0
LINE
  5
28A4
330
2696
100
AcDbEntity
  8
0
 62
     0
 48
10.0
100
AcDbLine
 10
98.85539033441011
 20
171.5053870949159
 30
0.0
 11
98.85539033441011
 21
171.5053870949159
 31
0.0
  0
LINE
  5
28A5
330
2696
100
AcDbEntity
  8
0
 62
     0
 48
10.0
100
AcDbLine
 10
99.33462060333669
 20
171.0662534599658
 30
0.0
 11
99.33462060333669
 21
171.0662534599658
 31
0.0
  0
LINE
  5
28A6
330
2696
100
AcDbEntity
  8
0
 62
     0
 48
10.0
100
AcDbLine
 10
100.0984399242719
 20
170.366342004876
 30
0.0
 11
100.0984399242719
 21
170.366342004876
 31
0.0
  0
LINE
  5
28A7
330
2696
100
AcDbEntity
  8
0
 62
     0
 48
10.0
100
AcDbLine
 10
101.1822376093828
 20
169.3732243996809
 30
0.0
 11
101.1822376093828
 21
169.3732243996809
 31
0.0
  0
LINE
  5
28A8
330
2696
100
AcDbEntity
  8
0
 62
     0
 48
10.0
100
AcDbLine
 10
101.6614678783094
 20
168.9340907647307
 30
0.0
 11
101.6614678783094
 21
168.9340907647307
 31
0.0
  0
LINE
  5
28A9
330
2696
100
AcDbEntity
  8
0
 62
     0
 48
10.0
100
AcDbLine
 10
102.4252871992447
 20
168.2341793096409
 30
0.0
 11
102.4252871992447
 21
168.2341793096409
 31
0.0
  0
LINE
  5
28AA
330
2696
100
AcDbEntity
  8
0
 62
     0
 48
10.0
100
AcDbLine
 10
98.93796498798401
 20
172.6987146647756
 30
0.0
 11
98.93796498798401
 21
172.6987146647756
 31
0.0
  0
LINE
  5
28AB
330
2696
100
AcDbEntity
  8
0
 62
     0
 48
10.0
100
AcDbLine
 10
100.0217626730948
 20
171.7055970595806
 30
0.0
 11
100.0217626730948
 21
171.7055970595806
 31
0.0
  0
LINE
  5
28AC
330
2696
100
AcDbEntity
  8
0
 62
     0
 48
10.0
100
AcDbLine
 10
100.5009929420214
 20
171.2664634246304
 30
0.0
 11
100.5009929420214
 21
171.2664634246304
 31
0.0
  0
LINE
  5
28AD
330
2696
100
AcDbEntity
  8
0
 62
     0
 48
10.0
100
AcDbLine
 10
101.2648122629567
 20
170.5665519695406
 30
0.0
 11
101.2648122629567
 21
170.5665519695406
 31
0.0
  0
LINE
  5
28AE
330
2696
100
AcDbEntity
  8
0
 62
     0
 48
10.0
100
AcDbLine
 10
102.3486099480675
 20
169.5734343643455
 30
0.0
 11
102.3486099480675
 21
169.5734343643455
 31
0.0
  0
LINE
  5
28AF
330
2696
100
AcDbEntity
  8
0
 62
     0
 48
10.0
100
AcDbLine
 10
102.8278402169941
 20
169.1343007293954
 30
0.0
 11
102.8278402169941
 21
169.1343007293954
 31
0.0
  0
LINE
  5
28B0
330
2696
100
AcDbEntity
  8
0
 62
     0
 48
10.0
100
AcDbLine
 10
100.1043373266687
 20
172.8989246294402
 30
0.0
 11
100.1043373266687
 21
172.8989246294402
 31
0.0
  0
LINE
  5
28B1
330
2696
100
AcDbEntity
  8
0
 62
     0
 48
10.0
100
AcDbLine
 10
101.1881350117796
 20
171.9058070242452
 30
0.0
 11
101.1881350117796
 21
171.9058070242452
 31
0.0
  0
LINE
  5
28B2
330
2696
100
AcDbEntity
  8
0
 62
     0
 48
10.0
100
AcDbLine
 10
101.6673652807062
 20
171.4666733892951
 30
0.0
 11
101.6673652807062
 21
171.4666733892951
 31
0.0
  0
LINE
  5
28B3
330
2696
100
AcDbEntity
  8
0
 62
     0
 48
10.0
100
AcDbLine
 10
102.4311846016414
 20
170.7667619342052
 30
0.0
 11
102.4311846016414
 21
170.7667619342052
 31
0.0
  0
LINE
  5
28B4
330
2696
100
AcDbEntity
  8
0
 62
     0
 48
10.0
100
AcDbLine
 10
101.2707096653535
 20
173.0991345941049
 30
0.0
 11
101.2707096653535
 21
173.0991345941049
 31
0.0
  0
LINE
  5
28B5
330
2696
100
AcDbEntity
  8
0
 62
     0
 48
10.0
100
AcDbLine
 10
102.3545073504643
 20
172.1060169889099
 30
0.0
 11
102.3545073504643
 21
172.1060169889099
 31
0.0
  0
LINE
  5
28B6
330
2696
100
AcDbEntity
  8
0
 62
     0
 48
10.0
100
AcDbLine
 10
102.8337376193909
 20
171.6668833539597
 30
0.0
 11
102.8337376193909
 21
171.6668833539597
 31
0.0
  0
LINE
  5
28B7
330
2696
100
AcDbEntity
  8
0
 62
     0
 48
10.0
100
AcDbLine
 10
102.4370820040383
 20
173.2993445587695
 30
0.0
 11
102.4370820040383
 21
173.2993445587695
 31
0.0
  0
LINE
  5
28B8
330
2696
100
AcDbEntity
  8
0
 62
     0
 48
10.0
100
AcDbLine
 10
98.92617018319038
 20
167.633549415647
 30
0.0
 11
98.92617018319038
 21
167.633549415647
 31
0.0
  0
LINE
  5
28B9
330
2696
100
AcDbEntity
  8
0
 62
     0
 48
10.0
100
AcDbLine
 10
100.0099678683012
 20
166.640431810452
 30
0.0
 11
100.0099678683012
 21
166.640431810452
 31
0.0
  0
LINE
  5
28BA
330
2696
100
AcDbEntity
  8
0
 62
     0
 48
10.0
100
AcDbLine
 10
100.4891981372278
 20
166.2012981755018
 30
0.0
 11
100.4891981372278
 21
166.2012981755018
 31
0.0
  0
LINE
  5
28BB
330
2696
100
AcDbEntity
  8
0
 62
     0
 48
10.0
100
AcDbLine
 10
101.2530174581631
 20
165.501386720412
 30
0.0
 11
101.2530174581631
 21
165.501386720412
 31
0.0
  0
LINE
  5
28BC
330
2696
100
AcDbEntity
  8
0
 62
     0
 48
10.0
100
AcDbLine
 10
102.336815143274
 20
164.508269115217
 30
0.0
 11
102.336815143274
 21
164.508269115217
 31
0.0
  0
LINE
  5
28BD
330
2696
100
AcDbEntity
  8
0
 62
     0
 48
10.0
100
AcDbLine
 10
102.8160454122005
 20
164.0691354802668
 30
0.0
 11
102.8160454122005
 21
164.0691354802668
 31
0.0
  0
LINE
  5
28BE
330
2696
100
AcDbEntity
  8
0
 62
     0
 48
10.0
100
AcDbLine
 10
103.5798647331358
 20
163.369224025177
 30
0.0
 11
103.5798647331358
 21
163.369224025177
 31
0.0
  0
LINE
  5
28BF
330
2696
100
AcDbEntity
  8
0
 62
     0
 48
10.0
100
AcDbLine
 10
98.84359552961649
 20
166.4402218457874
 30
0.0
 11
98.84359552961649
 21
166.4402218457874
 31
0.0
  0
LINE
  5
28C0
330
2696
100
AcDbEntity
  8
0
 62
     0
 48
10.0
100
AcDbLine
 10
99.32282579854309
 20
166.0010882108372
 30
0.0
 11
99.32282579854309
 21
166.0010882108372
 31
0.0
  0
LINE
  5
28C1
330
2696
100
AcDbEntity
  8
0
 62
     0
 48
10.0
100
AcDbLine
 10
100.0866451194783
 20
165.3011767557474
 30
0.0
 11
100.0866451194783
 21
165.3011767557474
 31
0.0
  0
LINE
  5
28C2
330
2696
100
AcDbEntity
  8
0
 62
     0
 48
10.0
100
AcDbLine
 10
101.1704428045892
 20
164.3080591505523
 30
0.0
 11
101.1704428045892
 21
164.3080591505523
 31
0.0
  0
LINE
  5
28C3
330
2696
100
AcDbEntity
  8
0
 62
     0
 48
10.0
100
AcDbLine
 10
101.6496730735158
 20
163.8689255156022
 30
0.0
 11
101.6496730735158
 21
163.8689255156022
 31
0.0
  0
LINE
  5
28C4
330
2696
100
AcDbEntity
  8
0
 62
     0
 48
10.0
100
AcDbLine
 10
102.4134923944511
 20
163.1690140605124
 30
0.0
 11
102.4134923944511
 21
163.1690140605124
 31
0.0
  0
LINE
  5
28C5
330
2696
100
AcDbEntity
  8
0
 62
     0
 48
10.0
100
AcDbLine
 10
103.4972900795619
 20
162.1758964553174
 30
0.0
 11
103.4972900795619
 21
162.1758964553174
 31
0.0
  0
LINE
  5
28C6
330
2696
100
AcDbEntity
  8
0
 62
     0
 48
10.0
100
AcDbLine
 10
98.15645345985831
 20
165.8008782461725
 30
0.0
 11
98.15645345985831
 21
165.8008782461725
 31
0.0
  0
LINE
  5
28C7
330
2696
100
AcDbEntity
  8
0
 62
     0
 48
10.0
100
AcDbLine
 10
98.9202727807936
 20
165.1009667910827
 30
0.0
 11
98.9202727807936
 21
165.1009667910827
 31
0.0
  0
LINE
  5
28C8
330
2696
100
AcDbEntity
  8
0
 62
     0
 48
10.0
100
AcDbLine
 10
100.0040704659044
 20
164.1078491858877
 30
0.0
 11
100.0040704659044
 21
164.1078491858877
 31
0.0
  0
LINE
  5
28C9
330
2696
100
AcDbEntity
  8
0
 62
     0
 48
10.0
100
AcDbLine
 10
100.483300734831
 20
163.6687155509375
 30
0.0
 11
100.483300734831
 21
163.6687155509375
 31
0.0
  0
LINE
  5
28CA
330
2696
100
AcDbEntity
  8
0
 62
     0
 48
10.0
100
AcDbLine
 10
101.2471200557663
 20
162.9688040958477
 30
0.0
 11
101.2471200557663
 21
162.9688040958477
 31
0.0
  0
LINE
  5
28CB
330
2696
100
AcDbEntity
  8
0
 62
     0
 48
10.0
100
AcDbLine
 10
102.3309177408772
 20
161.9756864906527
 30
0.0
 11
102.3309177408772
 21
161.9756864906527
 31
0.0
  0
LINE
  5
28CC
330
2696
100
AcDbEntity
  8
0
 62
     0
 48
10.0
100
AcDbLine
 10
102.8101480098037
 20
161.5365528557025
 30
0.0
 11
102.8101480098037
 21
161.5365528557025
 31
0.0
  0
LINE
  5
28CD
330
2696
100
AcDbEntity
  8
0
 62
     0
 48
10.0
100
AcDbLine
 10
98.8376981272197
 20
163.907639221223
 30
0.0
 11
98.8376981272197
 21
163.907639221223
 31
0.0
  0
LINE
  5
28CE
330
2696
100
AcDbEntity
  8
0
 62
     0
 48
10.0
100
AcDbLine
 10
99.31692839614628
 20
163.4685055862729
 30
0.0
 11
99.31692839614628
 21
163.4685055862729
 31
0.0
  0
LINE
  5
28CF
330
2696
100
AcDbEntity
  8
0
 62
     0
 48
10.0
100
AcDbLine
 10
100.0807477170815
 20
162.7685941311831
 30
0.0
 11
100.0807477170815
 21
162.7685941311831
 31
0.0
  0
LINE
  5
28D0
330
2696
100
AcDbEntity
  8
0
 62
     0
 48
10.0
100
AcDbLine
 10
101.1645454021924
 20
161.775476525988
 30
0.0
 11
101.1645454021924
 21
161.775476525988
 31
0.0
  0
LINE
  5
28D1
330
2696
100
AcDbEntity
  8
0
 62
     0
 48
10.0
100
AcDbLine
 10
98.15055605746151
 20
163.2682956216082
 30
0.0
 11
98.15055605746151
 21
163.2682956216082
 31
0.0
  0
LINE
  5
28D2
330
2696
100
AcDbEntity
  8
0
 62
     0
 48
10.0
100
AcDbLine
 10
98.91437537839678
 20
162.5683841665184
 30
0.0
 11
98.91437537839678
 21
162.5683841665184
 31
0.0
  0
LINE
  5
28D3
330
2696
100
AcDbEntity
  8
0
 62
     0
 48
10.0
100
AcDbLine
 10
99.99817306350767
 20
161.5752665613234
 30
0.0
 11
99.99817306350767
 21
161.5752665613234
 31
0.0
  0
LINE
  5
28D4
330
2696
100
AcDbEntity
  8
0
 62
     0
 48
10.0
100
AcDbLine
 10
97.74800303971204
 20
162.3681742018538
 30
0.0
 11
97.74800303971204
 21
162.3681742018538
 31
0.0
  0
ENDBLK
  5
28D6
330
2696
100
AcDbEntity
  8
0
 48
10.0
100
AcDbBlockEnd
  0
ENDSEC
  0
SECTION
  2
ENTITIES
  0
MTEXT
  5
1C2
330
2
100
AcDbEntity
  8
BEM
 48
10.0
100
AcDbMText
 10
457.9302800175508
 20
202.179276141615
 30
0.0
 40
10.0
 41
0.0
 71
     6
 72
     1
  1
\A1;
1001
ACAD
1000
MTEXTBEGIN
1070
    73
1070
     1
1070
    44
1040
1.0
1070
    74
1070
     0
1000
MTEXTEND
  0
MTEXT
  5
1F2
330
2
100
AcDbEntity
  8
BEM
 48
10.0
100
AcDbMText
 10
613.0433420937672
 20
186.1266045212951
 30
0.0
 40
10.0
 41
0.0
 71
     4
 72
     1
  1
\A1;
1001
ACAD
1000
MTEXTBEGIN
1070
    73
1070
     1
1070
    44
1040
1.0
1070
    74
1070
     0
1000
MTEXTEND
  0
LINE
  5
C15
330
2
100
AcDbEntity
  8
0
100
AcDbLine
 10
617.357014758325
 20
269.7920913297066
 30
0.0
 11
699.857014758325
 21
269.7920913297066
 31
0.0
1001
ACAD
1000
ASC_BOUNDS
1002
{
1070
    19
1002
}
  0
LINE
  5
C16
330
2
100
AcDbEntity
  8
0
100
AcDbLine
 10
619.4255172758034
 20
399.7920913297066
 30
0.0
 11
759.857014758325
 21
399.7920913297066
 31
0.0
1001
ACAD
1000
ASC_BOUNDS
1002
{
1070
    19
1002
}
  0
LINE
  5
C19
330
2
100
AcDbEntity
  8
MITTE
 48
15.0
100
AcDbLine
 10
540.1147862988081
 20
338.7920913297066
 30
0.0
 11
883.6048977570536
 21
338.7920913297066
 31
0.0
  0
LINE
  5
C1A
330
2
100
AcDbEntity
  8
0
100
AcDbLine
 10
679.357014758325
 20
269.7920913297066
 30
0.0
 11
634.357014758325
 21
269.7920913297066
 31
0.0
1001
ACAD
1000
ASC_BOUNDS
1002
{
1070
    19
1002
}
  0
LINE
  5
C1B
330
2
100
AcDbEntity
  8
0
100
AcDbLine
 10
677.8480962938119
 20
238.7920913297071
 30
0.0
 11
635.8659332228381
 21
238.7920913297066
 31
0.0
  0
LINE
  5
C1C
330
2
100
AcDbEntity
  8
0
100
AcDbLine
 10
679.357014758325
 20
259.9467918680861
 30
0.0
 11
634.357014758325
 21
259.9467918680861
 31
0.0
  0
ARC
  5
C1D
330
2
100
AcDbEntity
  8
0
100
AcDbCircle
 10
656.857014758325
 20
274.2670913297065
 30
0.0
 40
35.475
100
AcDbArc
 50
254.8460917587428
 51
285.1539082412571
  0
ARC
  5
C1E
330
2
100
AcDbEntity
  8
0
100
AcDbCircle
 10
656.857014758325
 20
224.4717918680858
 30
0.0
 40
35.475
100
AcDbArc
 50
74.84609175874287
 51
105.1539082412571
  0
LINE
  5
C22
330
2
100
AcDbEntity
  8
0
100
AcDbLine
 10
552.857014758325
 20
375.7920913297066
 30
0.0
 11
552.8570147583255
 21
301.7920913297066
 31
0.0
1001
ACAD
1000
ASC_BOUNDS
1002
{
1070
    19
1005
0
1005
0
1002
}
  0
LINE
  5
C23
330
2
100
AcDbEntity
  8
0
100
AcDbLine
 10
552.857014758325
 20
404.7920913297066
 30
0.0
 11
552.857014758325
 21
272.7920913297066
 31
0.0
1001
ACAD
1000
ASC_BOUNDS
1002
{
1070
    19
1005
0
1005
0
1005
0
1005
0
1002
}
  0
LINE
  5
C24
330
2
100
AcDbEntity
  8
0
100
AcDbLine
 10
545.857014758325
 20
404.7920913297066
 30
0.0
 11
545.8570147583259
 21
261.7920913297066
 31
0.0
1001
ACAD
1000
ASC_BOUNDS
1002
{
1070
    19
1005
0
1005
0
1005
0
1005
0
1002
}
  0
LINE
  5
C25
330
2
100
AcDbEntity
  8
0
100
AcDbLine
 10
592.857014758325
 20
404.7920913297066
 30
0.0
 11
592.857014758325
 21
272.7920913297066
 31
0.0
1001
ACAD
1000
ASC_BOUNDS
1002
{
1070
    19
1005
0
1005
0
1005
0
1005
0
1002
}
  0
LINE
  5
C26
330
2
100
AcDbEntity
  8
0
100
AcDbLine
 10
592.857014758325
 20
404.7920913297066
 30
0.0
 11
592.857014758325
 21
272.7920913297066
 31
0.0
1001
ACAD
1000
ASC_BOUNDS
1002
{
1070
    19
1005
0
1002
}
  0
LINE
  5
C27
330
2
100
AcDbEntity
  8
0
100
AcDbLine
 10
326.6923211150301
 20
338.7920913297066
 30
0.0
 11
326.6923211150301
 21
271.2920913297066
 31
0.0
  0
LINE
  5
C28
330
2
100
AcDbEntity
  8
0
100
AcDbLine
 10
326.6923211150301
 20
338.7920913297071
 30
0.0
 11
326.6923211150301
 21
271.2920913297066
 31
0.0
  0
ARC
  5
C29
330
2
100
AcDbEntity
  8
0
100
AcDbCircle
 10
227.012834760013
 20
346.7920913297066
 30
0.0
 40
100.0
100
AcDbArc
 50
310.9260633096058
 51
355.4114342642181
1001
ACAD
1000
ASC_BOUNDS
1002
{
1070
    19
1005
0
1002
}
  0
LINE
  5
C2A
330
2
100
AcDbEntity
  8
0
100
AcDbLine
 10
204.6923211150301
 20
338.7920913297066
 30
0.0
 11
204.6923211150301
 21
271.2920913297066
 31
0.0
  0
LINE
  5
C2B
330
2
100
AcDbEntity
  8
0
100
AcDbLine
 10
204.6923211150301
 20
338.7920913297071
 30
0.0
 11
204.6923211150301
 21
271.2920913297066
 31
0.0
  0
ARC
  5
C2C
330
2
100
AcDbEntity
  8
0
100
AcDbCircle
 10
265.6923211150301
 20
338.7920913297071
 30
0.0
 40
65.81669415865359
100
AcDbArc
 50
179.5853943548262
 51
202.0561142201661
  0
ARC
  5
C2D
330
2
100
AcDbEntity
  8
0
100
AcDbCircle
 10
304.3718074700468
 20
346.7920913297066
 30
0.0
 40
100.0
100
AcDbArc
 50
184.5885657357819
 51
229.0739366903941
1001
ACAD
1000
ASC_BOUNDS
1002
{
1070
    19
1005
0
1002
}
  0
CIRCLE
  5
C2E
330
2
100
AcDbEntity
  8
0
100
AcDbCircle
 10
265.6923211150301
 20
338.7920913297066
 30
0.0
 40
47.5
  0
CIRCLE
  5
C2F
330
2
100
AcDbEntity
  8
0
100
AcDbCircle
 10
265.6923211150301
 20
338.7920913297066
 30
0.0
 40
45.49999999999999
  0
LINE
  5
C30
330
2
100
AcDbEntity
  8
0
100
AcDbLine
 10
474.3570147583255
 20
382.5420913297066
 30
0.0
 11
474.3570147583255
 21
224.5420913297066
 31
0.0
  0
LINE
  5
C31
330
2
100
AcDbEntity
  8
0
100
AcDbLine
 10
464.8570147583236
 20
382.5420913297066
 30
0.0
 11
464.8570147583255
 21
224.5420913297066
 31
0.0
  0
LINE
  5
C32
330
2
100
AcDbEntity
  8
0
100
AcDbLine
 10
476.8570147583232
 20
227.0420913297043
 30
0.0
 11
476.8570147583254
 21
380.0420913297066
 31
0.0
  0
LINE
  5
C33
330
2
100
AcDbEntity
  8
0
100
AcDbLine
 10
477.857014758325
 20
358.5420913297066
 30
0.0
 11
477.857014758325
 21
248.5420913297066
 31
0.0
  0
ARC
  5
C34
330
2
100
AcDbEntity
  8
0
100
AcDbCircle
 10
265.6923211150301
 20
303.5420913297066
 30
0.0
 40
76.5
100
AcDbArc
 50
141.2765480274876
 51
220.119166898404
  0
ARC
  5
C35
330
2
100
AcDbEntity
  8
0
100
AcDbCircle
 10
265.6923211150301
 20
303.5420913297066
 30
0.0
 40
79.0
100
AcDbArc
 50
137.5019138175577
 51
222.2254350822093
  0
ARC
  5
C36
330
2
100
AcDbEntity
  8
0
100
AcDbCircle
 10
265.6923211150301
 20
303.5420913297066
 30
0.0
 40
76.5
100
AcDbArc
 50
319.8808331015959
 51
38.72345197251231
  0
ARC
  5
C37
330
2
100
AcDbEntity
  8
0
100
AcDbCircle
 10
265.6923211150301
 20
303.5420913297066
 30
0.0
 40
79.0
100
AcDbArc
 50
317.7745649177906
 51
42.49808618244228
  0
LINE
  5
C39
330
2
100
AcDbEntity
  8
LINIE
 48
10.0
100
AcDbLine
 10
616.5342700045494
 20
337.6353005364444
 30
0.0
 11
616.5342700045494
 21
279.9310532743906
 31
0.0
  0
LINE
  5
C3A
330
2
100
AcDbEntity
  8
LINIE
 48
10.0
100
AcDbLine
 10
513.8666337015584
 20
314.0420913297066
 30
0.0
 11
513.8666337015584
 21
327.0868233616856
 31
0.0
  0
LINE
  5
C3C
330
2
100
AcDbEntity
  8
LINIE
  6
STRICHLINIE
 48
10.0
100
AcDbLine
 10
468.8570147583241
 20
358.5420913297066
 30
0.0
 11
468.8570147583249
 21
248.5420913297066
 31
0.0
  0
CIRCLE
  5
C3D
330
2
100
AcDbEntity
  8
MITTE
 48
10.0
100
AcDbCircle
 10
265.6923211150301
 20
338.7920913297066
 30
0.0
 40
55.0
  0
LINE
  5
C3E
330
2
100
AcDbEntity
  8
MITTE
 48
10.0
100
AcDbLine
 10
265.6923211150301
 20
408.5440085743593
 30
0.0
 11
265.6923211150301
 21
218.7738031237127
 31
0.0
  0
ARC
  5
C44
330
2
100
AcDbEntity
  8
0
100
AcDbCircle
 10
265.6923211150301
 20
303.5420913297066
 30
0.0
 40
79.0
100
AcDbArc
 50
235.0467976873806
 51
304.9532023126193
  0
LINE
  5
C45
330
2
100
AcDbEntity
  8
0
100
AcDbLine
 10
250.1923211150301
 20
268.7920913297066
 30
0.0
 11
205.1923211150301
 21
268.7920913297066
 31
0.0
1001
ACAD
1000
ASC_BOUNDS
1002
{
1070
    19
1002
}
  0
LINE
  5
C46
330
2
100
AcDbEntity
  8
0
100
AcDbLine
 10
207.1923211150301
 20
268.7920913297066
 30
0.0
 11
324.1923211150301
 21
268.7920913297066
 31
0.0
1001
ACAD
1000
ASC_BOUNDS
1002
{
1070
    19
1005
0
1002
}
  0
ARC
  5
C47
330
2
100
AcDbEntity
  8
0
100
AcDbCircle
 10
265.6923211150301
 20
338.7920913297066
 30
0.0
 40
61.0
100
AcDbArc
 50
203.3712029743159
 51
336.628797025684
  0
CIRCLE
  5
C48
330
2
100
AcDbEntity
  8
0
100
AcDbCircle
 10
218.0609239068858
 20
311.2920913297066
 30
0.0
 40
5.0
  0
ARC
  5
C49
330
2
100
AcDbEntity
  8
0
100
AcDbCircle
 10
217.4423211150301
 20
236.296791868086
 30
0.0
 40
23.65
100
AcDbArc
 50
70.14839776841663
 51
109.8516022315833
  0
ARC
  5
C4A
330
2
100
AcDbEntity
  8
0
100
AcDbCircle
 10
217.4423211150301
 20
262.4420913297067
 30
0.0
 40
23.65
100
AcDbArc
 50
250.1483977684166
 51
289.8516022315833
  0
LINE
  5
C4B
330
2
100
AcDbEntity
  8
0
100
AcDbLine
 10
247.1923211150301
 20
238.7920913297066
 30
0.0
 11
208.1923211150301
 21
238.7920913297066
 31
0.0
1001
ACAD
1000
ASC_BOUNDS
1002
{
1070
    19
1005
0
1002
}
  0
LINE
  5
C4C
330
2
100
AcDbEntity
  8
0
100
AcDbLine
 10
205.1923211150301
 20
259.9467918680861
 30
0.0
 11
243.1923211150301
 21
259.9467918680861
 31
0.0
  0
HATCH
  5
C4D
330
2
100
AcDbEntity
  8
LINIE
 48
10.0
100
AcDbHatch
 10
0.0
 20
0.0
 30
0.0
210
0.0
220
0.0
230
1.0
  2
AR-CONC
 70
     0
 71
     0
 91
        4
 92
        7
 72
     1
 73
     1
 93
        6
 10
265.6923211150299
 20
277.7920913297066
 42
0.0
 10
265.6923211150299
 20
268.7920913297066
 42
0.0
 10
285.9704466519476
 20
268.7920913297066
 42
0.1804963181033825
 10
292.5212924177182
 20
271.236535774151
 42
0.1026679893051982
 10
317.1762281078678
 20
303.5420913297066
 42
0.0
 10
315.4762291576896
 20
303.5420913297066
 42
-0.243307867483704
 97
        0
 92
        7
 72
     1
 73
     1
 93
        6
 10
215.9084130723702
 20
303.5420913297066
 42
0.0
 10
214.208414122192
 20
303.5420913297066
 42
0.1026679893051983
 10
238.8633498123416
 20
271.236535774151
 42
0.1804963181033819
 10
245.4141955781121
 20
268.7920913297066
 42
0.0
 10
265.6923211150299
 20
268.7920913297066
 42
0.0
 10
265.6923211150299
 20
277.7920913297066
 42
-0.2433078674837039
 97
        0
 92
        7
 72
     1
 73
     1
 93
        6
 10
240.6923211150299
 20
268.7920913297066
 42
-0.4142135623730934
 10
243.1923211150299
 20
266.2920913297066
 42
0.0
 10
243.1923211150299
 20
258.2920913297066
 42
0.0503820444849738
 10
243.2428313722469
 20
257.7920913297057
 42
0.0
 10
265.6923211150299
 20
257.7920913297057
 42
0.0
 10
265.6923211150299
 20
268.7920913297066
 42
0.0
 97
        0
 92
        7
 72
     1
 73
     1
 93
        6
 10
288.1418108578129
 20
257.7920913297057
 42
0.0503820444849739
 10
288.1923211150299
 20
258.2920913297066
 42
0.0
 10
288.1923211150299
 20
266.2920913297066
 42
-0.4142135623730951
 10
290.6923211150299
 20
268.7920913297066
 42
0.0
 10
265.6923211150299
 20
268.7920913297067
 42
0.0
 10
265.6923211150299
 20
257.7920913297057
 42
0.0
 97
        0
 75
     0
 76
     1
 52
0.0
 41
1.0
 77
     0
 78
    13
 53
50.0
 43
305.060579525973
 44
13.08238160795326
 45
7.172601826007534
 46
-0.6275213498259511
 79
     2
 49
0.75
 49
-8.25
 53
355.0
 43
305.060579525973
 44
13.08238160795326
 45
-1.38751333613
 46
7.521921337000118
 79
     2
 49
0.6
 49
-6.599999999999999
 53
100.4513999999999
 43
305.658296325973
 44
13.03008820795321
 45
5.785093817140215
 46
6.894395420609535
 79
     2
 49
0.6374018999999994
 49
-7.011421119999993
 53
46.1842
 43
305.060579525973
 44
15.08238160795326
 45
10.67241048625644
 46
-1.65519014329018
 79
     2
 49
1.125
 49
-12.375
 53
96.63559999999998
 43
305.949946975973
 44
14.94444853795334
 45
9.346627055487033
 46
9.741178709004417
 79
     2
 49
0.9561028799999991
 49
-10.51712999999998
 53
351.1842
 43
305.060579525973
 44
15.08238160795326
 45
9.346619451336271
 46
9.741186009253246
 79
     2
 49
0.9
 49
-9.9
 53
21.0
 43
306.060579525973
 44
14.58238160795326
 45
5.969070521184616
 46
-4.026188906653388
 79
     2
 49
0.75
 49
-8.25
 53
326.0
 43
306.060579525973
 44
14.58238160795326
 45
2.433153319215817
 46
7.25150045046853
 79
     2
 49
0.6
 49
-6.599999999999999
 53
71.45140000000001
 43
306.558001855973
 44
14.24686554795334
 45
8.402226285814899
 46
3.225304967099523
 79
     2
 49
0.6374019000000001
 49
-7.011421119999999
 53
37.5
 43
305.060579525973
 44
13.08238160795326
 45
0.1215985531729067
 46
3.328938538313114
 79
     6
 49
0.0
 49
-6.519999999999999
 49
0.0
 49
-6.7
 49
0.0
 49
-6.625
 53
7.499999999999999
 43
305.060579525973
 44
13.08238160795326
 45
2.630695374421486
 46
3.944117118823602
 79
     6
 49
0.0
 49
-3.819999999999999
 49
0.0
 49
-6.37
 49
0.0
 49
-2.524999999999999
 53
327.4999999999999
 43
302.830579525973
 44
13.08238160795326
 45
5.33822436172409
 46
-0.225548717343798
 79
     6
 49
0.0
 49
-2.5
 49
0.0
 49
-7.799999999999999
 49
0.0
 49
-10.34999999999999
 53
317.5
 43
301.830579525973
 44
13.08238160795326
 45
5.831861693423862
 46
1.001049823323176
 79
     6
 49
0.0
 49
-3.25
 49
0.0
 49
-5.179999999999999
 49
0.0
 49
-7.349999999999999
 47
0.2899962470445532
 98
        4
 10
286.1635847713851
 20
275.5684931628661
 10
255.1234148272937
 20
275.2784962184891
 10
259.7649359236356
 20
263.6786477313721
 10
278.3310173703021
 20
260.1986927668376
  0
LINE
  5
C4E
330
2
100
AcDbEntity
  8
MITTE
 48
10.0
100
AcDbLine
 10
349.5243154769932
 20
303.5420913297066
 30
0.0
 11
182.4699006181267
 21
303.5420913297066
 31
0.0
  0
LINE
  5
C4F
330
2
100
AcDbEntity
  8
0
100
AcDbLine
 10
239.2462755344531
 20
268.7920913297066
 30
0.0
 11
292.9042181398299
 21
268.7920913297066
 31
0.0
  0
ARC
  5
C50
330
2
100
AcDbEntity
  8
0
100
AcDbCircle
 10
285.9704466519474
 20
278.7920913297066
 30
0.0
 40
10.0
100
AcDbArc
 50
270.0
 51
310.9260633096058
1001
ACAD
1000
ASC_BOUNDS
1002
{
1070
    19
1005
0
1002
}
  0
ARC
  5
C51
330
2
100
AcDbEntity
  8
0
100
AcDbCircle
 10
245.4141955781119
 20
278.7920913297066
 30
0.0
 40
10.0
100
AcDbArc
 50
229.0739366903941
 51
270.0
1001
ACAD
1000
ASC_BOUNDS
1002
{
1070
    19
1005
0
1002
}
  0
ARC
  5
C52
330
2
100
AcDbEntity
  8
0
100
AcDbCircle
 10
240.6923211150301
 20
266.2920913297066
 30
0.0
 40
2.5
100
AcDbArc
 50
0.0
 51
90.0
  0
LINE
  5
C53
330
2
100
AcDbEntity
  8
0
100
AcDbLine
 10
243.1923211150301
 20
266.2920913297066
 30
0.0
 11
243.1923211150301
 21
258.2920913297066
 31
0.0
  0
ARC
  5
C54
330
2
100
AcDbEntity
  8
0
100
AcDbCircle
 10
245.6923211150301
 20
258.2920913297066
 30
0.0
 40
2.5
100
AcDbArc
 50
180.0
 51
191.5369590328385
  0
LINE
  5
C55
330
2
100
AcDbEntity
  8
0
100
AcDbLine
 10
243.2428313722471
 20
257.7920913297057
 30
0.0
 11
288.1418108578131
 21
257.7920913297057
 31
0.0
  0
ARC
  5
C56
330
2
100
AcDbEntity
  8
0
100
AcDbCircle
 10
290.6923211150301
 20
266.2920913297066
 30
0.0
 40
2.5
100
AcDbArc
 50
90.0
 51
180.0
  0
ARC
  5
C57
330
2
100
AcDbEntity
  8
0
100
AcDbCircle
 10
285.6923211150301
 20
258.2920913297066
 30
0.0
 40
2.5
100
AcDbArc
 50
348.4630409671614
 51
0.0
  0
LINE
  5
C58
330
2
100
AcDbEntity
  8
0
100
AcDbLine
 10
288.1923211150301
 20
266.2920913297066
 30
0.0
 11
288.1923211150301
 21
258.2920913297066
 31
0.0
  0
LINE
  5
C59
330
2
100
AcDbEntity
  8
0
100
AcDbLine
 10
209.4111319129256
 20
240.197485241938
 30
0.0
 11
209.4111319129256
 21
258.5413979558548
 31
0.0
  0
LINE
  5
C5A
330
2
100
AcDbEntity
  8
0
100
AcDbLine
 10
207.1923211150301
 20
239.7920913297066
 30
0.0
 11
207.1923211150301
 21
258.792091329707
 31
0.0
1001
ACAD
1000
ASC_BOUNDS
1002
{
1070
    19
1002
}
  0
TEXT
  5
C5B
330
2
100
AcDbEntity
  8
0
100
AcDbText
 10
192.0021502368685
 20
232.5573693041037
 30
0.0
 40
10.0
  1
L
100
AcDbText
  0
LINE
  5
C5C
330
2
100
AcDbEntity
  8
0
100
AcDbLine
 10
207.1923211150301
 20
239.7920913297066
 30
0.0
 11
209.4111319129256
 21
240.197485241938
 31
0.0
  0
LINE
  5
C5D
330
2
100
AcDbEntity
  8
0
100
AcDbLine
 10
207.1923211150301
 20
239.7920913297066
 30
0.0
 11
208.1923211150301
 21
238.7920913297066
 31
0.0
1001
ACAD
1000
ASC_BOUNDS
1002
{
1070
    19
1002
}
  0
LINE
  5
C5E
330
2
100
AcDbEntity
  8
0
100
AcDbLine
 10
205.1923211150301
 20
259.9467918680861
 30
0.0
 11
205.1923211150301
 21
268.7920913297066
 31
0.0
1001
ACAD
1000
ASC_BOUNDS
1002
{
1070
    19
1002
}
  0
LINE
  5
C5F
330
2
100
AcDbEntity
  8
0
100
AcDbLine
 10
207.1923211150301
 20
258.792091329707
 30
0.0
 11
209.4111319129256
 21
258.5413979558548
 31
0.0
  0
LINE
  5
C60
330
2
100
AcDbEntity
  8
0
100
AcDbLine
 10
207.1923211150301
 20
258.792091329707
 30
0.0
 11
205.1923211150301
 21
259.9467918680861
 31
0.0
1001
ACAD
1000
ASC_BOUNDS
1002
{
1070
    19
1002
}
  0
ARC
  5
C61
330
2
100
AcDbEntity
  8
0
100
AcDbCircle
 10
207.1923211150301
 20
271.2920913297066
 30
0.0
 40
2.5
100
AcDbArc
 50
180.0
 51
270.0
  0
ARC
  5
C62
330
2
100
AcDbEntity
  8
0
100
AcDbCircle
 10
207.1923211150301
 20
271.2920913297066
 30
0.0
 40
2.5
100
AcDbArc
 50
180.0
 51
270.0
  0
ARC
  5
C63
330
2
100
AcDbEntity
  8
0
100
AcDbCircle
 10
265.6923211150301
 20
303.5420913297066
 30
0.0
 40
76.5
100
AcDbArc
 50
237.8228085508638
 51
302.1771914491361
  0
LINE
  5
C6B
330
2
100
AcDbEntity
  8
0
100
AcDbLine
 10
326.1923211150301
 20
268.7920913297066
 30
0.0
 11
281.1923211150301
 21
268.7920913297066
 31
0.0
1001
ACAD
1000
ASC_BOUNDS
1002
{
1070
    19
1002
}
  0
CIRCLE
  5
C6C
330
2
100
AcDbEntity
  8
0
100
AcDbCircle
 10
313.323718323174
 20
311.2920913297066
 30
0.0
 40
5.0
  0
LINE
  5
C6D
330
2
100
AcDbEntity
  8
0
100
AcDbLine
 10
288.1923211150301
 20
259.9467918680861
 30
0.0
 11
326.1923211150301
 21
259.9467918680861
 31
0.0
  0
LINE
  5
C6E
330
2
100
AcDbEntity
  8
0
100
AcDbLine
 10
323.1923211150301
 20
238.7920913297066
 30
0.0
 11
284.1923211150301
 21
238.7920913297066
 31
0.0
1001
ACAD
1000
ASC_BOUNDS
1002
{
1070
    19
1005
0
1002
}
  0
ARC
  5
C6F
330
2
100
AcDbEntity
  8
0
100
AcDbCircle
 10
313.9423211150301
 20
262.4420913297067
 30
0.0
 40
23.65
100
AcDbArc
 50
250.1483977684166
 51
289.8516022315833
  0
ARC
  5
C70
330
2
100
AcDbEntity
  8
0
100
AcDbCircle
 10
313.9423211150301
 20
236.296791868086
 30
0.0
 40
23.65
100
AcDbArc
 50
70.14839776841663
 51
109.8516022315833
  0
ARC
  5
C71
330
2
100
AcDbEntity
  8
0
100
AcDbCircle
 10
265.6923211150301
 20
303.5420913297066
 30
0.0
 40
55.0
100
AcDbArc
 50
251.4469954649775
 51
288.5530045350224
  0
LINE
  5
C72
330
2
100
AcDbEntity
  8
0
100
AcDbLine
 10
248.1923211150301
 20
239.7920913297066
 30
0.0
 11
248.1923211150301
 21
257.7920913297057
 31
0.0
1001
ACAD
1000
ASC_BOUNDS
1002
{
1070
    19
1002
}
  0
LINE
  5
C73
330
2
100
AcDbEntity
  8
0
100
AcDbLine
 10
245.9735103171346
 20
240.197485241938
 30
0.0
 11
245.9735103171346
 21
257.7920913297057
 31
0.0
  0
LINE
  5
C74
330
2
100
AcDbEntity
  8
0
100
AcDbLine
 10
225.4735103171347
 20
240.197485241938
 30
0.0
 11
225.4735103171347
 21
258.5413979558548
 31
0.0
  0
LINE
  5
C75
330
2
100
AcDbEntity
  8
0
100
AcDbLine
 10
229.9111319129256
 20
240.197485241938
 30
0.0
 11
229.9111319129256
 21
258.5413979558548
 31
0.0
  0
LINE
  5
C76
330
2
100
AcDbEntity
  8
MITTE
 48
7.0
100
AcDbLine
 10
227.6923211150301
 20
235.7343307221003
 30
0.0
 11
227.6923211150301
 21
272.1253655601972
 31
0.0
  0
ARC
  5
C77
330
2
100
AcDbEntity
  8
0
100
AcDbCircle
 10
237.9423211150301
 20
262.4420913297067
 30
0.0
 40
23.65
100
AcDbArc
 50
250.1483977684166
 51
289.8516022315833
  0
LINE
  5
C78
330
2
100
AcDbEntity
  8
0
100
AcDbLine
 10
225.4735103171347
 20
240.197485241938
 30
0.0
 11
229.9111319129256
 21
240.197485241938
 31
0.0
  0
LINE
  5
C79
330
2
100
AcDbEntity
  8
0
100
AcDbLine
 10
245.9735103171346
 20
240.197485241938
 30
0.0
 11
248.1923211150301
 21
239.7920913297066
 31
0.0
  0
LINE
  5
C7A
330
2
100
AcDbEntity
  8
0
100
AcDbLine
 10
248.1923211150301
 20
239.7920913297066
 30
0.0
 11
247.1923211150301
 21
238.7920913297066
 31
0.0
1001
ACAD
1000
ASC_BOUNDS
1002
{
1070
    19
1002
}
  0
ARC
  5
C7B
330
2
100
AcDbEntity
  8
0
100
AcDbCircle
 10
237.9423211150301
 20
236.296791868086
 30
0.0
 40
23.65
100
AcDbArc
 50
77.17421556954061
 51
109.8516022315833
  0
LINE
  5
C7C
330
2
100
AcDbEntity
  8
0
100
AcDbLine
 10
225.4735103171347
 20
258.5413979558548
 30
0.0
 11
229.9111319129256
 21
258.5413979558548
 31
0.0
  0
LINE
  5
C7D
330
2
100
AcDbEntity
  8
0
100
AcDbLine
 10
305.9111319129256
 20
240.197485241938
 30
0.0
 11
305.9111319129256
 21
258.5413979558548
 31
0.0
  0
LINE
  5
C7E
330
2
100
AcDbEntity
  8
0
100
AcDbLine
 10
301.4735103171346
 20
240.197485241938
 30
0.0
 11
301.4735103171346
 21
258.5413979558548
 31
0.0
  0
LINE
  5
C7F
330
2
100
AcDbEntity
  8
0
100
AcDbLine
 10
283.1923211150301
 20
239.7920913297066
 30
0.0
 11
283.1923211150301
 21
257.7920913297057
 31
0.0
1001
ACAD
1000
ASC_BOUNDS
1002
{
1070
    19
1002
}
  0
LINE
  5
C80
330
2
100
AcDbEntity
  8
0
100
AcDbLine
 10
285.4111319129255
 20
240.197485241938
 30
0.0
 11
285.4111319129255
 21
257.7920913297057
 31
0.0
  0
LINE
  5
C81
330
2
100
AcDbEntity
  8
MITTE
 48
7.0
100
AcDbLine
 10
303.6923211150301
 20
235.7343307221003
 30
0.0
 11
303.6923211150301
 21
272.1253655601972
 31
0.0
  0
ARC
  5
C82
330
2
100
AcDbEntity
  8
0
100
AcDbCircle
 10
293.4423211150301
 20
262.4420913297067
 30
0.0
 40
23.65
100
AcDbArc
 50
250.1483977684166
 51
289.8516022315833
  0
LINE
  5
C83
330
2
100
AcDbEntity
  8
0
100
AcDbLine
 10
283.1923211150301
 20
239.7920913297066
 30
0.0
 11
285.4111319129255
 21
240.197485241938
 31
0.0
  0
LINE
  5
C84
330
2
100
AcDbEntity
  8
0
100
AcDbLine
 10
283.1923211150301
 20
239.7920913297066
 30
0.0
 11
284.1923211150301
 21
238.7920913297066
 31
0.0
1001
ACAD
1000
ASC_BOUNDS
1002
{
1070
    19
1002
}
  0
LINE
  5
C85
330
2
100
AcDbEntity
  8
0
100
AcDbLine
 10
301.4735103171346
 20
240.197485241938
 30
0.0
 11
305.9111319129256
 21
240.197485241938
 31
0.0
  0
ARC
  5
C86
330
2
100
AcDbEntity
  8
0
100
AcDbCircle
 10
293.4423211150301
 20
236.296791868086
 30
0.0
 40
23.65
100
AcDbArc
 50
70.14839776841663
 51
102.8257844304593
  0
LINE
  5
C87
330
2
100
AcDbEntity
  8
0
100
AcDbLine
 10
301.4735103171346
 20
258.5413979558548
 30
0.0
 11
305.9111319129256
 21
258.5413979558548
 31
0.0
  0
CIRCLE
  5
C88
330
2
100
AcDbEntity
  8
0
100
AcDbCircle
 10
265.6923211150301
 20
283.7920913297066
 30
0.0
 40
5.0
  0
LINE
  5
C89
330
2
100
AcDbEntity
  8
0
100
AcDbLine
 10
321.9735103171347
 20
240.197485241938
 30
0.0
 11
321.9735103171347
 21
258.5413979558548
 31
0.0
  0
LINE
  5
C8A
330
2
100
AcDbEntity
  8
0
100
AcDbLine
 10
324.1923211150301
 20
239.7920913297066
 30
0.0
 11
324.1923211150301
 21
258.792091329707
 31
0.0
1001
ACAD
1000
ASC_BOUNDS
1002
{
1070
    19
1002
}
  0
LINE
  5
C8B
330
2
100
AcDbEntity
  8
0
100
AcDbLine
 10
321.9735103171347
 20
240.197485241938
 30
0.0
 11
324.1923211150301
 21
239.7920913297066
 31
0.0
  0
TEXT
  5
C8C
330
2
100
AcDbEntity
  8
0
100
AcDbText
 10
330.1983716820746
 20
232.1516594304589
 30
0.0
 40
10.0
  1
R
100
AcDbText
  0
LINE
  5
C8D
330
2
100
AcDbEntity
  8
0
100
AcDbLine
 10
324.1923211150301
 20
239.7920913297066
 30
0.0
 11
323.1923211150301
 21
238.7920913297066
 31
0.0
1001
ACAD
1000
ASC_BOUNDS
1002
{
1070
    19
1002
}
  0
LINE
  5
C8E
330
2
100
AcDbEntity
  8
0
100
AcDbLine
 10
326.1923211150301
 20
259.9467918680861
 30
0.0
 11
326.1923211150301
 21
268.7920913297066
 31
0.0
1001
ACAD
1000
ASC_BOUNDS
1002
{
1070
    19
1002
}
  0
LINE
  5
C8F
330
2
100
AcDbEntity
  8
0
100
AcDbLine
 10
324.1923211150301
 20
258.792091329707
 30
0.0
 11
326.1923211150301
 21
259.9467918680861
 31
0.0
1001
ACAD
1000
ASC_BOUNDS
1002
{
1070
    19
1002
}
  0
LINE
  5
C90
330
2
100
AcDbEntity
  8
0
100
AcDbLine
 10
324.1923211150301
 20
258.792091329707
 30
0.0
 11
321.9735103171347
 21
258.5413979558548
 31
0.0
  0
ARC
  5
C91
330
2
100
AcDbEntity
  8
0
100
AcDbCircle
 10
324.1923211150301
 20
271.2920913297066
 30
0.0
 40
2.5
100
AcDbArc
 50
270.0
 51
0.0
  0
ARC
  5
C92
330
2
100
AcDbEntity
  8
0
100
AcDbCircle
 10
324.1923211150301
 20
271.2920913297066
 30
0.0
 40
2.5
100
AcDbArc
 50
270.0
 51
0.0
  0
LINE
  5
C94
330
2
100
AcDbEntity
  8
LINIE
  6
STRICHLINIE
 48
5.0
100
AcDbLine
 10
468.8570147583249
 20
248.5420913297066
 30
0.0
 11
464.8570147583249
 21
248.5420913297066
 31
0.0
  0
LINE
  5
C95
330
2
100
AcDbEntity
  8
0
100
AcDbLine
 10
474.3570147583255
 20
224.5420913297066
 30
0.0
 11
464.8570147583249
 21
224.5420913297066
 31
0.0
  0
LINE
  5
C96
330
2
100
AcDbEntity
  8
MITTE
 48
15.0
100
AcDbLine
 10
406.1580089069584
 20
303.5420913297066
 30
0.0
 11
555.3186639652649
 21
303.5420913297066
 31
0.0
  0
LINE
  5
C9B
330
2
100
AcDbEntity
  8
0
100
AcDbLine
 10
410.8570147583249
 20
315.5420913297066
 30
0.0
 11
458.2570147583255
 21
315.5420913297066
 31
0.0
  0
LINE
  5
C9C
330
2
100
AcDbEntity
  8
0
100
AcDbLine
 10
410.8570147583249
 20
291.5420913297066
 30
0.0
 11
458.2570147583255
 21
291.5420913297066
 31
0.0
  0
LINE
  5
C9D
330
2
100
AcDbEntity
  8
0
100
AcDbLine
 10
454.857014758325
 20
318.4420913297067
 30
0.0
 11
414.8570147583249
 21
318.4420913297067
 31
0.0
  0
LINE
  5
C9E
330
2
100
AcDbEntity
  8
0
100
AcDbLine
 10
410.8570147583249
 20
315.5420913297066
 30
0.0
 11
410.8570147583249
 21
291.5420913297066
 31
0.0
  0
LINE
  5
C9F
330
2
100
AcDbEntity
  8
0
100
AcDbLine
 10
409.857014758325
 20
314.5420913297066
 30
0.0
 11
409.857014758325
 21
292.5420913297066
 31
0.0
  0
LINE
  5
CA0
330
2
100
AcDbEntity
  8
0
100
AcDbLine
 10
410.8570147583249
 20
291.5420913297066
 30
0.0
 11
409.857014758325
 21
292.5420913297066
 31
0.0
  0
LINE
  5
CA1
330
2
100
AcDbEntity
  8
0
100
AcDbLine
 10
410.8570147583249
 20
315.5420913297066
 30
0.0
 11
409.857014758325
 21
314.5420913297066
 31
0.0
  0
LINE
  5
CA2
330
2
100
AcDbEntity
  8
0
100
AcDbLine
 10
414.8570147583249
 20
315.5420913297066
 30
0.0
 11
414.8570147583249
 21
318.4420913297067
 31
0.0
  0
LINE
  5
CA3
330
2
100
AcDbEntity
  8
0
100
AcDbLine
 10
459.857014758325
 20
317.5420913297066
 30
0.0
 11
459.857014758325
 21
289.5420913297066
 31
0.0
  0
ARC
  5
CA4
330
2
100
AcDbEntity
  8
0
100
AcDbCircle
 10
458.2570147583255
 20
289.9420913297067
 30
0.0
 40
1.6
100
AcDbArc
 50
0.0
 51
90.0
  0
LINE
  5
CA5
330
2
100
AcDbEntity
  8
0
100
AcDbLine
 10
459.857014758325
 20
289.5420913297066
 30
0.0
 11
464.8570147583249
 21
289.5420913297066
 31
0.0
  0
LINE
  5
CA6
330
2
100
AcDbEntity
  8
0
100
AcDbLine
 10
454.857014758325
 20
315.5420913297066
 30
0.0
 11
454.857014758325
 21
318.4420913297067
 31
0.0
  0
ARC
  5
CA7
330
2
100
AcDbEntity
  8
0
100
AcDbCircle
 10
458.2570147583255
 20
317.1420913297065
 30
0.0
 40
1.6
100
AcDbArc
 50
270.0
 51
0.0
  0
LINE
  5
CA8
330
2
100
AcDbEntity
  8
0
100
AcDbLine
 10
459.857014758325
 20
317.5420913297066
 30
0.0
 11
464.8570147583245
 21
317.5420913297066
 31
0.0
  0
LINE
  5
CA9
330
2
100
AcDbEntity
  8
0
100
AcDbLine
 10
476.857014758325
 20
227.0420913297066
 30
0.0
 11
474.3570147583255
 21
224.5420913297066
 31
0.0
  0
LINE
  5
CAA
330
2
100
AcDbEntity
  8
0
100
AcDbLine
 10
552.857014758325
 20
272.7920913297066
 30
0.0
 11
592.857014758325
 21
272.7920913297066
 31
0.0
1001
ACAD
1000
ASC_BOUNDS
1002
{
1070
    19
1005
0
1002
}
  0
LINE
  5
CAB
330
2
100
AcDbEntity
  8
LINIE
 48
10.0
100
AcDbLine
 10
513.8666337015584
 20
296.0420913297066
 30
0.0
 11
513.8666337015584
 21
276.0807509969322
 31
0.0
  0
LINE
  5
CAC
330
2
100
AcDbEntity
  8
0
100
AcDbLine
 10
552.8570147583259
 20
288.7920913297066
 30
0.0
 11
552.8570147583259
 21
261.7920913297066
 31
0.0
1001
ACAD
1000
ASC_BOUNDS
1002
{
1070
    19
1005
0
1005
0
1002
}
  0
LINE
  5
CAD
330
2
100
AcDbEntity
  8
0
100
AcDbLine
 10
545.857014758325
 20
316.0969474448143
 30
0.0
 11
545.857014758325
 21
261.5420913297066
 31
0.0
  0
LINE
  5
CAE
330
2
100
AcDbEntity
  8
0
100
AcDbLine
 10
479.8421250769916
 20
253.9598936034558
 30
0.0
 11
518.5816097360384
 21
262.1133169282125
 31
0.0
  0
ARC
  5
CAF
330
2
100
AcDbEntity
  8
0
100
AcDbCircle
 10
521.857014758325
 20
272.5420913297066
 30
0.0
 40
10.0
100
AcDbArc
 50
186.8921025793468
 51
270.0
  0
ARC
  5
CB0
330
2
100
AcDbEntity
  8
0
100
AcDbCircle
 10
480.357014758325
 20
251.5134904036426
 30
0.0
 40
2.5
100
AcDbArc
 50
101.8854606354762
 51
180.0
  0
LINE
  5
CB1
330
2
100
AcDbEntity
  8
0
100
AcDbLine
 10
477.857014758325
 20
248.5420913297066
 30
0.0
 11
476.857014758325
 21
248.5420913297066
 31
0.0
  0
LINE
  5
CB2
330
2
100
AcDbEntity
  8
0
100
AcDbLine
 10
480.357014758325
 20
273.5420913297066
 30
0.0
 11
509.4473411123344
 21
273.5420913297066
 31
0.0
  0
ARC
  5
CB3
330
2
100
AcDbEntity
  8
0
100
AcDbCircle
 10
480.357014758325
 20
271.0420913297066
 30
0.0
 40
2.5
100
AcDbArc
 50
90.0
 51
180.0
  0
ARC
  5
CB4
330
2
100
AcDbEntity
  8
0
100
AcDbCircle
 10
509.4473411123344
 20
271.0420913297066
 30
0.0
 40
2.5
100
AcDbArc
 50
6.892102579346868
 51
90.0
  0
LINE
  5
CB5
330
2
100
AcDbEntity
  8
0
100
AcDbLine
 10
537.857014758325
 20
261.5420913297066
 30
0.0
 11
545.857014758325
 21
261.5420913297066
 31
0.0
  0
LINE
  5
CB6
330
2
100
AcDbEntity
  8
0
100
AcDbLine
 10
521.857014758325
 20
262.5420913297066
 30
0.0
 11
535.8570147583249
 21
262.5420913297066
 31
0.0
  0
ARC
  5
CB7
330
2
100
AcDbEntity
  8
0
100
AcDbCircle
 10
522.7007271867055
 20
242.5420913297066
 30
0.0
 40
20.0
100
AcDbArc
 50
90.0
 51
101.8854606354762
  0
ARC
  5
CB8
330
2
100
AcDbEntity
  8
0
100
AcDbCircle
 10
535.8570147583249
 20
260.0420913297066
 30
0.0
 40
2.5
100
AcDbArc
 50
36.86989764584662
 51
90.0
  0
LINE
  5
CB9
330
2
100
AcDbEntity
  8
0
100
AcDbLine
 10
545.8570147583259
 20
261.7920913297066
 30
0.0
 11
552.8570147583259
 21
261.7920913297066
 31
0.0
1001
ACAD
1000
ASC_BOUNDS
1002
{
1070
    19
1005
0
1002
}
  0
ARC
  5
CBA
330
2
100
AcDbEntity
  8
0
100
AcDbCircle
 10
505.2063796637144
 20
291.0420913297066
 30
0.0
 40
10.0
100
AcDbArc
 50
30.00000000000054
 51
90.0
  0
ARC
  5
CBB
330
2
100
AcDbEntity
  8
0
100
AcDbCircle
 10
505.2063796637144
 20
319.0420913297066
 30
0.0
 40
10.0
100
AcDbArc
 50
270.0
 51
329.9999999999994
  0
LINE
  5
CBC
330
2
100
AcDbEntity
  8
LINIE
 48
10.0
100
AcDbLine
 10
513.8666337015584
 20
310.5490184330424
 30
0.0
 11
513.8666337015584
 21
298.8855128474911
 31
0.0
  0
ARC
  5
CBD
330
2
100
AcDbEntity
  8
0
100
AcDbCircle
 10
480.357014758325
 20
298.5420913297066
 30
0.0
 40
2.5
100
AcDbArc
 50
90.0
 51
180.0
  0
LINE
  5
CBE
330
2
100
AcDbEntity
  8
0
100
AcDbLine
 10
505.2063796637144
 20
301.0420913297066
 30
0.0
 11
480.357014758325
 21
301.0420913297066
 31
0.0
  0
LINE
  5
CBF
330
2
100
AcDbEntity
  8
0
100
AcDbLine
 10
505.2063796637144
 20
309.0420913297066
 30
0.0
 11
480.357014758325
 21
309.0420913297066
 31
0.0
  0
ARC
  5
CC0
330
2
100
AcDbEntity
  8
0
100
AcDbCircle
 10
480.357014758325
 20
311.5420913297066
 30
0.0
 40
2.5
100
AcDbArc
 50
180.0
 51
270.0
  0
ARC
  5
CC1
330
2
100
AcDbEntity
  8
0
100
AcDbCircle
 10
619.4255172758034
 20
267.7920913297066
 30
0.0
 40
10.0
100
AcDbArc
 50
90.0
 51
131.4096221092697
1001
ACAD
1000
ASC_BOUNDS
1002
{
1070
    19
1002
}
  0
LINE
  5
CC2
330
2
100
AcDbEntity
  8
0
100
AcDbLine
 10
616.857014758325
 20
271.2920913297066
 30
0.0
 11
616.857014758325
 21
277.4566034652316
 31
0.0
  0
ARC
  5
CC3
330
2
100
AcDbEntity
  8
0
100
AcDbCircle
 10
628.857014758325
 20
273.7920913297066
 30
0.0
 40
4.0
100
AcDbArc
 50
0.0
 51
90.0
1001
ACAD
1000
ASC_BOUNDS
1002
{
1070
    19
1002
}
  0
ARC
  5
CC4
330
2
100
AcDbEntity
  8
0
100
AcDbCircle
 10
606.1967607204806
 20
282.7920913297066
 30
0.0
 40
10.0
100
AcDbArc
 50
270.0
 51
311.4096221092697
1001
ACAD
1000
ASC_BOUNDS
1002
{
1070
    19
1002
}
  0
LINE
  5
CC5
330
2
100
AcDbEntity
  8
0
100
AcDbLine
 10
592.857014758325
 20
272.7920913297066
 30
0.0
 11
606.1967607204806
 21
272.7920913297066
 31
0.0
1001
ACAD
1000
ASC_BOUNDS
1002
{
1070
    19
1002
}
  0
LINE
  5
CC6
330
2
100
AcDbEntity
  8
0
100
AcDbLine
 10
643.7403032284919
 20
240.3010097942196
 30
0.0
 11
643.7403032284919
 21
258.4378734035731
 31
0.0
  0
LINE
  5
CC7
330
2
100
AcDbEntity
  8
0
100
AcDbLine
 10
634.357014758325
 20
240.3010097942196
 30
0.0
 11
634.357014758325
 21
258.4378734035731
 31
0.0
  0
LINE
  5
CC8
330
2
100
AcDbEntity
  8
0
100
AcDbLine
 10
647.5833962628294
 20
240.0256599197905
 30
0.0
 11
647.5833962628294
 21
258.7132232780022
 31
0.0
  0
ARC
  5
CC9
330
2
100
AcDbEntity
  8
0
100
AcDbCircle
 10
639.0486589934084
 20
246.8403593880407
 30
0.0
 40
8.048268058334087
100
AcDbArc
 50
234.342521810185
 51
305.6574781898202
  0
LINE
  5
CCA
330
2
100
AcDbEntity
  8
0
100
AcDbLine
 10
634.357014758325
 20
240.3010097942196
 30
0.0
 11
635.8659332228381
 21
238.7920913297066
 31
0.0
1001
ACAD
1000
ASC_BOUNDS
1002
{
1070
    19
1002
}
  0
LINE
  5
CCB
330
2
100
AcDbEntity
  8
0
100
AcDbLine
 10
643.7403032284919
 20
240.3010097942196
 30
0.0
 11
647.5833962628294
 21
240.3010097942196
 31
0.0
  0
ARC
  5
CCC
330
2
100
AcDbEntity
  8
0
100
AcDbCircle
 10
636.857014758325
 20
272.7920913297066
 30
0.0
 40
4.0
100
AcDbArc
 50
180.0
 51
228.5903778907302
1001
ACAD
1000
ASC_BOUNDS
1002
{
1070
    19
1002
}
  0
ARC
  5
CCD
330
2
100
AcDbEntity
  8
0
100
AcDbCircle
 10
619.357014758325
 20
271.2920913297066
 30
0.0
 40
2.5
100
AcDbArc
 50
180.0
 51
216.8698976458466
  0
LINE
  5
CCE
330
2
100
AcDbEntity
  8
0
100
AcDbLine
 10
632.857014758325
 20
272.7920913297066
 30
0.0
 11
632.857014758325
 21
273.7920913297066
 31
0.0
1001
ACAD
1000
ASC_BOUNDS
1002
{
1070
    19
1002
}
  0
LINE
  5
CCF
330
2
100
AcDbEntity
  8
0
100
AcDbLine
 10
634.357014758325
 20
259.9467918680861
 30
0.0
 11
634.357014758325
 21
269.7920913297066
 31
0.0
1001
ACAD
1000
ASC_BOUNDS
1002
{
1070
    19
1002
}
  0
LINE
  5
CD0
330
2
100
AcDbEntity
  8
0
100
AcDbLine
 10
643.7403032284919
 20
258.4378734035731
 30
0.0
 11
647.5833962628294
 21
258.4378734035731
 31
0.0
  0
LINE
  5
CD1
330
2
100
AcDbEntity
  8
0
100
AcDbLine
 10
634.357014758325
 20
258.4378734035731
 30
0.0
 11
635.8659332228381
 21
259.9467918680861
 31
0.0
1001
ACAD
1000
ASC_BOUNDS
1002
{
1070
    19
1002
}
  0
ARC
  5
CD2
330
2
100
AcDbEntity
  8
0
100
AcDbCircle
 10
639.0486589934084
 20
251.8985238097516
 30
0.0
 40
8.048268058334087
100
AcDbArc
 50
54.34252181017978
 51
125.6574781898149
  0
LINE
  5
CD3
330
2
100
AcDbEntity
  8
LINIE
 48
10.0
100
AcDbLine
 10
594.2300355498619
 20
277.7920913297066
 30
0.0
 11
617.1850709764785
 21
277.7920913297066
 31
0.0
  0
LINE
  5
CD4
330
2
100
AcDbEntity
  8
0
100
AcDbLine
 10
619.4255172758034
 20
277.7920913297066
 30
0.0
 11
628.857014758325
 21
277.7920913297066
 31
0.0
1001
ACAD
1000
ASC_BOUNDS
1002
{
1070
    19
1002
}
  0
ARC
  5
CD5
330
2
100
AcDbEntity
  8
0
100
AcDbCircle
 10
265.6923211150301
 20
338.7920913297066
 30
0.0
 40
61.0
100
AcDbArc
 50
0.0
 51
180.0
1001
ACAD
1000
ASC_BOUNDS
1002
{
1070
    19
1005
0
1002
}
  0
CIRCLE
  5
CD6
330
2
100
AcDbEntity
  8
0
100
AcDbCircle
 10
218.0609239068858
 20
366.2920913297066
 30
0.0
 40
5.0
  0
LINE
  5
CD7
330
2
100
AcDbEntity
  8
MITTE
 48
10.0
100
AcDbLine
 10
196.665818361173
 20
338.7920913297066
 30
0.0
 11
333.2105998837187
 21
338.7920913297066
 31
0.0
  0
ARC
  5
CD8
330
2
100
AcDbEntity
  8
0
100
AcDbCircle
 10
207.8728912414094
 20
339.0012896933181
 30
0.0
 40
8.0
100
AcDbArc
 50
109.6254537415499
 51
181.4984437231768
  0
CIRCLE
  5
CD9
330
2
100
AcDbEntity
  8
0
100
AcDbCircle
 10
313.323718323174
 20
366.2920913297066
 30
0.0
 40
5.0
  0
ARC
  5
CDA
330
2
100
AcDbEntity
  8
0
100
AcDbCircle
 10
266.103537946235
 20
396.6187415097597
 30
0.0
 40
8.0
100
AcDbArc
 50
19.35914998622735
 51
159.8259803411061
  0
CIRCLE
  5
CDB
330
2
100
AcDbEntity
  8
0
100
AcDbCircle
 10
265.6923211150301
 20
393.7920913297066
 30
0.0
 40
5.0
  0
ARC
  5
CDC
330
2
100
AcDbEntity
  8
0
100
AcDbCircle
 10
323.5117509886508
 20
339.0012896933181
 30
0.0
 40
8.0
100
AcDbArc
 50
293.4264341163753
 51
70.37454625845007
  0
LINE
  5
CDD
330
2
100
AcDbEntity
  8
0
100
AcDbLine
 10
474.3570147583255
 20
382.5420913297066
 30
0.0
 11
464.8570147583236
 21
382.5420913297066
 31
0.0
  0
LINE
  5
CDE
330
2
100
AcDbEntity
  8
LINIE
  6
STRICHLINIE
 48
5.0
100
AcDbLine
 10
468.8570147583241
 20
358.5420913297066
 30
0.0
 11
464.8570147583241
 21
358.5420913297066
 31
0.0
  0
LINE
  5
CE2
330
2
100
AcDbEntity
  8
0
100
AcDbLine
 10
552.857014758325
 20
404.7920913297066
 30
0.0
 11
592.857014758325
 21
404.7920913297066
 31
0.0
1001
ACAD
1000
ASC_BOUNDS
1002
{
1070
    19
1005
0
1002
}
  0
LINE
  5
CE3
330
2
100
AcDbEntity
  8
0
100
AcDbLine
 10
545.857014758325
 20
393.0420913297066
 30
0.0
 11
545.857014758325
 21
374.2920913297066
 31
0.0
  0
LINE
  5
CE4
330
2
100
AcDbEntity
  8
0
100
AcDbLine
 10
536.857014758325
 20
393.0420913297066
 30
0.0
 11
536.857014758325
 21
370.4854670026807
 31
0.0
  0
ARC
  5
CE5
330
2
100
AcDbEntity
  8
0
100
AcDbCircle
 10
526.857014758325
 20
351.0420913297066
 30
0.0
 40
15.0
100
AcDbArc
 50
78.40981768499289
 51
180.0
  0
ARC
  5
CE6
330
2
100
AcDbEntity
  8
0
100
AcDbCircle
 10
505.2063796637144
 20
363.5420913297066
 30
0.0
 40
10.0
100
AcDbArc
 50
270.0
 51
329.9999999999994
  0
LINE
  5
CE7
330
2
100
AcDbEntity
  8
0
100
AcDbLine
 10
511.857014758325
 20
351.0420913297066
 30
0.0
 11
511.857014758325
 21
336.0420913297066
 31
0.0
  0
LINE
  5
CE8
330
2
100
AcDbEntity
  8
0
100
AcDbLine
 10
488.357014758325
 20
335.5420913297066
 30
0.0
 11
503.357014758325
 21
335.5420913297066
 31
0.0
  0
LINE
  5
CE9
330
2
100
AcDbEntity
  8
0
100
AcDbLine
 10
480.357014758325
 20
333.542091329707
 30
0.0
 11
509.357014758325
 21
333.5420913297066
 31
0.0
  0
ARC
  5
CEA
330
2
100
AcDbEntity
  8
0
100
AcDbCircle
 10
480.357014758325
 20
336.0420913297066
 30
0.0
 40
2.5
100
AcDbArc
 50
180.0
 51
270.0
  0
ARC
  5
CEB
330
2
100
AcDbEntity
  8
0
100
AcDbCircle
 10
485.9075250155419
 20
336.042091329707
 30
0.0
 40
2.5
100
AcDbArc
 50
270.0
 51
348.4630409671818
  0
LINE
  5
CEC
330
2
100
AcDbEntity
  8
MITTE
 48
5.0
100
AcDbLine
 10
495.857014758325
 20
339.5083975870393
 30
0.0
 11
495.857014758325
 21
329.0049766642382
 31
0.0
  0
ARC
  5
CED
330
2
100
AcDbEntity
  8
0
100
AcDbCircle
 10
505.8065045011081
 20
336.042091329707
 30
0.0
 40
2.5
100
AcDbArc
 50
191.5369590328181
 51
270.0
  0
ARC
  5
CEE
330
2
100
AcDbEntity
  8
0
100
AcDbCircle
 10
509.357014758325
 20
336.0420913297066
 30
0.0
 40
2.5
100
AcDbArc
 50
270.0
 51
0.0
  0
LINE
  5
CEF
330
2
100
AcDbEntity
  8
0
100
AcDbLine
 10
505.2063796637144
 20
353.5420913297066
 30
0.0
 11
480.357014758325
 21
353.5420913297066
 31
0.0
  0
ARC
  5
CF0
330
2
100
AcDbEntity
  8
0
100
AcDbCircle
 10
480.357014758325
 20
356.0420913297066
 30
0.0
 40
2.5
100
AcDbArc
 50
180.0
 51
270.0
  0
LINE
  5
CF1
330
2
100
AcDbEntity
  8
0
100
AcDbLine
 10
477.857014758325
 20
358.5420913297066
 30
0.0
 11
476.857014758325
 21
358.5420913297066
 31
0.0
  0
ARC
  5
CF2
330
2
100
AcDbEntity
  8
0
100
AcDbCircle
 10
534.357014758325
 20
370.4854670026807
 30
0.0
 40
2.5
100
AcDbArc
 50
300.0000000000005
 51
0.0
  0
ARC
  5
CF3
330
2
100
AcDbEntity
  8
0
100
AcDbCircle
 10
530.372940931993
 20
368.1852609065767
 30
0.0
 40
2.5
100
AcDbArc
 50
258.4098176849928
 51
300.0000000000005
  0
LINE
  5
CF4
330
2
100
AcDbEntity
  8
0
100
AcDbLine
 10
531.622940931993
 20
366.0201973971152
 30
0.0
 11
535.607014758325
 21
368.3204034932196
 31
0.0
  0
LINE
  5
CF5
330
2
100
AcDbEntity
  8
0
100
AcDbLine
 10
476.8570147583254
 20
380.0420913297066
 30
0.0
 11
474.3570147583255
 21
382.5420913297066
 31
0.0
  0
LINE
  5
CF6
330
2
100
AcDbEntity
  8
0
100
AcDbLine
 10
552.857014758325
 20
404.7920913297066
 30
0.0
 11
552.857014758325
 21
388.7920913297066
 31
0.0
1001
ACAD
1000
ASC_BOUNDS
1002
{
1070
    19
1005
0
1005
0
1002
}
  0
LINE
  5
CF7
330
2
100
AcDbEntity
  8
0
100
AcDbLine
 10
545.857014758325
 20
393.0420913297066
 30
0.0
 11
536.857014758325
 21
393.0420913297066
 31
0.0
  0
LINE
  5
CF8
330
2
100
AcDbEntity
  8
0
100
AcDbLine
 10
536.357014758325
 20
391.2920913297066
 30
0.0
 11
536.357014758325
 21
381.2920913297066
 31
0.0
  0
LINE
  5
CF9
330
2
100
AcDbEntity
  8
0
100
AcDbLine
 10
536.357014758325
 20
391.7920913297066
 30
0.0
 11
536.357014758325
 21
380.7920913297066
 31
0.0
1001
ACAD
1000
ASC_BOUNDS
1002
{
1070
    19
1002
}
  0
LINE
  5
CFA
330
2
100
AcDbEntity
  8
0
100
AcDbLine
 10
530.357014758325
 20
390.7920913297066
 30
0.0
 11
530.357014758325
 21
381.7920913297066
 31
0.0
  0
LINE
  5
CFB
330
2
100
AcDbEntity
  8
0
100
AcDbLine
 10
536.357014758325
 20
380.7920913297066
 30
0.0
 11
536.857014758325
 21
380.7920913297066
 31
0.0
  0
ARC
  5
CFC
330
2
100
AcDbEntity
  8
0
100
AcDbCircle
 10
530.857014758325
 20
381.7920913297066
 30
0.0
 40
0.5
100
AcDbArc
 50
180.0
 51
270.0
  0
LINE
  5
CFD
330
2
100
AcDbEntity
  8
0
100
AcDbLine
 10
536.357014758325
 20
381.2920913297066
 30
0.0
 11
530.857014758325
 21
381.2920913297066
 31
0.0
  0
LINE
  5
CFE
330
2
100
AcDbEntity
  8
0
100
AcDbLine
 10
536.357014758325
 20
391.7920913297066
 30
0.0
 11
536.857014758325
 21
391.7920913297066
 31
0.0
  0
ARC
  5
CFF
330
2
100
AcDbEntity
  8
0
100
AcDbCircle
 10
530.857014758325
 20
390.7920913297066
 30
0.0
 40
0.5
100
AcDbArc
 50
90.0
 51
180.0
  0
LINE
  5
D00
330
2
100
AcDbEntity
  8
0
100
AcDbLine
 10
536.357014758325
 20
391.2920913297066
 30
0.0
 11
530.857014758325
 21
391.2920913297066
 31
0.0
  0
LINE
  5
D01
330
2
100
AcDbEntity
  8
0
100
AcDbLine
 10
545.857014758325
 20
404.7920913297066
 30
0.0
 11
552.857014758325
 21
404.7920913297066
 31
0.0
1001
ACAD
1000
ASC_BOUNDS
1002
{
1070
    19
1005
0
1002
}
  0
ARC
  5
D02
330
2
100
AcDbEntity
  8
0
100
AcDbCircle
 10
609.1967607204805
 20
333.7920913297066
 30
0.0
 40
10.0
100
AcDbArc
 50
48.59037789073025
 51
90.0
  0
LINE
  5
D03
330
2
100
AcDbEntity
  8
0
100
AcDbLine
 10
592.857014758325
 20
343.7920913297066
 30
0.0
 11
609.1967607204805
 21
343.7920913297066
 31
0.0
  0
LINE
  5
D04
330
2
100
AcDbEntity
  8
LINIE
 48
10.0
100
AcDbLine
 10
594.2300355498619
 20
399.7920913297066
 30
0.0
 11
617.1850709764785
 21
399.7920913297066
 31
0.0
  0
LINE
  5
D05
330
2
100
AcDbEntity
  8
LINIE
 48
10.0
100
AcDbLine
 10
612.4021952067296
 20
399.7920913297066
 30
0.0
 11
594.2702620866935
 21
399.7920913297066
 31
0.0
  0
ARC
  5
D06
330
2
100
AcDbEntity
  8
0
100
AcDbCircle
 10
606.1967607204806
 20
394.7920913297066
 30
0.0
 40
10.0
100
AcDbArc
 50
48.59037789073025
 51
90.0
1001
ACAD
1000
ASC_BOUNDS
1002
{
1070
    19
1002
}
  0
LINE
  5
D07
330
2
100
AcDbEntity
  8
0
100
AcDbLine
 10
592.857014758325
 20
404.7920913297066
 30
0.0
 11
606.1967607204806
 21
404.7920913297066
 31
0.0
1001
ACAD
1000
ASC_BOUNDS
1002
{
1070
    19
1002
}
  0
ARC
  5
D08
330
2
100
AcDbEntity
  8
0
100
AcDbCircle
 10
619.4255172758034
 20
409.7920913297066
 30
0.0
 40
10.0
100
AcDbArc
 50
228.5903778907302
 51
270.0
1001
ACAD
1000
ASC_BOUNDS
1002
{
1070
    19
1002
}
  0
LINE
  5
D09
330
2
100
AcDbEntity
  8
0
100
AcDbLine
 10
877.3570147583249
 20
386.2920913297066
 30
0.0
 11
877.3570147583249
 21
291.2920913297066
 31
0.0
  0
LINE
  5
D0A
330
2
100
AcDbEntity
  8
0
100
AcDbLine
 10
868.357014758325
 20
277.7920913297066
 30
0.0
 11
868.357014758325
 21
398.7920913297066
 31
0.0
  0
LINE
  5
D0B
330
2
100
AcDbEntity
  8
0
100
AcDbLine
 10
879.3570147583251
 20
384.2920913297066
 30
0.0
 11
879.3570147583251
 21
293.2920913297066
 31
0.0
1001
ACAD
1000
ASC_BOUNDS
1002
{
1070
    19
1002
}
  0
LINE
  5
D0C
330
2
100
AcDbEntity
  8
0
100
AcDbLine
 10
692.857014758325
 20
335.8594134510635
 30
0.0
 11
692.857014758325
 21
272.2920913297066
 31
0.0
1001
ACAD
1000
ASC_BOUNDS
1002
{
1070
    19
1002
}
  0
LINE
  5
D0D
330
2
100
AcDbEntity
  8
0
100
AcDbLine
 10
762.857014758325
 20
398.7920913297066
 30
0.0
 11
762.857014758325
 21
269.7920913297066
 31
0.0
1001
ACAD
1000
ASC_BOUNDS
1002
{
1070
    19
1002
}
  0
LINE
  5
D0E
330
2
100
AcDbEntity
  8
0
100
AcDbLine
 10
764.8570147583249
 20
399.7920913297066
 30
0.0
 11
764.8570147583249
 21
277.7920913297066
 31
0.0
  0
LINE
  5
D0F
330
2
100
AcDbEntity
  8
0
100
AcDbLine
 10
841.357014758325
 20
399.7920913297066
 30
0.0
 11
841.357014758325
 21
277.7920913297066
 31
0.0
1001
ACAD
1000
ASC_BOUNDS
1002
{
1070
    19
1002
}
  0
LINE
  5
D10
330
2
100
AcDbEntity
  8
0
100
AcDbLine
 10
822.357014758325
 20
399.7920913297066
 30
0.0
 11
822.357014758325
 21
277.7920913297066
 31
0.0
1001
ACAD
1000
ASC_BOUNDS
1002
{
1070
    19
1002
}
  0
LINE
  5
D11
330
2
100
AcDbEntity
  8
0
100
AcDbLine
 10
762.857014758325
 20
397.7920913297066
 30
0.0
 11
762.857014758325
 21
279.7920913297066
 31
0.0
1001
ACAD
1000
ASC_BOUNDS
1002
{
1070
    19
1002
}
  0
CIRCLE
  5
D12
330
2
100
AcDbEntity
  8
0
100
AcDbCircle
 10
1021.008576388376
 20
303.5420913297066
 30
0.0
 40
55.0
  0
CIRCLE
  5
D13
330
2
100
AcDbEntity
  8
0
100
AcDbCircle
 10
1021.008576388376
 20
303.5420913297066
 30
0.0
 40
79.0
  0
LINE
  5
D1B
330
2
100
AcDbEntity
  8
MITTE
 48
10.0
100
AcDbLine
 10
1021.008576388376
 20
407.4814784444056
 30
0.0
 11
1021.008576388376
 21
222.1964993963983
 31
0.0
  0
CIRCLE
  5
D1C
330
2
100
AcDbEntity
  8
MITTE
 48
10.0
100
AcDbCircle
 10
1021.008576388376
 20
303.5420913297066
 30
0.0
 40
65.0
  0
LINE
  5
D1F
330
2
100
AcDbEntity
  8
0
100
AcDbLine
 10
764.8570147583249
 20
277.7920913297066
 30
0.0
 11
868.357014758325
 21
277.7920913297066
 31
0.0
1001
ACAD
1000
ASC_BOUNDS
1002
{
1070
    19
1002
}
  0
MTEXT
  5
D23
102
{ACAD_REACTORS
330
D22
102
}
330
2
100
AcDbEntity
  8
BEM
 48
10.0
100
AcDbMText
 10
628.1735689389818
 20
-952.5232742439497
 30
0.0
 40
10.0
 41
0.0
 71
     4
 72
     1
  1
\A1;
1001
ACAD
1000
MTEXTBEGIN
1070
    73
1070
     1
1070
    44
1040
1.0
1070
    74
1070
     0
1000
MTEXTEND
  0
ARC
  5
D28
330
2
100
AcDbEntity
  8
0
100
AcDbCircle
 10
752.857014758325
 20
266.2920913297066
 30
0.0
 40
2.5
100
AcDbArc
 50
90.0
 51
180.0
1001
ACAD
1000
ASC_BOUNDS
1002
{
1070
    19
1002
}
  0
LINE
  5
D29
330
2
100
AcDbEntity
  8
0
100
AcDbLine
 10
759.857014758325
 20
268.7920913297066
 30
0.0
 11
728.9701623839159
 21
268.7920913297066
 31
0.0
1001
ACAD
1000
ASC_BOUNDS
1002
{
1070
    19
1002
}
  0
ARC
  5
D2A
330
2
100
AcDbEntity
  8
0
100
AcDbCircle
 10
702.857014758325
 20
266.2920913297066
 30
0.0
 40
2.5
100
AcDbArc
 50
0.0
 51
90.0
1001
ACAD
1000
ASC_BOUNDS
1002
{
1070
    19
1002
}
  0
LINE
  5
D2B
330
2
100
AcDbEntity
  8
0
100
AcDbLine
 10
714.0351476075903
 20
268.7920913297066
 30
0.0
 11
699.857014758325
 21
268.7920913297066
 31
0.0
1001
ACAD
1000
ASC_BOUNDS
1002
{
1070
    19
1002
}
  0
LINE
  5
D2C
330
2
100
AcDbEntity
  8
0
100
AcDbLine
 10
669.9737262881581
 20
240.3010097942196
 30
0.0
 11
669.9737262881581
 21
258.4378734035731
 31
0.0
  0
LINE
  5
D2D
330
2
100
AcDbEntity
  8
0
100
AcDbLine
 10
666.1306332538206
 20
240.0256599197905
 30
0.0
 11
666.1306332538206
 21
258.7132232780027
 31
0.0
  0
LINE
  5
D2E
330
2
100
AcDbEntity
  8
MITTE
 48
8.0
100
AcDbLine
 10
656.857014758325
 20
275.3180609260061
 30
0.0
 11
656.857014758325
 21
235.5829571941394
 31
0.0
  0
LINE
  5
D2F
330
2
100
AcDbEntity
  8
0
100
AcDbLine
 10
679.357014758325
 20
240.3010097942196
 30
0.0
 11
679.357014758325
 21
258.4378734035731
 31
0.0
  0
ARC
  5
D30
330
2
100
AcDbEntity
  8
0
100
AcDbCircle
 10
674.6653705232415
 20
246.8403593880407
 30
0.0
 40
8.048268058334087
100
AcDbArc
 50
234.3425218101797
 51
305.6574781898149
  0
LINE
  5
D31
330
2
100
AcDbEntity
  8
0
100
AcDbLine
 10
679.357014758325
 20
240.3010097942196
 30
0.0
 11
677.8480962938119
 21
238.7920913297071
 31
0.0
1001
ACAD
1000
ASC_BOUNDS
1002
{
1070
    19
1002
}
  0
LINE
  5
D32
330
2
100
AcDbEntity
  8
0
100
AcDbLine
 10
669.9737262881581
 20
240.3010097942196
 30
0.0
 11
666.1306332538206
 21
240.3010097942196
 31
0.0
  0
LINE
  5
D33
330
2
100
AcDbEntity
  8
0
100
AcDbLine
 10
679.357014758325
 20
259.9467918680861
 30
0.0
 11
679.357014758325
 21
269.7920913297066
 31
0.0
1001
ACAD
1000
ASC_BOUNDS
1002
{
1070
    19
1002
}
  0
LINE
  5
D34
330
2
100
AcDbEntity
  8
0
100
AcDbLine
 10
669.9737262881581
 20
258.4378734035731
 30
0.0
 11
666.1306332538206
 21
258.4378734035731
 31
0.0
  0
ARC
  5
D35
330
2
100
AcDbEntity
  8
0
100
AcDbCircle
 10
674.6653705232415
 20
251.8985238097516
 30
0.0
 40
8.048268058334087
100
AcDbArc
 50
54.34252181018508
 51
125.6574781898202
  0
LINE
  5
D36
330
2
100
AcDbEntity
  8
0
100
AcDbLine
 10
679.357014758325
 20
258.4378734035731
 30
0.0
 11
677.8480962938119
 21
259.9467918680861
 31
0.0
1001
ACAD
1000
ASC_BOUNDS
1002
{
1070
    19
1002
}
  0
ARC
  5
D37
330
2
100
AcDbEntity
  8
0
100
AcDbCircle
 10
690.357014758325
 20
272.2920913297066
 30
0.0
 40
2.5
100
AcDbArc
 50
270.0
 51
0.0
1001
ACAD
1000
ASC_BOUNDS
1002
{
1070
    19
1002
}
  0
LINE
  5
D38
330
2
100
AcDbEntity
  8
0
100
AcDbLine
 10
699.857014758325
 20
269.7920913297066
 30
0.0
 11
699.857014758325
 21
268.7920913297066
 31
0.0
1001
ACAD
1000
ASC_BOUNDS
1002
{
1070
    19
1002
}
  0
LINE
  5
D39
330
2
100
AcDbEntity
  8
0
100
AcDbLine
 10
714.7115147583249
 20
259.2710913297064
 30
0.0
 11
745.0025147583251
 21
259.2710913297064
 31
0.0
1001
ACAD
1000
ASC_BOUNDS
1002
{
1070
    19
1002
}
  0
LINE
  5
D3A
330
2
100
AcDbEntity
  8
0
100
AcDbLine
 10
705.407525015542
 20
257.7920913297066
 30
0.0
 11
750.306504501108
 21
257.7920913297066
 31
0.0
1001
ACAD
1000
ASC_BOUNDS
1002
{
1070
    19
1005
0
1002
}
  0
SPLINE
  5
D3B
330
2
100
AcDbEntity
  8
LINIE
 48
10.0
100
AcDbSpline
210
0.0
220
0.0
230
1.0
 70
     8
 71
     3
 72
    12
 73
     8
 74
     6
 42
0.0000000001
 43
0.0000000001
 44
0.0000000001
 40
0.0
 40
0.0
 40
0.0
 40
0.0
 40
4.851711911382247
 40
18.01859907913512
 40
32.66528729343511
 40
43.80667159575175
 40
46.09696782555253
 40
46.09696782555253
 40
46.09696782555253
 40
46.09696782555253
 10
705.3570147583249
 20
265.7994579429482
 30
0.0
 10
706.8412185886764
 20
266.4413835844275
 30
0.0
 10
712.353350029968
 20
268.825408230511
 30
0.0
 10
723.4738925733465
 20
270.4836500354575
 30
0.0
 10
736.2035966063019
 20
266.8502673449899
 30
0.0
 10
745.699166745612
 20
268.9110888037897
 30
0.0
 10
750.080247166688
 20
267.920517426278
 30
0.0
 10
750.8272848844815
 20
267.7516106475739
 30
0.0
 11
705.3570147583249
 21
265.7994579429482
 31
0.0
 11
709.8547299005188
 21
267.6187069557907
 31
0.0
 11
722.8849708655887
 21
269.5107265330018
 31
0.0
 11
737.4439018191826
 21
267.9097877036279
 31
0.0
 11
748.5814831117702
 21
268.2008669418276
 31
0.0
 11
750.8272848844815
 21
267.7516106475739
 31
0.0
  0
HATCH
  5
D3C
330
2
100
AcDbEntity
  8
LINIE
 48
10.0
100
AcDbHatch
 10
0.0
 20
0.0
 30
0.0
210
0.0
220
0.0
230
1.0
  2
ANSI31
 70
     0
 71
     0
 91
        4
 92
        5
 93
        6
 72
     1
 10
746.4815147583249
 20
257.7920913297066
 11
750.3065045011082
 21
257.7920913297066
 72
     2
 10
747.857014758325
 20
258.2920913297062
 40
2.499999999999964
 50
348.4630409671946
 51
360.0
 73
     1
 72
     1
 10
750.3570147583249
 20
258.2920913297062
 11
750.3570147583249
 21
266.2920913297066
 72
     2
 10
752.8570147583248
 20
266.2920913297066
 40
2.499999999999997
 50
179.9999999999986
 51
215.7188059857673
 73
     0
 72
     4
 94
        3
 73
     0
 74
     0
 95
        9
 96
        5
 40
41.68509778057305
 40
41.68509778057305
 40
41.68509778057305
 40
41.68509778057305
 40
43.97539401037382
 40
46.09696782555253
 40
46.09696782555253
 40
46.09696782555253
 40
46.09696782555253
 10
750.8272848844815
 20
267.7516106475739
 10
750.0802471666879
 20
267.9205174262781
 10
748.6412047901088
 20
268.2458878948064
 10
747.1847641029027
 20
268.3580234684559
 10
746.4815147583242
 20
268.3775667843316
 72
     1
 10
746.4815147583252
 20
268.3775667843315
 11
746.4815147583249
 21
257.7920913297066
 97
        0
 92
        5
 93
        4
 72
     4
 94
        3
 73
     0
 74
     0
 95
        8
 96
        4
 40
40.20165906937324
 40
40.20165906937324
 40
40.20165906937324
 40
40.20165906937324
 40
41.68509778057305
 40
41.68509778057305
 40
41.68509778057305
 40
41.68509778057305
 10
746.4815147583241
 20
268.3775667843316
 10
745.9897914471152
 20
268.39123178675
 10
745.4966609692806
 20
268.388088158661
 10
745.0025147583248
 20
268.3732393835008
 72
     1
 10
745.0025147583249
 20
268.3732393835008
 11
745.0025147583248
 21
259.2710913297068
 72
     1
 10
745.0025147583248
 20
259.2710913297068
 11
746.4815147583249
 21
257.7920913297066
 72
     1
 10
746.4815147583249
 20
257.7920913297066
 11
746.481514758325
 21
268.3775667843316
 97
        0
 92
        5
 93
        4
 72
     1
 10
713.2325147583249
 20
257.7920913297066
 11
714.7115147583248
 21
259.2710913297065
 72
     1
 10
714.7115147583248
 20
259.2710913297065
 11
714.7115147583249
 21
268.9298800140651
 72
     4
 94
        3
 73
     0
 74
     0
 95
        8
 96
        4
 40
8.357331474458055
 40
8.357331474458055
 40
8.357331474458055
 40
8.357331474458055
 40
9.859576091809559
 40
9.859576091809559
 40
9.859576091809559
 40
9.859576091809559
 10
714.7115147583279
 20
268.9298800140657
 10
714.2160501488213
 20
268.8340644688087
 10
713.7228435482378
 20
268.7274753615622
 10
713.232514758329
 20
268.6102808383269
 72
     1
 10
713.232514758325
 20
268.6102808383261
 11
713.2325147583249
 21
257.7920913297066
 97
        0
 92
        5
 93
        5
 72
     4
 94
        3
 73
     0
 74
     0
 95
        9
 96
        5
 40
0.0
 40
0.0
 40
0.0
 40
0.0
 40
3.505619563075807
 40
8.357331474458055
 40
8.357331474458055
 40
8.357331474458055
 40
8.357331474458055
 10
713.232514758329
 20
268.6102808383269
 10
712.0882895247087
 20
268.3367971402701
 10
709.3978385225201
 20
267.5471345988705
 10
706.8412185886764
 20
266.4413835844275
 10
705.3570147583249
 20
265.7994579429482
 72
     1
 10
705.357014758325
 20
265.7994579429482
 11
705.357014758325
 21
258.2920913297067
 72
     2
 10
707.857014758325
 20
258.2920913297067
 40
2.500000000000018
 50
180.0
 51
191.5369590328181
 73
     1
 72
     1
 10
705.4075250155419
 20
257.7920913297066
 11
713.2325147583247
 21
257.7920913297066
 72
     1
 10
713.2325147583247
 20
257.7920913297066
 11
713.232514758325
 21
268.6102808383258
 97
        0
 75
     0
 76
     1
 52
0.0
 41
25.0
 77
     0
 78
     1
 53
45.0
 43
171.0322601760763
 44
13.08238160795326
 45
-2.20970869120796
 46
2.209708691207961
 79
     0
 47
0.3395931865206437
 98
        4
 10
747.5016951907102
 20
261.5787999312262
 10
746.1428615224178
 20
262.257985826784
 10
713.870568235556
 20
262.9371732319794
 10
710.1337756477512
 20
262.257985826784
  0
LINE
  5
D3D
330
2
100
AcDbEntity
  8
LINIE
 48
10.0
100
AcDbLine
 10
746.4815147583249
 20
268.3775667843406
 30
0.0
 11
746.4815147583249
 21
257.7920913297066
 31
0.0
1001
ACAD
1000
ASC_BOUNDS
1002
{
1070
    19
1002
}
  0
ARC
  5
D3E
330
2
100
AcDbEntity
  8
0
100
AcDbCircle
 10
747.857014758325
 20
258.2920913297066
 30
0.0
 40
2.5
100
AcDbArc
 50
348.4630409671818
 51
0.0
1001
ACAD
1000
ASC_BOUNDS
1002
{
1070
    19
1002
}
  0
LINE
  5
D3F
330
2
100
AcDbEntity
  8
0
100
AcDbLine
 10
750.357014758325
 20
266.2920913297066
 30
0.0
 11
750.357014758325
 21
258.2920913297066
 31
0.0
1001
ACAD
1000
ASC_BOUNDS
1002
{
1070
    19
1002
}
  0
LINE
  5
D40
330
2
100
AcDbEntity
  8
0
100
AcDbLine
 10
745.0025147583251
 20
268.3732393835029
 30
0.0
 11
745.0025147583247
 21
259.2710913297064
 31
0.0
1001
ACAD
1000
ASC_BOUNDS
1002
{
1070
    19
1002
}
  0
LINE
  5
D41
330
2
100
AcDbEntity
  8
0
100
AcDbLine
 10
745.0025147583251
 20
259.2710913297064
 30
0.0
 11
746.4815147583249
 21
257.7920913297066
 31
0.0
1001
ACAD
1000
ASC_BOUNDS
1002
{
1070
    19
1002
}
  0
LINE
  5
D42
330
2
100
AcDbEntity
  8
LINIE
 48
10.0
100
AcDbLine
 10
713.2325147583251
 20
268.610280838342
 30
0.0
 11
713.2325147583251
 21
257.7920913297066
 31
0.0
1001
ACAD
1000
ASC_BOUNDS
1002
{
1070
    19
1002
}
  0
LINE
  5
D43
330
2
100
AcDbEntity
  8
0
100
AcDbLine
 10
714.7115147583249
 20
259.2710913297064
 30
0.0
 11
713.2325147583251
 21
257.7920913297066
 31
0.0
1001
ACAD
1000
ASC_BOUNDS
1002
{
1070
    19
1002
}
  0
LINE
  5
D44
330
2
100
AcDbEntity
  8
0
100
AcDbLine
 10
714.7115147583249
 20
268.9298800140804
 30
0.0
 11
714.7115147583249
 21
259.2710913297064
 31
0.0
1001
ACAD
1000
ASC_BOUNDS
1002
{
1070
    19
1002
}
  0
LINE
  5
D45
330
2
100
AcDbEntity
  8
0
100
AcDbLine
 10
705.357014758325
 20
266.2920913297066
 30
0.0
 11
705.357014758325
 21
258.2920913297066
 31
0.0
1001
ACAD
1000
ASC_BOUNDS
1002
{
1070
    19
1002
}
  0
ARC
  5
D46
330
2
100
AcDbEntity
  8
0
100
AcDbCircle
 10
707.857014758325
 20
258.2920913297066
 30
0.0
 40
2.5
100
AcDbArc
 50
180.0
 51
191.5369590328181
1001
ACAD
1000
ASC_BOUNDS
1002
{
1070
    19
1002
}
  0
LINE
  5
D47
330
2
100
AcDbEntity
  8
MITTE
 48
10.0
100
AcDbLine
 10
729.857014758325
 20
274.4934356567678
 30
0.0
 11
729.857014758325
 21
253.6929606062581
 31
0.0
  0
ARC
  5
D48
330
2
100
AcDbEntity
  8
0
100
AcDbCircle
 10
759.857014758325
 20
273.7920913297066
 30
0.0
 40
5.0
100
AcDbArc
 50
270.0
 51
306.8698976458466
1001
ACAD
1000
ASC_BOUNDS
1002
{
1070
    19
1002
}
  0
LINE
  5
D49
330
2
100
AcDbEntity
  8
0
100
AcDbLine
 10
764.8570147583249
 20
277.7920913297066
 30
0.0
 11
762.857014758325
 21
279.7920913297066
 31
0.0
1001
ACAD
1000
ASC_BOUNDS
1002
{
1070
    19
1002
}
  0
LINE
  5
D4A
330
2
100
AcDbEntity
  8
0
100
AcDbLine
 10
870.3570147583249
 20
291.2920913297066
 30
0.0
 11
877.3570147583249
 21
291.2920913297066
 31
0.0
1001
ACAD
1000
ASC_BOUNDS
1002
{
1070
    19
1002
}
  0
ARC
  5
D4C
330
2
100
AcDbEntity
  8
0
100
AcDbCircle
 10
870.3570147583249
 20
289.2920913297066
 30
0.0
 40
2.0
100
AcDbArc
 50
90.0
 51
180.0
1001
ACAD
1000
ASC_BOUNDS
1002
{
1070
    19
1002
}
  0
LINE
  5
D4E
330
2
100
AcDbEntity
  8
0
100
AcDbLine
 10
879.3570147583251
 20
293.2920913297066
 30
0.0
 11
877.3570147583249
 21
291.2920913297066
 31
0.0
1001
ACAD
1000
ASC_BOUNDS
1002
{
1070
    19
1002
}
  0
LINE
  5
D4F
330
2
100
AcDbEntity
  8
MITTE
 48
10.0
100
AcDbLine
 10
1102.20746118125
 20
303.5420913297066
 30
0.0
 11
939.7769281036298
 21
303.5420913297066
 31
0.0
  0
CIRCLE
  5
D50
330
2
100
AcDbEntity
  8
0
100
AcDbCircle
 10
1021.008576388376
 20
303.5420913297066
 30
0.0
 40
12.0
  0
CIRCLE
  5
D51
330
2
100
AcDbEntity
  8
0
100
AcDbCircle
 10
1021.008576388376
 20
303.5420913297066
 30
0.0
 40
11.0
  0
ARC
  5
D52
330
2
100
AcDbEntity
  8
0
100
AcDbCircle
 10
1021.008576388376
 20
303.5420913297066
 30
0.0
 40
14.0
100
AcDbArc
 50
106.6015495990171
 51
73.39845040098281
  0
LINE
  5
D53
330
2
100
AcDbEntity
  8
MITTE
 48
3.0
100
AcDbLine
 10
982.129678898943
 20
264.6631938402733
 30
0.0
 11
969.1590060876288
 21
251.6925210289587
 31
0.0
  0
LINE
  5
D54
330
2
100
AcDbEntity
  8
0
100
AcDbLine
 10
962.5085763883761
 20
238.7920913297066
 30
0.0
 11
962.5085763883761
 21
250.4501898757184
 31
0.0
1001
ACAD
1000
ASC_BOUNDS
1002
{
1070
    19
1002
}
  0
LINE
  5
D55
330
2
100
AcDbEntity
  8
0
100
AcDbLine
 10
964.7273871862717
 20
239.197485241938
 30
0.0
 11
964.7273871862717
 21
248.1035871832478
 31
0.0
  0
LINE
  5
D56
330
2
100
AcDbEntity
  8
0
100
AcDbLine
 10
963.5085763883763
 20
237.7920913297066
 30
0.0
 11
977.2143130654249
 21
237.7920913297066
 31
0.0
1001
ACAD
1000
ASC_BOUNDS
1002
{
1070
    19
1005
0
1002
}
  0
ARC
  5
D57
330
2
100
AcDbEntity
  8
0
100
AcDbCircle
 10
972.7585763883762
 20
261.4420913297067
 30
0.0
 40
23.65
100
AcDbArc
 50
250.1483977684166
 51
279.6362623934372
  0
LINE
  5
D58
330
2
100
AcDbEntity
  8
0
100
AcDbLine
 10
964.7273871862717
 20
239.197485241938
 30
0.0
 11
962.5085763883761
 21
238.7920913297066
 31
0.0
  0
LINE
  5
D59
330
2
100
AcDbEntity
  8
0
100
AcDbLine
 10
962.5085763883761
 20
238.7920913297066
 30
0.0
 11
963.5085763883763
 21
237.7920913297066
 31
0.0
1001
ACAD
1000
ASC_BOUNDS
1002
{
1070
    19
1002
}
  0
CIRCLE
  5
D5A
330
2
100
AcDbEntity
  8
0
100
AcDbCircle
 10
975.0466356112511
 20
257.580150552581
 30
0.0
 40
4.5
  0
LINE
  5
D5B
330
2
100
AcDbEntity
  8
0
100
AcDbLine
 10
1017.008576388376
 20
318.4420913297067
 30
0.0
 11
1025.008576388376
 21
318.4420913297067
 31
0.0
  0
LINE
  5
D5C
330
2
100
AcDbEntity
  8
0
100
AcDbLine
 10
1017.008576388376
 20
318.4420913297067
 30
0.0
 11
1017.008576388376
 21
314.8557998286914
 31
0.0
  0
LINE
  5
D5D
330
2
100
AcDbEntity
  8
0
100
AcDbLine
 10
1025.008576388376
 20
318.4420913297067
 30
0.0
 11
1025.008576388376
 21
314.8557998286914
 31
0.0
  0
LINE
  5
D5E
330
2
100
AcDbEntity
  8
0
100
AcDbLine
 10
1064.802839711328
 20
237.7920913297066
 30
0.0
 11
1078.508576388376
 21
237.7920913297066
 31
0.0
1001
ACAD
1000
ASC_BOUNDS
1002
{
1070
    19
1002
}
  0
LINE
  5
D60
330
2
100
AcDbEntity
  8
0
100
AcDbLine
 10
1079.508576388376
 20
238.7920913297066
 30
0.0
 11
1077.28976559048
 21
239.197485241938
 31
0.0
  0
LINE
  5
D61
330
2
100
AcDbEntity
  8
0
100
AcDbLine
 10
1077.28976559048
 20
239.197485241938
 30
0.0
 11
1077.28976559048
 21
248.1035871832478
 31
0.0
  0
ARC
  5
D62
330
2
100
AcDbEntity
  8
0
100
AcDbCircle
 10
1069.258576388376
 20
261.4420913297067
 30
0.0
 40
23.65
100
AcDbArc
 50
260.3637376065627
 51
289.8516022315833
  0
CIRCLE
  5
D63
330
2
100
AcDbEntity
  8
0
100
AcDbCircle
 10
1066.970517165502
 20
257.580150552581
 30
0.0
 40
4.5
  0
LINE
  5
D64
330
2
100
AcDbEntity
  8
MITTE
 48
3.0
100
AcDbLine
 10
1061.34025176157
 20
263.2104159565124
 30
0.0
 11
1071.626341912038
 21
252.9243258060442
 31
0.0
  0
LINE
  5
D65
330
2
100
AcDbEntity
  8
0
100
AcDbLine
 10
1079.508576388376
 20
238.7920913297066
 30
0.0
 11
1079.508576388376
 21
250.4501898757184
 31
0.0
1001
ACAD
1000
ASC_BOUNDS
1002
{
1070
    19
1002
}
  0
LINE
  5
D66
330
2
100
AcDbEntity
  8
0
100
AcDbLine
 10
1079.508576388376
 20
238.7920913297066
 30
0.0
 11
1078.508576388376
 21
237.7920913297066
 31
0.0
1001
ACAD
1000
ASC_BOUNDS
1002
{
1070
    19
1002
}
  0
LINE
  5
D68
330
2
100
AcDbEntity
  8
0
100
AcDbLine
 10
841.357014758325
 20
399.7920913297066
 30
0.0
 11
868.357014758325
 21
399.7920913297066
 31
0.0
1001
ACAD
1000
ASC_BOUNDS
1002
{
1070
    19
1002
}
  0
ARC
  5
D6A
330
2
100
AcDbEntity
  8
0
100
AcDbCircle
 10
695.357014758325
 20
335.8594134510635
 30
0.0
 40
2.5
100
AcDbArc
 50
90.0
 51
180.0
1001
ACAD
1000
ASC_BOUNDS
1002
{
1070
    19
1002
}
  0
LINE
  5
D6B
330
2
100
AcDbEntity
  8
0
100
AcDbLine
 10
764.8570147583249
 20
399.7920913297066
 30
0.0
 11
822.357014758325
 21
399.7920913297066
 31
0.0
1001
ACAD
1000
ASC_BOUNDS
1002
{
1070
    19
1002
}
  0
ARC
  5
D6C
330
2
100
AcDbEntity
  8
0
100
AcDbCircle
 10
759.857014758325
 20
394.7920913297066
 30
0.0
 40
5.0
100
AcDbArc
 50
53.13010235415337
 51
90.0
1001
ACAD
1000
ASC_BOUNDS
1002
{
1070
    19
1002
}
  0
LINE
  5
D6D
330
2
100
AcDbEntity
  8
0
100
AcDbLine
 10
764.8570147583249
 20
399.7920913297066
 30
0.0
 11
762.857014758325
 21
397.7920913297066
 31
0.0
1001
ACAD
1000
ASC_BOUNDS
1002
{
1070
    19
1002
}
  0
LINE
  5
D6E
330
2
100
AcDbEntity
  8
0
100
AcDbLine
 10
841.357014758325
 20
399.7920913297066
 30
0.0
 11
841.357014758325
 21
396.7920913297066
 31
0.0
1001
ACAD
1000
ASC_BOUNDS
1002
{
1070
    19
1002
}
  0
LINE
  5
D6F
330
2
100
AcDbEntity
  8
0
100
AcDbLine
 10
822.357014758325
 20
399.7920913297066
 30
0.0
 11
822.357014758325
 21
396.7920913297066
 31
0.0
1001
ACAD
1000
ASC_BOUNDS
1002
{
1070
    19
1002
}
  0
LINE
  5
D70
330
2
100
AcDbEntity
  8
0
100
AcDbLine
 10
822.357014758325
 20
399.7920913297066
 30
0.0
 11
841.357014758325
 21
399.7920913297066
 31
0.0
1001
ACAD
1000
ASC_BOUNDS
1002
{
1070
    19
1002
}
  0
ARC
  5
D72
330
2
100
AcDbEntity
  8
0
100
AcDbCircle
 10
873.8570147583249
 20
398.2920913297066
 30
0.0
 40
0.5
100
AcDbArc
 50
0.0
 51
90.0
  0
LINE
  5
D73
330
2
100
AcDbEntity
  8
0
100
AcDbLine
 10
868.357014758325
 20
399.7920913297066
 30
0.0
 11
868.357014758325
 21
388.2920913297066
 31
0.0
1001
ACAD
1000
ASC_BOUNDS
1002
{
1070
    19
1002
}
  0
LINE
  5
D74
330
2
100
AcDbEntity
  8
0
100
AcDbLine
 10
870.3570147583249
 20
386.2920913297066
 30
0.0
 11
877.3570147583249
 21
386.2920913297066
 31
0.0
1001
ACAD
1000
ASC_BOUNDS
1002
{
1070
    19
1002
}
  0
LINE
  5
D75
330
2
100
AcDbEntity
  8
0
100
AcDbLine
 10
868.357014758325
 20
388.7920913297066
 30
0.0
 11
873.8570147583249
 21
388.7920913297066
 31
0.0
  0
LINE
  5
D76
330
2
100
AcDbEntity
  8
0
100
AcDbLine
 10
868.357014758325
 20
398.7920913297066
 30
0.0
 11
873.8570147583249
 21
398.7920913297066
 31
0.0
  0
ARC
  5
D77
330
2
100
AcDbEntity
  8
0
100
AcDbCircle
 10
870.3570147583249
 20
388.2920913297066
 30
0.0
 40
2.0
100
AcDbArc
 50
180.0
 51
270.0
1001
ACAD
1000
ASC_BOUNDS
1002
{
1070
    19
1002
}
  0
LINE
  5
D78
330
2
100
AcDbEntity
  8
0
100
AcDbLine
 10
877.3570147583249
 20
386.2920913297066
 30
0.0
 11
879.3570147583251
 21
384.2920913297066
 31
0.0
1001
ACAD
1000
ASC_BOUNDS
1002
{
1070
    19
1002
}
  0
ARC
  5
D79
330
2
100
AcDbEntity
  8
0
100
AcDbCircle
 10
873.8570147583249
 20
389.2920913297066
 30
0.0
 40
0.5
100
AcDbArc
 50
270.0
 51
0.0
  0
LINE
  5
D7A
330
2
100
AcDbEntity
  8
0
100
AcDbLine
 10
874.357014758325
 20
389.2920913297066
 30
0.0
 11
874.357014758325
 21
398.2920913297066
 31
0.0
  0
ARC
  5
D7C
330
2
100
AcDbEntity
  8
0
100
AcDbCircle
 10
1021.008576388376
 20
338.7920913297066
 30
0.0
 40
61.0
100
AcDbArc
 50
17.28014201780435
 51
162.7198579821956
1001
ACAD
1000
ASC_BOUNDS
1002
{
1070
    19
1005
0
1002
}
  0
ARC
  5
D7D
330
2
100
AcDbEntity
  8
0
100
AcDbCircle
 10
1021.008576388376
 20
338.0420913297066
 30
0.0
 40
55.0
100
AcDbArc
 50
32.26219197885822
 51
147.7378080211417
  0
CIRCLE
  5
D7E
330
2
100
AcDbEntity
  8
0
100
AcDbCircle
 10
975.0466356112502
 20
349.5040321068313
 30
0.0
 40
4.5
  0
LINE
  5
D7F
330
2
100
AcDbEntity
  8
MITTE
 48
3.0
100
AcDbLine
 10
969.6786198192658
 20
354.8720478988161
 30
0.0
 11
980.6315778267189
 21
343.919089891363
 31
0.0
  0
ARC
  5
D80
330
2
100
AcDbEntity
  8
0
100
AcDbCircle
 10
1021.008576388376
 20
396.7920913297066
 30
0.0
 40
8.0
100
AcDbArc
 50
18.40505542230634
 51
161.5949445776936
  0
CIRCLE
  5
D81
330
2
100
AcDbEntity
  8
0
100
AcDbCircle
 10
1066.970517165502
 20
349.5040321068322
 30
0.0
 40
4.5
  0
LINE
  5
D82
330
2
100
AcDbEntity
  8
MITTE
 48
3.0
100
AcDbLine
 10
1072.636407731427
 20
355.1699226727578
 30
0.0
 11
1061.861689489469
 21
344.3952044307998
 31
0.0
  0
SPLINE
  5
2911
330
2
100
AcDbEntity
  8
LINIE
 48
10.0
100
AcDbSpline
210
0.0
220
0.0
230
1.0
 70
     8
 71
     3
 72
    11
 73
     7
 74
     5
 42
0.0000000001
 43
0.0000000001
 44
0.0000000001
 40
0.0
 40
0.0
 40
0.0
 40
0.0
 40
2.62629010064643
 40
5.544780380777337
 40
8.310133457396172
 40
9.81545957471715
 40
9.81545957471715
 40
9.81545957471715
 40
9.81545957471715
 10
868.357014758325
 20
312.6653568065201
 30
0.0
 10
869.1484629559207
 20
313.3025271951872
 30
0.0
 10
870.8194156192803
 20
314.6477593420184
 30
0.0
 10
873.2976742773564
 20
311.4474397747493
 30
0.0
 10
875.4166173371785
 20
313.970056020356
 30
0.0
 10
876.8513138874588
 20
313.5841457894223
 30
0.0
 10
877.3570147583253
 20
313.4481204119156
 30
0.0
 11
868.357014758325
 21
312.6653568065201
 31
0.0
 11
870.7274599750872
 21
313.7960155380048
 31
0.0
 11
873.3381276476212
 21
312.4914083868652
 31
0.0
 11
875.8617727488871
 21
313.6220688315704
 31
0.0
 11
877.3570147583253
 21
313.4481204119156
 31
0.0
  0
LINE
  5
2912
330
2
100
AcDbEntity
  8
LINIE
 48
10.0
100
AcDbLine
 10
877.3570147583248
 20
297.5250913297065
 30
0.0
 11
877.3570147583248
 21
295.0590913297064
 31
0.0
  0
LINE
  5
2913
330
2
100
AcDbEntity
  8
LINIE
 48
10.0
100
AcDbLine
 10
869.3570147583248
 20
297.5250913297065
 30
0.0
 11
869.3570147583248
 21
295.0590913297064
 31
0.0
  0
LINE
  5
2914
330
2
100
AcDbEntity
  8
LINIE
 48
10.0
100
AcDbLine
 10
876.5900147583247
 20
298.2920913297066
 30
0.0
 11
876.5900147583247
 21
294.2920913297066
 31
0.0
  0
LINE
  5
2915
330
2
100
AcDbEntity
  8
LINIE
 48
10.0
100
AcDbLine
 10
870.1240147583249
 20
298.2920913297066
 30
0.0
 11
870.1240147583249
 21
294.2920913297066
 31
0.0
  0
LINE
  5
2916
330
2
100
AcDbEntity
  8
0
100
AcDbLine
 10
870.3570147583249
 20
291.2920913297066
 30
0.0
 11
877.3570147583251
 21
291.2920913297066
 31
0.0
1001
ACAD
1000
ASC_BOUNDS
1002
{
1070
    19
1002
}
  0
LINE
  5
2917
330
2
100
AcDbEntity
  8
LINIE
 48
10.0
100
AcDbLine
 10
877.3570147583248
 20
295.0590913297064
 30
0.0
 11
877.3570147583249
 21
291.2920913297066
 31
0.0
1001
ACAD
1000
ASC_BOUNDS
1002
{
1070
    19
1002
}
  0
LINE
  5
2918
330
2
100
AcDbEntity
  8
LINIE
 48
10.0
100
AcDbLine
 10
869.3570147583249
 20
295.0590913297062
 30
0.0
 11
869.3570147583249
 21
291.0241421372754
 31
0.0
1001
ACAD
1000
ASC_BOUNDS
1002
{
1070
    19
1002
}
  0
LINE
  5
2919
330
2
100
AcDbEntity
  8
LINIE
 48
10.0
100
AcDbLine
 10
870.1240147583249
 20
294.2920913297066
 30
0.0
 11
869.3570147583248
 21
295.0590913297064
 31
0.0
  0
LINE
  5
291A
330
2
100
AcDbEntity
  8
LINIE
 48
10.0
100
AcDbLine
 10
870.0335147583251
 20
291.9685913297066
 30
0.0
 11
869.3570147583249
 21
291.2920913297066
 31
0.0
1001
ACAD
1000
ASC_BOUNDS
1002
{
1070
    19
1002
}
  0
LINE
  5
291B
330
2
100
AcDbEntity
  8
LINIE
 48
10.0
100
AcDbLine
 10
870.0335147583251
 20
294.3825913297061
 30
0.0
 11
870.0335147583251
 21
291.9685913297066
 31
0.0
1001
ACAD
1000
ASC_BOUNDS
1002
{
1070
    19
1002
}
  0
LINE
  5
291C
330
2
100
AcDbEntity
  8
LINIE
 48
10.0
100
AcDbLine
 10
876.680514758325
 20
294.3825913297064
 30
0.0
 11
876.680514758325
 21
291.9685913297066
 31
0.0
1001
ACAD
1000
ASC_BOUNDS
1002
{
1070
    19
1002
}
  0
LINE
  5
291D
330
2
100
AcDbEntity
  8
LINIE
 48
10.0
100
AcDbLine
 10
870.0335147583251
 20
291.9685913297066
 30
0.0
 11
876.680514758325
 21
291.9685913297066
 31
0.0
1001
ACAD
1000
ASC_BOUNDS
1002
{
1070
    19
1002
}
  0
LINE
  5
291E
330
2
100
AcDbEntity
  8
LINIE
 48
10.0
100
AcDbLine
 10
870.1240147583249
 20
294.2920913297066
 30
0.0
 11
876.5900147583247
 21
294.2920913297066
 31
0.0
  0
LINE
  5
291F
330
2
100
AcDbEntity
  8
0
 48
10.0
100
AcDbLine
 10
876.5900147583247
 20
294.2920913297066
 30
0.0
 11
877.3570147583248
 21
295.0590913297064
 31
0.0
  0
LINE
  5
2920
330
2
100
AcDbEntity
  8
LINIE
 48
10.0
100
AcDbLine
 10
876.680514758325
 20
291.9685913297066
 30
0.0
 11
877.3570147583249
 21
291.2920913297066
 31
0.0
1001
ACAD
1000
ASC_BOUNDS
1002
{
1070
    19
1002
}
  0
LINE
  5
2921
330
2
100
AcDbEntity
  8
LINIE
 48
10.0
100
AcDbLine
 10
869.3570147583248
 20
295.0590913297064
 30
0.0
 11
877.3570147583248
 21
295.0590913297064
 31
0.0
  0
LINE
  5
2922
330
2
100
AcDbEntity
  8
LINIE
 48
10.0
100
AcDbLine
 10
869.3570147583249
 20
291.2920913297066
 30
0.0
 11
877.3570147583249
 21
291.2920913297066
 31
0.0
1001
ACAD
1000
ASC_BOUNDS
1002
{
1070
    19
1002
}
  0
LINE
  5
2923
330
2
100
AcDbEntity
  8
LINIE
 48
10.0
100
AcDbLine
 10
870.3570147583249
 20
291.2920913297066
 30
0.0
 11
877.3570147583253
 21
291.2920913297066
 31
0.0
1001
ACAD
1000
ASC_BOUNDS
1002
{
1070
    19
1002
}
  0
LINE
  5
2924
330
2
100
AcDbEntity
  8
0
100
AcDbLine
 10
870.3570147583249
 20
291.2920913297066
 30
0.0
 11
877.3570147583249
 21
291.2920913297066
 31
0.0
1001
ACAD
1000
ASC_BOUNDS
1002
{
1070
    19
1002
}
  0
LINE
  5
2925
330
2
100
AcDbEntity
  8
LINIE
 48
10.0
100
AcDbLine
 10
871.3570147583247
 20
310.2920913297066
 30
0.0
 11
870.1240147583249
 21
298.2920913297066
 31
0.0
1001
ACAD
1000
ASC_BOUNDS
1002
{
1070
    19
1002
}
  0
LINE
  5
2926
330
2
100
AcDbEntity
  8
LINIE
 48
10.0
100
AcDbLine
 10
875.3570147583248
 20
310.2920913297066
 30
0.0
 11
876.5900147583247
 21
298.2920913297066
 31
0.0
1001
ACAD
1000
ASC_BOUNDS
1002
{
1070
    19
1002
}
  0
INSERT
  5
2927
330
2
100
AcDbEntity
  8
SCHRAFF
 48
10.0
100
AcDbBlockReference
  2
*X25
 10
772.6300240234648
 20
136.9049229506078
 30
0.0
1001
ACAD
1000
HATCH
1002
{
1070
    19
1000
AR-CONC
1040
0.2
1040
0.0
1002
}
  0
LINE
  5
2928
330
2
100
AcDbEntity
  8
0
 48
10.0
100
AcDbLine
 10
870.1240147583249
 20
298.2920913297066
 30
0.0
 11
876.5900147583247
 21
298.2920913297066
 31
0.0
1001
ACAD
1000
ASC_BOUNDS
1002
{
1070
    19
1002
}
  0
LINE
  5
2929
330
2
100
AcDbEntity
  8
LINIE
 48
10.0
100
AcDbLine
 10
869.3570147583249
 20
298.2920913297066
 30
0.0
 11
877.3570147583249
 21
298.2920913297066
 31
0.0
1001
ACAD
1000
ASC_BOUNDS
1002
{
1070
    19
1002
}
  0
LINE
  5
292A
330
2
100
AcDbEntity
  8
LINIE
 48
10.0
100
AcDbLine
 10
869.3570147583248
 20
297.5250913297065
 30
0.0
 11
877.3570147583248
 21
297.5250913297065
 31
0.0
  0
LINE
  5
292B
330
2
100
AcDbEntity
  8
LINIE
 48
10.0
100
AcDbLine
 10
869.3570147583249
 20
298.2920913297066
 30
0.0
 11
869.3570147583248
 21
297.5250913297065
 31
0.0
  0
LINE
  5
292C
330
2
100
AcDbEntity
  8
LINIE
 48
10.0
100
AcDbLine
 10
877.3570147583249
 20
298.2920913297066
 30
0.0
 11
877.3570147583248
 21
297.5250913297065
 31
0.0
  0
LINE
  5
292D
330
2
100
AcDbEntity
  8
0
 48
10.0
100
AcDbLine
 10
876.5900147583247
 20
298.2920913297066
 30
0.0
 11
877.3570147583248
 21
297.5250913297065
 31
0.0
  0
LINE
  5
292E
330
2
100
AcDbEntity
  8
LINIE
 48
10.0
100
AcDbLine
 10
870.1240147583249
 20
298.2920913297066
 30
0.0
 11
869.3570147583248
 21
297.5250913297065
 31
0.0
  0
LINE
  5
292F
330
2
100
AcDbEntity
  8
LINIE
 48
10.0
100
AcDbLine
 10
871.3570147583247
 20
310.2920913297066
 30
0.0
 11
875.3570147583248
 21
310.2920913297066
 31
0.0
1001
ACAD
1000
ASC_BOUNDS
1002
{
1070
    19
1002
}
  0
HATCH
  5
2930
330
2
100
AcDbEntity
  8
SCHRAFF
 48
10.0
100
AcDbHatch
 10
0.0
 20
0.0
 30
0.0
210
0.0
220
0.0
230
1.0
  2
ANSI31
 70
     0
 71
     0
 91
        6
 92
        5
 93
       18
 72
     4
 94
        3
 73
     0
 74
     0
 95
       12
 96
        8
 40
0.0
 40
0.0
 40
0.0
 40
0.0
 40
2.10100499939131
 40
6.848593476966641
 40
10.75763666958752
 40
15.92791960920187
 40
20.51338574724711
 40
20.51338574724711
 40
20.51338574724711
 40
20.51338574724711
 10
841.357014758325
 20
303.5330998956605
 10
840.7329466462783
 20
303.8241091243767
 10
838.6986874214859
 20
304.7727046327645
 10
835.5310722754365
 20
307.6594564482925
 10
831.1316390598072
 20
304.4275892092364
 10
826.3574450881906
 20
307.1130669752476
 10
823.6361140214837
 20
304.8552546000287
 10
822.357014758325
 20
303.7940216685326
 72
     1
 10
822.357014758325
 20
303.7940216685326
 11
822.357014758325
 21
277.7920913297066
 72
     1
 10
822.357014758325
 20
277.7920913297066
 11
824.3570147583248
 21
277.7920913297066
 72
     1
 10
824.357014758325
 20
277.7920913297066
 11
824.3570147583252
 21
278.3292699887752
 72
     1
 10
824.357014758325
 20
278.3292699887752
 11
826.9920147583247
 21
278.3292699887752
 72
     1
 10
826.9920147583249
 20
278.3292699887752
 11
826.9920147583253
 21
293.7920913297066
 72
     1
 10
826.9920147583253
 20
293.7920913297066
 11
827.5720147583252
 21
293.7920913297066
 72
     1
 10
827.5720147583252
 20
293.7920913297066
 11
827.5720147583252
 21
297.7920913297066
 72
     1
 10
827.5720147583252
 20
297.7920913297066
 11
830.3570147583222
 21
299.4000118293978
 72
     1
 10
830.3570147583222
 20
299.4000118293977
 11
833.3570147583245
 21
299.4000118294
 72
     1
 10
833.3570147583245
 20
299.4000118294
 11
836.1420147583249
 21
297.7920913297065
 72
     1
 10
836.1420147583251
 20
297.7920913297066
 11
836.1420147583251
 21
293.7920913297066
 72
     1
 10
836.1420147583251
 20
293.7920913297066
 11
836.7220147583251
 21
293.7920913297065
 72
     1
 10
836.7220147583251
 20
293.7920913297064
 11
836.7220147583251
 21
278.3292699887752
 72
     1
 10
836.722014758325
 20
278.3292699887752
 11
839.357014758325
 21
278.3292699887752
 72
     1
 10
839.357014758325
 20
278.3292699887752
 11
839.357014758325
 21
277.7920913297065
 72
     1
 10
839.357014758325
 20
277.7920913297066
 11
841.357014758325
 21
277.7920913297065
 72
     1
 10
841.357014758325
 20
277.7920913297064
 11
841.357014758325
 21
303.5330998956605
 97
        0
 92
       22
 72
     0
 73
     1
 93
        4
 10
836.7220147583251
 20
293.7920913297064
 10
836.1420147583249
 20
293.7920913297064
 10
836.1420147583253
 20
278.9092699887753
 10
836.722014758325
 20
278.3292699887754
 97
        0
 92
       22
 72
     0
 73
     1
 93
        4
 10
827.5720147583252
 20
293.7920913297066
 10
826.9920147583253
 20
293.7920913297064
 10
826.9920147583249
 20
278.3292699887754
 10
827.5720147583252
 20
278.9092699887751
 97
        0
 92
        5
 93
       12
 72
     1
 10
871.3570147583247
 20
310.2920913297066
 11
875.357014758325
 21
310.2920913297066
 72
     1
 10
875.357014758325
 20
310.2920913297066
 11
876.590014758325
 21
298.2920913297066
 72
     1
 10
876.5900147583247
 20
298.2920913297066
 11
877.3570147583249
 21
298.2920913297066
 72
     1
 10
877.3570147583253
 20
298.2920913297066
 11
877.3570147583253
 21
313.4481204119157
 72
     4
 94
        3
 73
     0
 74
     0
 95
       11
 96
        7
 40
0.0
 40
0.0
 40
0.0
 40
0.0
 40
1.505326117320977
 40
4.270679193939812
 40
7.18916947407072
 40
9.81545957471715
 40
9.81545957471715
 40
9.81545957471715
 40
9.81545957471715
 10
877.3570147583253
 20
313.4481204119156
 10
876.8513138874586
 20
313.5841457894223
 10
875.4166173371784
 20
313.9700560203562
 10
873.2976742773564
 20
311.4474397747494
 10
870.8194156192803
 20
314.6477593420184
 10
869.1484629559209
 20
313.3025271951871
 10
868.357014758325
 20
312.6653568065201
 72
     1
 10
868.357014758325
 20
312.6653568065201
 11
868.357014758325
 21
289.2920913297065
 72
     2
 10
870.3570147583249
 20
289.2920913297064
 40
2.0
 50
180.0000000000032
 51
240.000000000001
 73
     0
 72
     1
 10
869.3570147583249
 20
291.0241421372754
 11
869.3570147583249
 21
295.0590913297063
 72
     1
 10
869.3570147583249
 20
295.0590913297062
 11
869.3570147583248
 21
297.5250913297064
 72
     1
 10
869.3570147583248
 20
297.5250913297065
 11
869.3570147583249
 21
298.2920913297066
 72
     1
 10
869.3570147583249
 20
298.2920913297066
 11
870.1240147583249
 21
298.2920913297066
 72
     1
 10
870.1240147583249
 20
298.2920913297066
 11
871.3570147583247
 21
310.2920913297066
 97
        0
 92
       22
 72
     0
 73
     1
 93
        4
 10
869.3570147583249
 20
291.2920913297066
 10
870.0335147583251
 20
291.9685913297066
 10
870.0335147583251
 20
294.3825913297061
 10
869.3570147583249
 20
295.0590913297062
 97
        0
 92
       23
 72
     0
 73
     1
 93
        4
 10
876.680514758325
 20
291.9685913297066
 10
877.3570147583249
 20
291.2920913297066
 10
877.3570147583249
 20
295.0590913297064
 10
876.6805147583248
 20
294.3825913297066
 97
        0
 75
     0
 76
     1
 52
0.0
 41
20.0
 77
     0
 78
     1
 53
45.0
 43
207.4249779565175
 44
-17.68795849267962
 45
-1.767766952966368
 46
1.767766952966368
 79
     0
 47
0.086973862025384
 98
        6
 10
834.7002511423834
 20
303.5330998956605
 10
836.5277188286732
 20
291.7046536160844
 10
827.3033609811195
 20
291.2697851367779
 10
870.4663954164484
 20
311.3607479421598
 10
869.5961728589372
 20
293.0092624804444
 10
876.9930630202011
 20
292.7483407075724
  0
SPLINE
  5
2931
330
2
100
AcDbEntity
  8
LINIE
 48
10.0
100
AcDbSpline
210
0.0
220
0.0
230
1.0
 70
     8
 71
     3
 72
    12
 73
     8
 74
     6
 42
0.0000000001
 43
0.0000000001
 44
0.0000000001
 40
0.0
 40
0.0
 40
0.0
 40
0.0
 40
4.585466138045345
 40
9.755749077659697
 40
13.66479227028057
 40
18.4123807478559
 40
20.51338574724711
 40
20.51338574724711
 40
20.51338574724711
 40
20.51338574724711
 10
822.357014758325
 20
303.7940216685326
 30
0.0
 10
823.6361140214835
 20
304.8552546000288
 30
0.0
 10
826.3574450881904
 20
307.1130669752476
 30
0.0
 10
831.1316390598076
 20
304.4275892092363
 30
0.0
 10
835.5310722754362
 20
307.6594564482925
 30
0.0
 10
838.6986874214857
 20
304.7727046327644
 30
0.0
 10
840.7329466462782
 20
303.8241091243767
 30
0.0
 10
841.357014758325
 20
303.5330998956605
 30
0.0
 11
822.357014758325
 21
303.7940216685326
 31
0.0
 11
826.3461158523405
 21
306.0553425579432
 31
0.0
 11
831.4804286261406
 21
305.4465256589819
 31
0.0
 11
835.2223834148244
 21
306.5771861036874
 31
0.0
 11
839.4864736311133
 21
304.4898119207112
 31
0.0
 11
841.357014758325
 21
303.5330998956605
 31
0.0
  0
LINE
  5
2932
330
2
100
AcDbEntity
  8
0
100
AcDbLine
 10
836.1420147583251
 20
297.7920913297066
 30
0.0
 11
836.1420147583251
 21
278.9092699887751
 31
0.0
1001
ACAD
1000
ASC_BOUNDS
1002
{
1070
    19
1002
}
  0
LINE
  5
2933
330
2
100
AcDbEntity
  8
0
100
AcDbLine
 10
827.5720147583252
 20
297.7920913297066
 30
0.0
 11
827.5720147583252
 21
278.9092699887753
 31
0.0
1001
ACAD
1000
ASC_BOUNDS
1002
{
1070
    19
1002
}
  0
LINE
  5
2934
330
2
100
AcDbEntity
  8
MITTE
 48
15.0
100
AcDbLine
 10
831.8570147583249
 20
276.3222590853811
 30
0.0
 11
831.8570147583249
 21
309.6233836964531
 31
0.0
  0
LINE
  5
2935
330
2
100
AcDbEntity
  8
0
100
AcDbLine
 10
836.722014758325
 20
278.3292699887752
 30
0.0
 11
836.1420147583251
 21
278.9092699887753
 31
0.0
1001
ACAD
1000
ASC_BOUNDS
1002
{
1070
    19
1002
}
  0
LINE
  5
2936
330
2
100
AcDbEntity
  8
0
100
AcDbLine
 10
839.357014758325
 20
278.3292699887752
 30
0.0
 11
824.357014758325
 21
278.3292699887752
 31
0.0
1001
ACAD
1000
ASC_BOUNDS
1002
{
1070
    19
1002
}
  0
ARC
  5
2937
330
2
100
AcDbEntity
  8
0
100
AcDbCircle
 10
831.8570147583248
 20
217.2549126706326
 30
0.0
 40
61.00000000000532
100
AcDbArc
 50
82.93756644623513
 51
97.06243355376486
  0
LINE
  5
2938
330
2
100
AcDbEntity
  8
0
100
AcDbLine
 10
836.722014758325
 20
293.7920913297066
 30
0.0
 11
826.9920147583253
 21
293.7920913297066
 31
0.0
  0
LINE
  5
2939
330
2
100
AcDbEntity
  8
0
100
AcDbLine
 10
836.1420147583251
 20
278.9092699887753
 30
0.0
 11
827.572014758325
 21
278.9092699887753
 31
0.0
  0
LINE
  5
293A
330
2
100
AcDbEntity
  8
0
100
AcDbLine
 10
824.357014758325
 20
278.3292699887752
 30
0.0
 11
824.357014758325
 21
277.7920913297066
 31
0.0
1001
ACAD
1000
ASC_BOUNDS
1002
{
1070
    19
1002
}
  0
LINE
  5
293B
330
2
100
AcDbEntity
  8
0
100
AcDbLine
 10
826.9920147583249
 20
278.3292699887752
 30
0.0
 11
827.5720147583252
 21
278.9092699887753
 31
0.0
1001
ACAD
1000
ASC_BOUNDS
1002
{
1070
    19
1002
}
  0
LINE
  5
293C
330
2
100
AcDbEntity
  8
LINIE
 48
10.0
100
AcDbLine
 10
826.9920147583253
 20
293.7920913297066
 30
0.0
 11
826.9920147583249
 21
278.3292699887752
 31
0.0
  0
LINE
  5
293D
330
2
100
AcDbEntity
  8
0
100
AcDbLine
 10
839.357014758325
 20
278.3292699887752
 30
0.0
 11
839.357014758325
 21
277.7920913297066
 31
0.0
1001
ACAD
1000
ASC_BOUNDS
1002
{
1070
    19
1002
}
  0
LINE
  5
293E
330
2
100
AcDbEntity
  8
LINIE
 48
10.0
100
AcDbLine
 10
836.722014758325
 20
293.7920913297066
 30
0.0
 11
836.722014758325
 21
278.3292699887752
 31
0.0
  0
LINE
  5
293F
330
2
100
AcDbEntity
  8
0
100
AcDbLine
 10
833.3570147583245
 20
299.4000118294
 30
0.0
 11
830.357014758322
 21
299.4000118293977
 31
0.0
  0
LINE
  5
2940
330
2
100
AcDbEntity
  8
0
100
AcDbLine
 10
827.5720147583252
 20
297.7920913297066
 30
0.0
 11
830.357014758322
 21
299.4000118293977
 31
0.0
1001
ACAD
1000
ASC_BOUNDS
1002
{
1070
    19
1002
}
  0
LINE
  5
2941
330
2
100
AcDbEntity
  8
0
100
AcDbLine
 10
836.1420147583251
 20
297.7920913297066
 30
0.0
 11
833.3570147583245
 21
299.4000118294
 31
0.0
1001
ACAD
1000
ASC_BOUNDS
1002
{
1070
    19
1002
}
  0
LINE
  5
2942
330
2
100
AcDbEntity
  8
0
100
AcDbLine
 10
836.1420147583251
 20
297.7920913297066
 30
0.0
 11
827.5720147583252
 21
297.7920913297066
 31
0.0
  0
ENDSEC
  0
SECTION
  2
OBJECTS
  0
DICTIONARY
  5
1A
330
0
100
AcDbDictionary
  3
ACAD_GROUP
350
18
  3
ACAD_LAYOUT
350
2D6
  3
ACAD_MLINESTYLE
350
19
  3
ACAD_PLOTSETTINGS
350
2D7
  3
ACAD_PLOTSTYLENAME
350
2D4
  3
ACDBVARIABLEDICTIONARY
350
26E
  3
ACMDICTIONARY
350
28C
  3
AMG
350
2E0
  3
AMGSNAPSETTINGS
350
33F
  3
DWGPROPS
350
2C59
  3
ACDBHEADERROUNDTRIPXREC
350
2C71
  0
DICTIONARY
  5
270
330
2
100
AcDbDictionary
280
     1
  3
ACAD_INDEX
360
2C64
  3
ACAD_LAYOUTSELFREF
360
2C92
  0
DICTIONARY
  5
2C93
330
7
100
AcDbDictionary
280
     1
  3
ACAD_LAYOUTSELFREF
360
2C94
  0
DICTIONARY
  5
18
102
{ACAD_REACTORS
330
1A
102
}
330
1A
100
AcDbDictionary
  0
DICTIONARY
  5
2D6
102
{ACAD_REACTORS
330
1A
102
}
330
1A
100
AcDbDictionary
  0
DICTIONARY
  5
19
102
{ACAD_REACTORS
330
1A
102
}
330
1A
100
AcDbDictionary
  3
STANDARD
350
1B
  0
DICTIONARY
  5
2D7
102
{ACAD_REACTORS
330
1A
102
}
330
1A
100
AcDbDictionary
  0
ACDBDICTIONARYWDFLT
  5
2D4
102
{ACAD_REACTORS
330
1A
102
}
330
1A
100
AcDbDictionary
281
     1
  3
Normal
350
2D5
100
AcDbDictionaryWithDefault
340
2D5
  0
DICTIONARY
  5
26E
102
{ACAD_REACTORS
330
1A
102
}
330
1A
100
AcDbDictionary
  3
INDEXCTL
350
26F
  0
DICTIONARY
  5
28C
102
{ACAD_REACTORS
330
1A
102
}
330
1A
100
AcDbDictionary
  3
ACMSTDDICTIONARY
350
28D
  0
DICTIONARY
  5
2E0
102
{ACAD_REACTORS
330
1A
102
}
330
1A
100
AcDbDictionary
  3
ACMGSETTINGS
350
2E1
  0
DICTIONARY
  5
33F
102
{ACAD_REACTORS
330
1A
102
}
330
1A
100
AcDbDictionary
  0
XRECORD
  5
2C59
102
{ACAD_REACTORS
330
1A
102
}
330
1A
100
AcDbXrecord
  1
DWGPROPS COOKIE
  2

  3

  4

  6

  7

  8

  9

300
AmdtFileType=84
301
=
302
=
303
=
304
=
305
=
306
=
307
=
308
=
309
=
 40
1.760684351851852
 41
2450848.795139884
 42
2452067.608443819
  1

 90
        1
  0
DICTIONARY
  5
2C71
102
{ACAD_REACTORS
330
1A
102
}
330
1A
100
AcDbDictionary
  3
TSTACKALIGN
350
2C72
  3
TSTACKSIZE
350
2C73
  3
HYPERLINKBASE
350
2C74
  3
STYLESHEET
350
2C75
  3
LAYOUTDICT
350
2C76
  3
PLOTSETDICT
350
2C77
  3
PLOTSTYLNAMDICT
350
2C78
  3
LWETCUNION
350
2C79
  3
INSUNITS
350
2C7A
  3
CEPSNTYPE
350
2C7B
  3
FINGERPRINTGUID
350
2C7C
  3
VERSIONGUID
350
2C7D
  3
PSVPSCALE
350
2C7E
  3
DIMSTYLEDATA
350
2C7F
  3
PUCSORTHOREF
350
2C80
  3
PUCSORTHOVIEW
350
2C81
  3
PUCSBASE
350
2C82
  3
PUCSORGTOP
350
2C83
  3
PUCSORGBOTTOM
350
2C84
  3
PUCSORGLEFT
350
2C85
  3
PUCSORGRIGHT
350
2C86
  3
PUCSORGFRONT
350
2C87
  3
PUCSORGBACK
350
2C88
  3
UCSORTHOREF
350
2C89
  3
UCSORTHOVIEW
350
2C8A
  3
UCSBASE
350
2C8B
  3
UCSORGTOP
350
2C8C
  3
UCSORGBOTTOM
350
2C8D
  3
UCSORGLEFT
350
2C8E
  3
UCSORGRIGHT
350
2C8F
  3
UCSORGFRONT
350
2C90
  3
UCSORGBACK
350
2C91
  0
DICTIONARY
  5
2C64
102
{ACAD_REACTORS
330
270
102
}
330
270
100
AcDbDictionary
  3
*A1
350
2C65
  0
XRECORD
  5
2C92
102
{ACAD_REACTORS
330
270
102
}
330
270
100
AcDbXrecord
340
2
  0
XRECORD
  5
2C94
102
{ACAD_REACTORS
330
2C93
102
}
330
2C93
100
AcDbXrecord
340
7
  0
MLINESTYLE
  5
1B
102
{ACAD_REACTORS
330
19
102
}
330
19
100
AcDbMlineStyle
  2
STANDARD
 70
     0
  3

 62
     0
 51
90.0
 52
90.0
 71
     2
 49
0.5
 62
   256
  6
BYLAYER
 49
-0.5
 62
   256
  6
BYLAYER
  0
ACDBPLACEHOLDER
  5
2D5
102
{ACAD_REACTORS
330
2D4
102
}
330
2D4
100
AcDbPlaceHolder
280
     0
  0
DICTIONARYVAR
  5
26F
102
{ACAD_REACTORS
330
26E
102
}
330
26E
100
DictionaryVariables
280
     0
  1
1
  0
DICTIONARY
  5
28D
102
{ACAD_REACTORS
330
28C
102
}
330
28C
100
AcDbDictionary
  0
DICTIONARY
  5
2E1
102
{ACAD_REACTORS
330
2E0
102
}
330
2E0
100
AcDbDictionary
  3
DWGSETTINGS
350
2E2
  0
XRECORD
  5
2C72
102
{ACAD_REACTORS
330
2C71
102
}
330
2C71
100
AcDbXrecord
 90
        1
  0
XRECORD
  5
2C73
102
{ACAD_REACTORS
330
2C71
102
}
330
2C71
100
AcDbXrecord
 90
       70
  0
XRECORD
  5
2C74
102
{ACAD_REACTORS
330
2C71
102
}
330
2C71
100
AcDbXrecord
  1

  0
XRECORD
  5
2C75
102
{ACAD_REACTORS
330
2C71
102
}
330
2C71
100
AcDbXrecord
  1
Test.ctb
  0
XRECORD
  5
2C76
102
{ACAD_REACTORS
330
2C71
102
}
330
2C71
100
AcDbXrecord
340
2D6
  0
XRECORD
  5
2C77
102
{ACAD_REACTORS
330
2C71
102
}
330
2C71
100
AcDbXrecord
340
2D7
  0
XRECORD
  5
2C78
102
{ACAD_REACTORS
330
2C71
102
}
330
2C71
100
AcDbXrecord
340
2D4
  0
XRECORD
  5
2C79
102
{ACAD_REACTORS
330
2C71
102
}
330
2C71
100
AcDbXrecord
 90
    14877
  0
XRECORD
  5
2C7A
102
{ACAD_REACTORS
330
2C71
102
}
330
2C71
100
AcDbXrecord
 90
        0
  0
XRECORD
  5
2C7B
102
{ACAD_REACTORS
330
2C71
102
}
330
2C71
100
AcDbXrecord
 90
        0
  0
XRECORD
  5
2C7C
102
{ACAD_REACTORS
330
2C71
102
}
330
2C71
100
AcDbXrecord
  1
{048B599B-FD96-11D4-B79D-0010B575C074}
  0
XRECORD
  5
2C7D
102
{ACAD_REACTORS
330
2C71
102
}
330
2C71
100
AcDbXrecord
  1
{9A33E786-5A76-11D5-B7FC-0010B575C074}
  0
XRECORD
  5
2C7E
102
{ACAD_REACTORS
330
2C71
102
}
330
2C71
100
AcDbXrecord
 40
0.0
  0
XRECORD
  5
2C7F
102
{ACAD_REACTORS
330
2C71
102
}
330
2C71
100
AcDbXrecord
1000
DSTYLE
1002
{
1070
   289
 70
     0
1002
}
  0
XRECORD
  5
2C80
102
{ACAD_REACTORS
330
2C71
102
}
330
2C71
100
AcDbXrecord
340
0
  0
XRECORD
  5
2C81
102
{ACAD_REACTORS
330
2C71
102
}
330
2C71
100
AcDbXrecord
 70
     0
  0
XRECORD
  5
2C82
102
{ACAD_REACTORS
330
2C71
102
}
330
2C71
100
AcDbXrecord
340
0
  0
XRECORD
  5
2C83
102
{ACAD_REACTORS
330
2C71
102
}
330
2C71
100
AcDbXrecord
 10
0.0
 20
0.0
 30
0.0
  0
XRECORD
  5
2C84
102
{ACAD_REACTORS
330
2C71
102
}
330
2C71
100
AcDbXrecord
 10
0.0
 20
0.0
 30
0.0
  0
XRECORD
  5
2C85
102
{ACAD_REACTORS
330
2C71
102
}
330
2C71
100
AcDbXrecord
 10
0.0
 20
0.0
 30
0.0
  0
XRECORD
  5
2C86
102
{ACAD_REACTORS
330
2C71
102
}
330
2C71
100
AcDbXrecord
 10
0.0
 20
0.0
 30
0.0
  0
XRECORD
  5
2C87
102
{ACAD_REACTORS
330
2C71
102
}
330
2C71
100
AcDbXrecord
 10
0.0
 20
0.0
 30
0.0
  0
XRECORD
  5
2C88
102
{ACAD_REACTORS
330
2C71
102
}
330
2C71
100
AcDbXrecord
 10
0.0
 20
0.0
 30
0.0
  0
XRECORD
  5
2C89
102
{ACAD_REACTORS
330
2C71
102
}
330
2C71
100
AcDbXrecord
340
0
  0
XRECORD
  5
2C8A
102
{ACAD_REACTORS
330
2C71
102
}
330
2C71
100
AcDbXrecord
 70
     0
  0
XRECORD
  5
2C8B
102
{ACAD_REACTORS
330
2C71
102
}
330
2C71
100
AcDbXrecord
340
0
  0
XRECORD
  5
2C8C
102
{ACAD_REACTORS
330
2C71
102
}
330
2C71
100
AcDbXrecord
 10
0.0
 20
0.0
 30
0.0
  0
XRECORD
  5
2C8D
102
{ACAD_REACTORS
330
2C71
102
}
330
2C71
100
AcDbXrecord
 10
0.0
 20
0.0
 30
0.0
  0
XRECORD
  5
2C8E
102
{ACAD_REACTORS
330
2C71
102
}
330
2C71
100
AcDbXrecord
 10
0.0
 20
0.0
 30
0.0
  0
XRECORD
  5
2C8F
102
{ACAD_REACTORS
330
2C71
102
}
330
2C71
100
AcDbXrecord
 10
0.0
 20
0.0
 30
0.0
  0
XRECORD
  5
2C90
102
{ACAD_REACTORS
330
2C71
102
}
330
2C71
100
AcDbXrecord
 10
0.0
 20
0.0
 30
0.0
  0
XRECORD
  5
2C91
102
{ACAD_REACTORS
330
2C71
102
}
330
2C71
100
AcDbXrecord
 10
0.0
 20
0.0
 30
0.0
  0
LAYER_INDEX
  5
2C65
102
{ACAD_REACTORS
330
2C64
102
}
330
2C64
100
AcDbIndex
 40
2452067.62448368
100
AcDbLayerIndex
  8
0
360
2C66
 90
      301
  8
BEM
360
2C67
 90
        3
  8
MITTE
360
2C68
 90
       19
  8
LINIE
360
2C69
 90
       43
  8
SCHRAFF
360
2C6B
 90
        2
  0
XRECORD
  5
2E2
102
{ACAD_REACTORS
330
2E1
102
}
330
2E1
100
AcDbXrecord
  1
VERSION
140
15.0
  1
PRODUCT
  2
AutoCAD Mechanical 2000
  0
IDBUFFER
  5
2C66
330
0
100
AcDbIdBuffer
330
D50
330
D51
330
D52
330
D54
330
D55
330
D56
330
D57
330
D58
330
D59
330
D5A
330
D5B
330
D5C
330
D5D
330
D5E
330
D60
330
D61
330
D62
330
D63
330
D65
330
D66
330
D68
330
D6A
330
D6B
330
D6C
330
D6D
330
D6E
330
D6F
330
D70
330
D72
330
D73
330
D74
330
D75
330
D76
330
D77
330
D78
330
D79
330
D7A
330
D7C
330
D7D
330
D7E
330
D80
330
D81
330
2916
330
291F
330
2924
330
2928
330
292D
330
2932
330
2933
330
2935
330
2936
330
2937
330
2938
330
2939
330
293A
330
293B
330
293D
330
293F
330
2940
330
2941
330
2942
330
C15
330
C16
330
C1A
330
C1B
330
C1C
330
C1D
330
C1E
330
C22
330
C23
330
C24
330
C25
330
C26
330
C27
330
C28
330
C29
330
C2A
330
C2B
330
C2C
330
C2D
330
C2E
330
C2F
330
C30
330
C31
330
C32
330
C33
330
C34
330
C35
330
C36
330
C37
330
C44
330
C45
330
C46
330
C47
330
C48
330
C49
330
C4A
330
C4B
330
C4C
330
C4F
330
C50
330
C51
330
C52
330
C53
330
C54
330
C55
330
C56
330
C57
330
C58
330
C59
330
C5A
330
C5B
330
C5C
330
C5D
330
C5E
330
C5F
330
C60
330
C61
330
C62
330
C63
330
C6B
330
C6C
330
C6D
330
C6E
330
C6F
330
C70
330
C71
330
C72
330
C73
330
C74
330
C75
330
C77
330
C78
330
C79
330
C7A
330
C7B
330
C7C
330
C7D
330
C7E
330
C7F
330
C80
330
C82
330
C83
330
C84
330
C85
330
C86
330
C87
330
C88
330
C89
330
C8A
330
C8B
330
C8C
330
C8D
330
C8E
330
C8F
330
C90
330
C91
330
C92
330
C95
330
C9B
330
C9C
330
C9D
330
C9E
330
C9F
330
CA0
330
CA1
330
CA2
330
CA3
330
CA4
330
CA5
330
CA6
330
CA7
330
CA8
330
CA9
330
CAA
330
CAC
330
CAD
330
CAE
330
CAF
330
CB0
330
CB1
330
CB2
330
CB3
330
CB4
330
CB5
330
CB6
330
CB7
330
CB8
330
CB9
330
CBA
330
CBB
330
CBD
330
CBE
330
CBF
330
CC0
330
CC1
330
CC2
330
CC3
330
CC4
330
CC5
330
CC6
330
CC7
330
CC8
330
CC9
330
CCA
330
CCB
330
CCC
330
CCD
330
CCE
330
CCF
330
CD0
330
CD1
330
CD2
330
CD4
330
CD5
330
CD6
330
CD8
330
CD9
330
CDA
330
CDB
330
CDC
330
CDD
330
CE2
330
CE3
330
CE4
330
CE5
330
CE6
330
CE7
330
CE8
330
CE9
330
CEA
330
CEB
330
CED
330
CEE
330
CEF
330
CF0
330
CF1
330
CF2
330
CF3
330
CF4
330
CF5
330
CF6
330
CF7
330
CF8
330
CF9
330
CFA
330
CFB
330
CFC
330
CFD
330
CFE
330
CFF
330
D00
330
D01
330
D02
330
D03
330
D06
330
D07
330
D08
330
D09
330
D0A
330
D0B
330
D0C
330
D0D
330
D0E
330
D0F
330
D10
330
D11
330
D12
330
D13
330
D1F
330
D28
330
D29
330
D2A
330
D2B
330
D2C
330
D2D
330
D2F
330
D30
330
D31
330
D32
330
D33
330
D34
330
D35
330
D36
330
D37
330
D38
330
D39
330
D3A
330
D3E
330
D3F
330
D40
330
D41
330
D43
330
D44
330
D45
330
D46
330
D48
330
D49
330
D4A
330
D4C
330
D4E
  0
IDBUFFER
  5
2C67
330
0
100
AcDbIdBuffer
330
1C2
330
1F2
330
D23
  0
IDBUFFER
  5
2C68
330
0
100
AcDbIdBuffer
330
D7F
330
D82
330
2934
330
C19
330
C3D
330
C3E
330
C4E
330
C76
330
C81
330
C96
330
CD7
330
CEC
330
D1B
330
D1C
330
D2E
330
D47
330
D4F
330
D53
330
D64
  0
IDBUFFER
  5
2C69
330
0
100
AcDbIdBuffer
330
D42
330
293E
330
2911
330
2912
330
2913
330
2914
330
2915
330
2917
330
2918
330
2919
330
291A
330
291B
330
291C
330
291D
330
291E
330
2920
330
2921
330
2922
330
2923
330
2925
330
2926
330
2929
330
292A
330
292B
330
292C
330
292E
330
292F
330
2931
330
293C
330
C39
330
C3A
330
D3D
330
C3C
330
C4D
330
C94
330
CAB
330
CBC
330
CD3
330
CDE
330
D3C
330
D04
330
D05
330
D3B
  0
IDBUFFER
  5
2C6B
330
0
100
AcDbIdBuffer
330
2927
330
2930
  0
ENDSEC
  0
EOF
