  0
SECTION
  2
HEADER
  9
$ACADVER
  1
AC1014
  9
$ACADMAINTVER
 70
     9
  9
$DWGCODEPAGE
  3
ANSI_1252
  9
$INSBASE
 10
0.0
 20
0.0
 30
0.0
  9
$EXTMIN
 10
170.7489048255943
 20
197.5982682285812
 30
-0.0015258207003583
  9
$EXTMAX
 10
1224.658206180504
 20
434.8571789391074
 30
0.0000000349246037
  9
$LIMMIN
 10
0.0
 20
0.0
  9
$LIMMAX
 10
1400.0
 20
600.0
  9
$ORTHOMODE
 70
     1
  9
$REGENMODE
 70
     1
  9
$FILLMODE
 70
     1
  9
$QTEXTMODE
 70
     0
  9
$MIRRTEXT
 70
     1
  9
$DRAGMODE
 70
     2
  9
$LTSCALE
 40
1.0
  9
$OSMODE
 70
   545
  9
$ATTMODE
 70
     1
  9
$TEXTSIZE
 40
10.0
  9
$TRACEWID
 40
1.0
  9
$TEXTSTYLE
  7
STANDARD
  9
$CLAYER
  8
0
  9
$CELTYPE
  6
BYLAYER
  9
$CECOLOR
 62
   256
  9
$CELTSCALE
 40
10.0
  9
$DELOBJ
 70
     1
  9
$DISPSILH
 70
     0
  9
$DIMSCALE
 40
0.0
  9
$DIMASZ
 40
7.0
  9
$DIMEXO
 40
0.0
  9
$DIMDLI
 40
7.0
  9
$DIMRND
 40
0.0
  9
$DIMDLE
 40
0.0
  9
$DIMEXE
 40
1.25
  9
$DIMTP
 40
0.0
  9
$DIMTM
 40
0.0
  9
$DIMTXT
 40
10.0
  9
$DIMCEN
 40
0.0
  9
$DIMTSZ
 40
0.0
  9
$DIMTOL
 70
     0
  9
$DIMLIM
 70
     0
  9
$DIMTIH
 70
     0
  9
$DIMTOH
 70
     0
  9
$DIMSE1
 70
     0
  9
$DIMSE2
 70
     0
  9
$DIMTAD
 70
     1
  9
$DIMZIN
 70
     8
  9
$DIMBLK
  1

  9
$DIMASO
 70
     1
  9
$DIMSHO
 70
     1
  9
$DIMPOST
  1

  9
$DIMAPOST
  1

  9
$DIMALT
 70
     0
  9
$DIMALTD
 70
     2
  9
$DIMALTF
 40
25.4
  9
$DIMLFAC
 40
1.0
  9
$DIMTOFL
 70
     1
  9
$DIMTVP
 40
0.0
  9
$DIMTIX
 70
     0
  9
$DIMSOXD
 70
     0
  9
$DIMSAH
 70
     0
  9
$DIMBLK1
  1

  9
$DIMBLK2
  1

  9
$DIMSTYLE
  2
ISO-25
  9
$DIMCLRD
 70
   256
  9
$DIMCLRE
 70
   256
  9
$DIMCLRT
 70
   256
  9
$DIMTFAC
 40
1.0
  9
$DIMGAP
 40
4.0
  9
$DIMJUST
 70
     0
  9
$DIMSD1
 70
     0
  9
$DIMSD2
 70
     0
  9
$DIMTOLJ
 70
     1
  9
$DIMTZIN
 70
     8
  9
$DIMALTZ
 70
     0
  9
$DIMALTTZ
 70
     0
  9
$DIMFIT
 70
     0
  9
$DIMUPT
 70
     1
  9
$DIMUNIT
 70
     2
  9
$DIMDEC
 70
     4
  9
$DIMTDEC
 70
     4
  9
$DIMALTU
 70
     2
  9
$DIMALTTD
 70
     2
  9
$DIMTXSTY
  7
STANDARD
  9
$DIMAUNIT
 70
     0
  9
$LUNITS
 70
     2
  9
$LUPREC
 70
     4
  9
$SKETCHINC
 40
1.0
  9
$FILLETRAD
 40
2.5
  9
$AUNITS
 70
     0
  9
$AUPREC
 70
     0
  9
$MENU
  1
.
  9
$ELEVATION
 40
0.0
  9
$PELEVATION
 40
0.0
  9
$THICKNESS
 40
0.0
  9
$LIMCHECK
 70
     0
  9
$BLIPMODE
 70
     0
  9
$CHAMFERA
 40
2.0
  9
$CHAMFERB
 40
2.0
  9
$CHAMFERC
 40
0.0
  9
$CHAMFERD
 40
0.0
  9
$SKPOLY
 70
     0
  9
$TDCREATE
 40
2450848.795139884
  9
$TDUPDATE
 40
2452067.623101666
  9
$TDINDWG
 40
1.7724007523
  9
$TDUSRTIMER
 40
1.7724007523
  9
$USRTIMER
 70
     1
  9
$ANGBASE
 50
0.0
  9
$ANGDIR
 70
     0
  9
$PDMODE
 70
     0
  9
$PDSIZE
 40
0.0
  9
$PLINEWID
 40
0.5
  9
$COORDS
 70
     0
  9
$SPLFRAME
 70
     0
  9
$SPLINETYPE
 70
     6
  9
$SPLINESEGS
 70
     8
  9
$ATTDIA
 70
     1
  9
$ATTREQ
 70
     1
  9
$HANDLING
 70
 12289
  9
$HANDSEED
  5
2DC2
  9
$SURFTAB1
 70
     6
  9
$SURFTAB2
 70
     6
  9
$SURFTYPE
 70
     6
  9
$SURFU
 70
     6
  9
$SURFV
 70
     6
  9
$UCSNAME
  2

  9
$UCSORG
 10
0.0
 20
0.0
 30
0.0
  9
$UCSXDIR
 10
1.0
 20
0.0
 30
0.0
  9
$UCSYDIR
 10
0.0
 20
1.0
 30
0.0
  9
$PUCSNAME
  2

  9
$PUCSORG
 10
0.0
 20
0.0
 30
0.0
  9
$PUCSXDIR
 10
1.0
 20
0.0
 30
0.0
  9
$PUCSYDIR
 10
0.0
 20
1.0
 30
0.0
  9
$USERI1
 70
     0
  9
$USERI2
 70
     0
  9
$USERI3
 70
     0
  9
$USERI4
 70
     0
  9
$USERI5
 70
     0
  9
$USERR1
 40
0.0
  9
$USERR2
 40
0.0
  9
$USERR3
 40
0.0
  9
$USERR4
 40
0.0
  9
$USERR5
 40
0.0
  9
$WORLDVIEW
 70
     1
  9
$SHADEDGE
 70
     3
  9
$SHADEDIF
 70
    70
  9
$TILEMODE
 70
     1
  9
$MAXACTVP
 70
    16
  9
$PINSBASE
 10
0.0
 20
0.0
 30
0.0
  9
$PLIMCHECK
 70
     0
  9
$PEXTMIN
 10
1.000000000000000E+20
 20
1.000000000000000E+20
 30
1.000000000000000E+20
  9
$PEXTMAX
 10
-1.000000000000000E+20
 20
-1.000000000000000E+20
 30
-1.000000000000000E+20
  9
$PLIMMIN
 10
0.0
 20
0.0
  9
$PLIMMAX
 10
420.0
 20
297.0
  9
$UNITMODE
 70
     0
  9
$VISRETAIN
 70
     0
  9
$PLINEGEN
 70
     0
  9
$PSLTSCALE
 70
     0
  9
$TREEDEPTH
 70
  3020
  9
$PICKSTYLE
 70
     3
  9
$CMLSTYLE
  2
STANDARD
  9
$CMLJUST
 70
     0
  9
$CMLSCALE
 40
1.0
  9
$PROXYGRAPHICS
 70
     1
  9
$MEASUREMENT
 70
     0
  0
ENDSEC
  0
SECTION
  2
CLASSES
  0
CLASS
  1
IDBUFFER
  2
AcDbIdBuffer
  3
AutoCAD 2000
 90
        0
280
     0
281
     0
  0
CLASS
  1
LWPOLYLINE
  2
AcDbPolyline
  3
AutoCAD 2000
 90
        0
280
     0
281
     1
  0
CLASS
  1
DICTIONARYVAR
  2
AcDbDictionaryVar
  3
AutoCAD 2000
 90
        0
280
     0
281
     0
  0
CLASS
  1
HATCH
  2
AcDbHatch
  3
AutoCAD 2000
 90
        0
280
     0
281
     1
  0
CLASS
  1
ACMESTATEMGR
  2
AcMeStateMgr
  3
AcMeServices
 90
        0
280
     0
281
     0
  0
CLASS
  1
ACMESCOPE
  2
AcMeScope
  3
AcMeServices
 90
        0
280
     0
281
     0
  0
CLASS
  1
ACMECOMMANDHISTORY
  2
AcMeCommandHistory
  3
AcMeServices
 90
        0
280
     0
281
     0
  0
CLASS
  1
ACRFINSADJUSTERMGR
  2
AcRfInsAdjusterMgr
  3
AcMeServices
 90
        0
280
     0
281
     0
  0
CLASS
  1
ACMEDRAWINGMAN
  2
AcMeDrawingMan
  3
AcMeServices
 90
        0
280
     0
281
     0
  0
CLASS
  1
AMATTR
  2
AcMeAttribute
  3
AcMeServices
 90
        0
280
     0
281
     0
  0
CLASS
  1
ACMEBOMCOLUMN
  2
AcMeBOMColumn
  3
AcMeServices
 90
        0
280
     0
281
     0
  0
CLASS
  1
ACANBOMCONF
  2
AcMeBOMConf
  3
AcMeServices
 90
        0
280
     0
281
     0
  0
CLASS
  1
ACMEBOMTABLE
  2
AcMeBOMTable
  3
AcMeServices
 90
        0
280
     0
281
     0
  0
CLASS
  1
ACMEBOMENTRY
  2
AcMeBOMEntry
  3
AcMeServices
 90
        0
280
     0
281
     0
  0
CLASS
  1
ACMEVIEW
  2
AcMeView
  3
AcMeServices
 90
        0
280
     0
281
     0
  0
CLASS
  1
LAYER_INDEX
  2
AcDbLayerIndex
  3
AutoCAD 2000
 90
        0
280
     0
281
     0
  0
CLASS
  1
ACIMSYSVARMAN
  2
AcImSysVarManager
  3
AcMeServices
 90
        0
280
     0
281
     0
  0
CLASS
  1
ACIMINTSYSVAR
  2
AcImIntSysVar
  3
AcMeServices
 90
        0
280
     0
281
     0
  0
CLASS
  1
ACIMSTRSYSVAR
  2
AcImStrSysVar
  3
AcMeServices
 90
        0
280
     0
281
     0
  0
CLASS
  1
ACMSTANDARDJIS
  2
AcmStandardJIS
  3
"AcmSymBB|Product Description: AutoCAD Mechanical 2000|Company: Autodesk"
 90
        0
280
     0
281
     0
  0
CLASS
  1
ACMSTANDARDANSI
  2
AcmStandardANSI
  3
"AcmSymBB|Product Description: AutoCAD Mechanical 2000|Company: Autodesk"
 90
        0
280
     0
281
     0
  0
CLASS
  1
ACMSTANDARDBSI
  2
AcmStandardBSI
  3
"AcmSymBB|Product Description: AutoCAD Mechanical 2000|Company: Autodesk"
 90
        0
280
     0
281
     0
  0
CLASS
  1
ACMSTANDARDDIN
  2
AcmStandardDIN
  3
"AcmSymBB|Product Description: AutoCAD Mechanical 2000|Company: Autodesk"
 90
        0
280
     0
281
     0
  0
CLASS
  1
ACMSTANDARDISO
  2
AcmStandardISO
  3
"AcmSymBB|Product Description: AutoCAD Mechanical 2000|Company: Autodesk"
 90
        0
280
     0
281
     0
  0
CLASS
  1
ACDBDICTIONARYWDFLT
  2
AcDbDictionaryWithDefault
  3
AutoCAD 2000
 90
        0
280
     0
281
     0
  0
CLASS
  1
ACDBPLACEHOLDER
  2
AcDbPlaceHolder
  3
AutoCAD 2000
 90
        0
280
     0
281
     0
  0
CLASS
  1
LAYOUT
  2
AcDbLayout
  3
AutoCAD 2000
 90
        0
280
     0
281
     0
  0
CLASS
  1
ACME_DOCUMENT
  2
AcMeDbDoc
  3
AcMeServices
 90
        0
280
     0
281
     0
  0
CLASS
  1
AMGSETTINGSOBJ
  2
AmgSettingsObj
  3
"AcadM|Product Description: AutoCAD Mechanical 2000|Company: Autodesk"
 90
        0
280
     0
281
     0
  0
CLASS
  1
ACIMREALSYSVAR
  2
AcImRealSysVar
  3
AcMeServices
 90
        0
280
     0
281
     0
  0
CLASS
  1
ACDBENTITYCACHE
  2
AcMeEntityCache
  3
AcMeServices
 90
        0
280
     0
281
     0
  0
CLASS
  1
GSMANAGER
  2
AcMeGSManager
  3
AcMeServices
 90
        0
280
     0
281
     0
  0
CLASS
  1
AmdtInternalReactor
  2
AmdtInternalReactor
  3
AcMeServices
 90
        0
280
     0
281
     0
  0
CLASS
  1
ACME_DATABASE
  2
AcMeDbDatabase
  3
AcMeServices
 90
        0
280
     0
281
     0
  0
CLASS
  1
ACMDATADICTIONARY
  2
AcmDataDictionary
  3
"AcmSymBB|Product Description: AutoCAD Mechanical 2000|Company: Autodesk"
 90
        0
280
     0
281
     0
  0
CLASS
  1
ACMDATAENTRYBLOCK
  2
AcmDataEntryBlock
  3
"AcmSymBB|Product Description: AutoCAD Mechanical 2000|Company: Autodesk"
 90
        0
280
     0
281
     0
  0
CLASS
  1
ACMSURFSTANDARDJIS
  2
AcmSurfTextStdJIS
  3
"AcmSymBB|Product Description: AutoCAD Mechanical 2000|Company: Autodesk"
 90
        0
280
     0
281
     0
  0
CLASS
  1
ACMFCFSTANDARDJIS
  2
AcmFCFStdJIS
  3
"AcmSymBB|Product Description: AutoCAD Mechanical 2000|Company: Autodesk"
 90
        0
280
     0
281
     0
  0
CLASS
  1
ACMWELDSTANDARDJIS
  2
AcmWeldingStdJIS
  3
"AcmSymBB|Product Description: AutoCAD Mechanical 2000|Company: Autodesk"
 90
        0
280
     0
281
     0
  0
CLASS
  1
ACMIDSTANDARDJIS
  2
AcmIdStdJIS
  3
"AcmSymBB|Product Description: AutoCAD Mechanical 2000|Company: Autodesk"
 90
        0
280
     0
281
     0
  0
CLASS
  1
ACMDATUMSTANDARDJIS
  2
AcmDatumStdJIS
  3
"AcmSymBB|Product Description: AutoCAD Mechanical 2000|Company: Autodesk"
 90
        0
280
     0
281
     0
  0
CLASS
  1
ACMBOMSTANDARDJIS
  2
AcmBOMStdJIS
  3
"AcmSymBB|Product Description: AutoCAD Mechanical 2000|Company: Autodesk"
 90
        0
280
     0
281
     0
  0
CLASS
  1
AMGOBJPROPCFG
  2
AmgObjPropCfg
  3
"AmgLay|Product Description: AutoCAD Mechanical 2000|Company: Autodesk"
 90
        1
280
     0
281
     0
  0
CLASS
  1
ACMSURFSTANDARDANSI
  2
AcmSurfTextStdANSI
  3
"AcmSymBB|Product Description: AutoCAD Mechanical 2000|Company: Autodesk"
 90
        0
280
     0
281
     0
  0
CLASS
  1
ACMFCFSTANDARDANSI
  2
AcmFCFStdANSI
  3
"AcmSymBB|Product Description: AutoCAD Mechanical 2000|Company: Autodesk"
 90
        0
280
     0
281
     0
  0
CLASS
  1
ACMWELDSTANDARDANSI
  2
AcmWeldingStdANSI
  3
"AcmSymBB|Product Description: AutoCAD Mechanical 2000|Company: Autodesk"
 90
        0
280
     0
281
     0
  0
CLASS
  1
ACMIDSTANDARDANSI
  2
AcmIdStdANSI
  3
"AcmSymBB|Product Description: AutoCAD Mechanical 2000|Company: Autodesk"
 90
        0
280
     0
281
     0
  0
CLASS
  1
ACMDATUMSTANDARDANSI
  2
AcmDatumStdANSI
  3
"AcmSymBB|Product Description: AutoCAD Mechanical 2000|Company: Autodesk"
 90
        0
280
     0
281
     0
  0
CLASS
  1
ACMBOMSTANDARDANSI
  2
AcmBOMStdANSI
  3
"AcmSymBB|Product Description: AutoCAD Mechanical 2000|Company: Autodesk"
 90
        0
280
     0
281
     0
  0
CLASS
  1
ACMSURFSTANDARDBSI
  2
AcmSurfTextStdBSI
  3
"AcmSymBB|Product Description: AutoCAD Mechanical 2000|Company: Autodesk"
 90
        0
280
     0
281
     0
  0
CLASS
  1
ACMFCFSTANDARDBSI
  2
AcmFCFStdBSI
  3
"AcmSymBB|Product Description: AutoCAD Mechanical 2000|Company: Autodesk"
 90
        0
280
     0
281
     0
  0
CLASS
  1
ACMWELDSTANDARDBSI
  2
AcmWeldingStdBSI
  3
"AcmSymBB|Product Description: AutoCAD Mechanical 2000|Company: Autodesk"
 90
        0
280
     0
281
     0
  0
CLASS
  1
ACMIDSTANDARDBSI
  2
AcmIdStdBSI
  3
"AcmSymBB|Product Description: AutoCAD Mechanical 2000|Company: Autodesk"
 90
        0
280
     0
281
     0
  0
CLASS
  1
ACMDATUMSTANDARDBSI
  2
AcmDatumStdBSI
  3
"AcmSymBB|Product Description: AutoCAD Mechanical 2000|Company: Autodesk"
 90
        0
280
     0
281
     0
  0
CLASS
  1
ACMBOMSTANDARDBSI
  2
AcmBOMStdBSI
  3
"AcmSymBB|Product Description: AutoCAD Mechanical 2000|Company: Autodesk"
 90
        0
280
     0
281
     0
  0
CLASS
  1
AMDTEDGESTANDARDDIN
  2
AmdtEdgeStdDIN
  3
"AcmSymBB|Product Description: AutoCAD Mechanical 2000|Company: Autodesk"
 90
        0
280
     0
281
     0
  0
CLASS
  1
ACMSURFSTANDARDDIN
  2
AcmSurfTextStdDIN
  3
"AcmSymBB|Product Description: AutoCAD Mechanical 2000|Company: Autodesk"
 90
        0
280
     0
281
     0
  0
CLASS
  1
ACMFCFSTANDARDDIN
  2
AcmFCFStdDIN
  3
"AcmSymBB|Product Description: AutoCAD Mechanical 2000|Company: Autodesk"
 90
        0
280
     0
281
     0
  0
CLASS
  1
ACMWELDSTANDARDDIN
  2
AcmWeldingStdDIN
  3
"AcmSymBB|Product Description: AutoCAD Mechanical 2000|Company: Autodesk"
 90
        0
280
     0
281
     0
  0
CLASS
  1
ACMIDSTANDARDDIN
  2
AcmIdStdDIN
  3
"AcmSymBB|Product Description: AutoCAD Mechanical 2000|Company: Autodesk"
 90
        0
280
     0
281
     0
  0
CLASS
  1
ACMDATUMSTANDARDDIN
  2
AcmDatumStdDIN
  3
"AcmSymBB|Product Description: AutoCAD Mechanical 2000|Company: Autodesk"
 90
        0
280
     0
281
     0
  0
CLASS
  1
ACMBOMSTANDARDDIN
  2
AcmBOMStdDIN
  3
"AcmSymBB|Product Description: AutoCAD Mechanical 2000|Company: Autodesk"
 90
        0
280
     0
281
     0
  0
CLASS
  1
AMDTEDGESTANDARDISO
  2
AmdtEdgeStdISO
  3
"AcmSymBB|Product Description: AutoCAD Mechanical 2000|Company: Autodesk"
 90
        0
280
     0
281
     0
  0
CLASS
  1
ACMSURFSTANDARDISO
  2
AcmSurfTextStdISO
  3
"AcmSymBB|Product Description: AutoCAD Mechanical 2000|Company: Autodesk"
 90
        0
280
     0
281
     0
  0
CLASS
  1
ACMFCFSTANDARDISO
  2
AcmFCFStdISO
  3
"AcmSymBB|Product Description: AutoCAD Mechanical 2000|Company: Autodesk"
 90
        0
280
     0
281
     0
  0
CLASS
  1
ACMWELDSTANDARDISO
  2
AcmWeldingStdISO
  3
"AcmSymBB|Product Description: AutoCAD Mechanical 2000|Company: Autodesk"
 90
        0
280
     0
281
     0
  0
CLASS
  1
ACMIDSTANDARDISO
  2
AcmIdStdISO
  3
"AcmSymBB|Product Description: AutoCAD Mechanical 2000|Company: Autodesk"
 90
        0
280
     0
281
     0
  0
CLASS
  1
ACMDATUMSTANDARDISO
  2
AcmDatumStdISO
  3
"AcmSymBB|Product Description: AutoCAD Mechanical 2000|Company: Autodesk"
 90
        0
280
     0
281
     0
  0
CLASS
  1
ACMBOMSTANDARDISO
  2
AcmBOMStdISO
  3
"AcmSymBB|Product Description: AutoCAD Mechanical 2000|Company: Autodesk"
 90
        0
280
     0
281
     0
  0
CLASS
  1
ACAMGFILTERDAT
  2
AcAmgFilterDat
  3
"AcadM|Product Description: AutoCAD Mechanical 2000|Company: Autodesk"
 90
        0
280
     0
281
     0
  0
CLASS
  1
ACMDIMBREAKPERSREACTOR
  2
AcmDimBreakPersReactor
  3
AutoCadMServices
 90
     1023
280
     0
281
     0
  0
CLASS
  1
LONG_TRANSACTION
  2
AcDbLongTransaction
  3
AutoCAD 2000
 90
        0
280
     0
281
     0
  0
CLASS
  1
LWPOLYLINE
  2
AcDbPolyline
  3
AutoCAD 2000
 90
        0
280
     0
281
     1
  0
CLASS
  1
HATCH
  2
AcDbHatch
  3
AutoCAD 2000
 90
        0
280
     0
281
     1
  0
CLASS
  1
XRECORD
  2
AcDbXrecord
  3
AutoCAD 2000
 90
        0
280
     0
281
     0
  0
ENDSEC
  0
SECTION
  2
TABLES
  0
TABLE
  2
VPORT
  5
12
330
0
100
AcDbSymbolTable
 70
     8
  0
VPORT
  5
2D9D
330
12
100
AcDbSymbolTableRecord
100
AcDbViewportTableRecord
  2
*ACTIVE
 70
     0
 10
0.0
 20
0.0
 11
1.0
 21
1.0
 12
692.8786803804926
 22
299.0070420085357
 13
0.0
 23
0.0
 14
10.0
 24
10.0
 15
50.0
 25
50.0
 16
0.0
 26
0.0
 36
1.0
 17
0.0
 27
0.0
 37
0.0
 40
582.1824255171009
 41
1.981912144702842
 42
50.0
 43
0.0
 44
0.0
 50
0.0
 51
0.0
 71
     0
 72
   100
 73
     1
 74
     0
 75
     0
 76
     0
 77
     0
 78
     0
  0
ENDTAB
  0
TABLE
  2
LTYPE
  5
D
330
0
100
AcDbSymbolTable
 70
    19
  0
LTYPE
  5
E
330
D
100
AcDbSymbolTableRecord
100
AcDbLinetypeTableRecord
  2
BYBLOCK
 70
     0
  3

 72
    65
 73
     0
 40
0.0
  0
LTYPE
  5
F
330
D
100
AcDbSymbolTableRecord
100
AcDbLinetypeTableRecord
  2
BYLAYER
 70
     0
  3

 72
    65
 73
     0
 40
0.0
  0
LTYPE
  5
5
330
D
100
AcDbSymbolTableRecord
100
AcDbLinetypeTableRecord
  2
CONTINUOUS
 70
     0
  3
Solid line
 72
    65
 73
     0
 40
0.0
  0
LTYPE
  5
4B
330
D
100
AcDbSymbolTableRecord
100
AcDbLinetypeTableRecord
  2
MITTE
 70
     0
  3
____ _ ____ _ ____ _ ____ _ ____ _ ____ _ ____ 
 72
    65
 73
     4
 40
2.0
 49
1.25
 74
     0
 49
-0.25
 74
     0
 49
0.25
 74
     0
 49
-0.25
 74
     0
  0
LTYPE
  5
293
330
D
100
AcDbSymbolTableRecord
100
AcDbLinetypeTableRecord
  2
ACJISTGB
 70
     0
  3
__ . . __ . .
 72
    65
 73
     6
 40
9.0
 49
4.0
 74
     0
 49
-1.0
 74
     0
 49
1.0
 74
     0
 49
-1.0
 74
     0
 49
1.0
 74
     0
 49
-1.0
 74
     0
  0
LTYPE
  5
294
330
D
100
AcDbSymbolTableRecord
100
AcDbLinetypeTableRecord
  2
ACJISTGL
 70
     0
  3
_ _ _ _ _
 72
    65
 73
     2
 40
3.0
 49
2.0
 74
     0
 49
-1.0
 74
     0
  0
LTYPE
  5
297
330
D
100
AcDbSymbolTableRecord
100
AcDbLinetypeTableRecord
  2
ACANSTGB
 70
     0
  3
__ . . __ . .
 72
    65
 73
     6
 40
0.35433070866
 49
0.15748031496
 74
     0
 49
-0.03937007874
 74
     0
 49
0.03937007874
 74
     0
 49
-0.03937007874
 74
     0
 49
0.03937007874
 74
     0
 49
-0.03937007874
 74
     0
  0
LTYPE
  5
298
330
D
100
AcDbSymbolTableRecord
100
AcDbLinetypeTableRecord
  2
ACANSTGL
 70
     0
  3
_ _ _ _ _
 72
    65
 73
     2
 40
0.11811023622
 49
0.07874015748
 74
     0
 49
-0.03937007874
 74
     0
  0
LTYPE
  5
29B
330
D
100
AcDbSymbolTableRecord
100
AcDbLinetypeTableRecord
  2
ACBSIWELD
 70
     0
  3
_ _ _ _ _
 72
    65
 73
     2
 40
2.0
 49
2.0
 74
     0
 49
-1.0
 74
     0
  0
LTYPE
  5
29C
330
D
100
AcDbSymbolTableRecord
100
AcDbLinetypeTableRecord
  2
ACBSITGB
 70
     0
  3
__ . . __ . .
 72
    65
 73
     6
 40
9.0
 49
4.0
 74
     0
 49
-1.0
 74
     0
 49
1.0
 74
     0
 49
-1.0
 74
     0
 49
1.0
 74
     0
 49
-1.0
 74
     0
  0
LTYPE
  5
29D
330
D
100
AcDbSymbolTableRecord
100
AcDbLinetypeTableRecord
  2
ACBSITGL
 70
     0
  3
_ _ _ _ _
 72
    65
 73
     2
 40
3.0
 49
2.0
 74
     0
 49
-1.0
 74
     0
  0
LTYPE
  5
2A0
330
D
100
AcDbSymbolTableRecord
100
AcDbLinetypeTableRecord
  2
ACDINWELD
 70
     0
  3
_ _ _ _ _
 72
    65
 73
     2
 40
2.0
 49
2.0
 74
     0
 49
-1.0
 74
     0
  0
LTYPE
  5
2A1
330
D
100
AcDbSymbolTableRecord
100
AcDbLinetypeTableRecord
  2
ACDINTGB
 70
     0
  3
__ . . __ . .
 72
    65
 73
     6
 40
9.0
 49
4.0
 74
     0
 49
-1.0
 74
     0
 49
1.0
 74
     0
 49
-1.0
 74
     0
 49
1.0
 74
     0
 49
-1.0
 74
     0
  0
LTYPE
  5
2A2
330
D
100
AcDbSymbolTableRecord
100
AcDbLinetypeTableRecord
  2
ACDINTGL
 70
     0
  3
_ _ _ _ _
 72
    65
 73
     2
 40
3.0
 49
2.0
 74
     0
 49
-1.0
 74
     0
  0
LTYPE
  5
2A5
330
D
100
AcDbSymbolTableRecord
100
AcDbLinetypeTableRecord
  2
ACISOWELD
 70
     0
  3
_ _ _ _ _
 72
    65
 73
     2
 40
2.0
 49
2.0
 74
     0
 49
-1.0
 74
     0
  0
LTYPE
  5
2A6
330
D
100
AcDbSymbolTableRecord
100
AcDbLinetypeTableRecord
  2
ACISOTGB
 70
     0
  3
__ . . __ . .
 72
    65
 73
     6
 40
9.0
 49
4.0
 74
     0
 49
-1.0
 74
     0
 49
1.0
 74
     0
 49
-1.0
 74
     0
 49
1.0
 74
     0
 49
-1.0
 74
     0
  0
LTYPE
  5
2A7
330
D
100
AcDbSymbolTableRecord
100
AcDbLinetypeTableRecord
  2
ACISOTGL
 70
     0
  3
_ _ _ _ _
 72
    65
 73
     2
 40
3.0
 49
2.0
 74
     0
 49
-1.0
 74
     0
  0
LTYPE
  5
301
330
D
100
AcDbSymbolTableRecord
100
AcDbLinetypeTableRecord
  2
AMCONSTR
 70
     0
  3
_______________________
 72
    65
 73
     2
 40
9999.0
 49
9999.0
 74
     0
 49
0.0
 74
     0
  0
LTYPE
  5
307
330
D
100
AcDbSymbolTableRecord
100
AcDbLinetypeTableRecord
  2
PHANTOM2
 70
     0
  3
Phantom (.5x) ___ _ _ ___ _ _ ___ _ _ ___ _ _
 72
    65
 73
     6
 40
1.25
 49
0.625
 74
     0
 49
-0.125
 74
     0
 49
0.125
 74
     0
 49
-0.125
 74
     0
 49
0.125
 74
     0
 49
-0.125
 74
     0
  0
LTYPE
  5
308
330
D
100
AcDbSymbolTableRecord
100
AcDbLinetypeTableRecord
  2
AMZIGZAG2
 70
     0
  3
/\/-/\/-/\/-/\/-/\/-/\/
 72
    65
 73
     2
 40
0.4401
 49
0.0001
 74
     4
 75
   135
340
305
 46
0.0016
 50
0.0
 44
0.0
 45
0.0
 49
-0.4400000000000001
 74
     0
  0
LTYPE
  5
46A
330
D
100
AcDbSymbolTableRecord
100
AcDbLinetypeTableRecord
  2
GESTRICHELT
 70
     0
  3
__ __ __ __ __ __ __ __ __ __ __ __ __ __ __ __
 72
    65
 73
     2
 40
0.75
 49
0.5
 74
     0
 49
-0.25
 74
     0
  0
ENDTAB
  0
TABLE
  2
LAYER
  5
A
330
0
100
AcDbSymbolTable
 70
     6
  0
LAYER
  5
4
330
A
100
AcDbSymbolTableRecord
100
AcDbLayerTableRecord
  2
0
 70
     0
 62
     7
  6
CONTINUOUS
  0
LAYER
  5
21
330
A
100
AcDbSymbolTableRecord
100
AcDbLayerTableRecord
  2
BEM
 70
     0
 62
     1
  6
CONTINUOUS
  0
LAYER
  5
4A
330
A
100
AcDbSymbolTableRecord
100
AcDbLayerTableRecord
  2
MITTE
 70
     0
 62
     6
  6
MITTE
  0
LAYER
  5
87
330
A
100
AcDbSymbolTableRecord
100
AcDbLayerTableRecord
  2
LINIE
 70
     0
 62
     6
  6
CONTINUOUS
  0
LAYER
  5
28D7
330
A
100
AcDbSymbolTableRecord
100
AcDbLayerTableRecord
  2
SCHRAFF
 70
     0
 62
    62
  6
CONTINUOUS
  0
ENDTAB
  0
TABLE
  2
STYLE
  5
B
330
0
100
AcDbSymbolTable
 70
    12
  0
STYLE
  5
C
330
B
100
AcDbSymbolTableRecord
100
AcDbTextStyleTableRecord
  2
STANDARD
 70
     0
 40
0.0
 41
1.0
 50
0.0
 71
     0
 42
10.0
  3
romans.shx
  4

  0
STYLE
  5
291
330
B
100
AcDbSymbolTableRecord
100
AcDbTextStyleTableRecord
  2
ACJISTS
 70
     0
 40
1.0
 41
1.0
 50
0.0
 71
     0
 42
10.0
  3
isocp.shx
  4
bigfont.shx
  0
STYLE
  5
292
330
B
100
AcDbSymbolTableRecord
100
AcDbTextStyleTableRecord
  2
ACJISGDT
 70
     0
 40
0.0
 41
1.0
 50
0.0
 71
     0
 42
10.0
  3
amgdt.shx
  4

  0
STYLE
  5
295
330
B
100
AcDbSymbolTableRecord
100
AcDbTextStyleTableRecord
  2
ACANSTSB
 70
     0
 40
1.0
 41
1.0
 50
0.0
 71
     0
 42
10.0
  3
romans.shx
  4

  0
STYLE
  5
296
330
B
100
AcDbSymbolTableRecord
100
AcDbTextStyleTableRecord
  2
ACANSGDT
 70
     0
 40
0.0
 41
1.0
 50
0.0
 71
     0
 42
10.0
  3
amgdt.shx
  4

  0
STYLE
  5
299
330
B
100
AcDbSymbolTableRecord
100
AcDbTextStyleTableRecord
  2
ACBSITS
 70
     0
 40
1.0
 41
1.0
 50
0.0
 71
     0
 42
10.0
  3
isocp.shx
  4

  0
STYLE
  5
29A
330
B
100
AcDbSymbolTableRecord
100
AcDbTextStyleTableRecord
  2
ACBSIGDT
 70
     0
 40
0.0
 41
1.0
 50
0.0
 71
     0
 42
10.0
  3
amgdt.shx
  4

  0
STYLE
  5
29E
330
B
100
AcDbSymbolTableRecord
100
AcDbTextStyleTableRecord
  2
ACDINTS
 70
     0
 40
1.0
 41
1.0
 50
0.0
 71
     0
 42
10.0
  3
isocp.shx
  4

  0
STYLE
  5
29F
330
B
100
AcDbSymbolTableRecord
100
AcDbTextStyleTableRecord
  2
ACDINGDT
 70
     0
 40
0.0
 41
1.0
 50
0.0
 71
     0
 42
10.0
  3
amgdt.shx
  4

  0
STYLE
  5
2A3
330
B
100
AcDbSymbolTableRecord
100
AcDbTextStyleTableRecord
  2
ACISOTS
 70
     0
 40
1.0
 41
1.0
 50
0.0
 71
     0
 42
10.0
  3
isocp.shx
  4

  0
STYLE
  5
2A4
330
B
100
AcDbSymbolTableRecord
100
AcDbTextStyleTableRecord
  2
ACISOGDT
 70
     0
 40
0.0
 41
1.0
 50
0.0
 71
     0
 42
10.0
  3
amgdt.shx
  4

  0
STYLE
  5
305
330
B
100
AcDbSymbolTableRecord
100
AcDbTextStyleTableRecord
  2

 70
     1
 40
0.0
 41
1.0
 50
0.0
 71
     0
 42
10.0
  3
ltypeshp.shx
  4

  0
ENDTAB
  0
TABLE
  2
VIEW
  5
10
330
0
100
AcDbSymbolTable
 70
     0
  0
ENDTAB
  0
TABLE
  2
UCS
  5
11
330
0
100
AcDbSymbolTable
 70
     0
  0
ENDTAB
  0
TABLE
  2
APPID
  5
14
330
0
100
AcDbSymbolTable
 70
     3
  0
APPID
  5
15
330
14
100
AcDbSymbolTableRecord
100
AcDbRegAppTableRecord
  2
ACAD
 70
     0
  0
APPID
  5
251
330
14
100
AcDbSymbolTableRecord
100
AcDbRegAppTableRecord
  2
MCAD_NO_VIS
 70
     0
  0
APPID
  5
2E5
330
14
100
AcDbSymbolTableRecord
100
AcDbRegAppTableRecord
  2
ACAD_TEMP_GRAPHIC
 70
     0
  0
ENDTAB
  0
TABLE
  2
DIMSTYLE
  5
16
330
0
100
AcDbSymbolTable
 70
     2
  0
DIMSTYLE
105
1C
102
{ACAD_REACTORS
330
1411
330
1410
330
1409
330
14E5
330
1495
330
1432
330
1431
330
142E
330
145D
330
143A
330
1482
330
142B
330
14D1
330
14D0
330
14DD
330
14FF
330
15C5
330
15AF
330
152F
330
1529
330
1528
330
1527
330
1526
330
1520
330
2C77
330
1538
330
15CF
330
15B0
330
15B8
330
15B1
102
}
330
16
100
AcDbSymbolTableRecord
100
AcDbDimStyleTableRecord
  2
ISO-25
 70
     0
  3

  4

  5

  6

  7

 40
0.0
 41
7.0
 42
0.0
 43
7.0
 44
1.25
 45
0.0
 46
0.0
 47
0.0
 48
0.0
140
10.0
141
0.0
142
0.0
143
25.4
144
1.0
145
0.0
146
1.0
147
4.0
 71
     0
 72
     0
 73
     0
 74
     0
 75
     0
 76
     0
 77
     1
 78
     8
170
     0
171
     2
172
     1
173
     0
174
     0
175
     0
176
   256
177
   256
178
   256
270
     2
271
     4
272
     4
273
     2
274
     2
340
C
275
     0
280
     0
281
     0
282
     0
283
     1
284
     8
285
     0
286
     0
287
     0
288
     1
  0
ENDTAB
  0
TABLE
  2
BLOCK_RECORD
  5
1
330
0
100
AcDbSymbolTable
 70
    31
  0
BLOCK_RECORD
  5
2
102
{ACAD_XDICTIONARY
360
270
102
}
330
1
100
AcDbSymbolTableRecord
100
AcDbBlockTableRecord
  2
*MODEL_SPACE
  0
BLOCK_RECORD
  5
7
102
{ACAD_XDICTIONARY
360
2DC0
102
}
330
1
100
AcDbSymbolTableRecord
100
AcDbBlockTableRecord
  2
*PAPER_SPACE
  0
BLOCK_RECORD
  5
2696
330
1
100
AcDbSymbolTableRecord
100
AcDbBlockTableRecord
  2
*X29
  0
ENDTAB
  0
ENDSEC
  0
SECTION
  2
BLOCKS
  0
BLOCK
  5
3
330
2
100
AcDbEntity
  8
0
100
AcDbBlockBegin
  2
*MODEL_SPACE
 70
     0
 10
0.0
 20
0.0
 30
0.0
  3
*MODEL_SPACE
  1

  0
ENDBLK
  5
6
330
2
100
AcDbEntity
  8
0
100
AcDbBlockEnd
  0
BLOCK
  5
8
330
7
100
AcDbEntity
 67
     1
  8
0
100
AcDbBlockBegin
  2
*PAPER_SPACE
 70
     0
 10
0.0
 20
0.0
 30
0.0
  3
*PAPER_SPACE
  1

  0
ENDBLK
  5
9
330
7
100
AcDbEntity
 67
     1
  8
0
100
AcDbBlockEnd
  0
BLOCK
  5
28D5
330
2696
100
AcDbEntity
  8
0
 48
10.0
100
AcDbBlockBegin
  2
*X29
 70
     1
 10
0.0
 20
0.0
 30
0.0
  3
*X29
  1

  0
LINE
  5
2697
330
2696
100
AcDbEntity
  8
0
 62
     0
 48
10.0
100
AcDbLine
 10
98.35104377251177
 20
163.0876864723723
 30
0.0
 11
98.44746191396474
 21
163.2025931388402
 31
0.0
  0
LINE
  5
2698
330
2696
100
AcDbEntity
  8
0
 62
     0
 48
10.0
100
AcDbLine
 10
99.50806146994754
 20
164.4665664699865
 30
0.0
 11
99.60447961140053
 21
164.5814731364543
 31
0.0
  0
LINE
  5
2699
330
2696
100
AcDbEntity
  8
0
 62
     0
 48
10.0
100
AcDbLine
 10
100.6650791673833
 20
165.8454464676006
 30
0.0
 11
100.72699073486
 21
165.9192298005641
 31
0.0
  0
LINE
  5
269A
330
2696
100
AcDbEntity
  8
0
 62
     0
 48
10.0
100
AcDbLine
 10
100.72699073486
 20
165.9192298005642
 30
0.0
 11
100.7614973088362
 21
165.9603531340685
 31
0.0
  0
LINE
  5
269B
330
2696
100
AcDbEntity
  8
0
 62
     0
 48
10.0
100
AcDbLine
 10
101.822096864819
 20
167.2243264652148
 30
0.0
 11
101.918515006272
 21
167.3392331316826
 31
0.0
  0
LINE
  5
269C
330
2696
100
AcDbEntity
  8
0
 62
     0
 48
10.0
100
AcDbLine
 10
102.9791145622548
 20
168.6032064628289
 30
0.0
 11
103.0755327037078
 21
168.7181131292968
 31
0.0
  0
LINE
  5
269D
330
2696
100
AcDbEntity
  8
0
 62
     0
 48
10.0
100
AcDbLine
 10
98.62854644027748
 20
161.583302204793
 30
0.0
 11
98.72496458173047
 21
161.6982088712608
 31
0.0
  0
LINE
  5
269E
330
2696
100
AcDbEntity
  8
0
 62
     0
 48
10.0
100
AcDbLine
 10
99.78556413771327
 20
162.9621822024071
 30
0.0
 11
99.88198227916626
 21
163.077088868875
 31
0.0
  0
LINE
  5
269F
330
2696
100
AcDbEntity
  8
0
 62
     0
 48
10.0
100
AcDbLine
 10
100.942581835149
 20
164.3410622000213
 30
0.0
 11
101.038999976602
 21
164.4559688664891
 31
0.0
  0
LINE
  5
26A0
330
2696
100
AcDbEntity
  8
0
 62
     0
 48
10.0
100
AcDbLine
 10
102.0995995325848
 20
165.7199421976354
 30
0.0
 11
102.1960176740377
 21
165.8348488641033
 31
0.0
  0
LINE
  5
26A1
330
2696
100
AcDbEntity
  8
0
 62
     0
 48
10.0
100
AcDbLine
 10
103.2566172300205
 20
167.0988221952496
 30
0.0
 11
103.3530353714735
 21
167.2137288617174
 31
0.0
  0
LINE
  5
26A2
330
2696
100
AcDbEntity
  8
0
 62
     0
 48
10.0
100
AcDbLine
 10
100.063066805479
 20
161.4577979348278
 30
0.0
 11
100.1594849469319
 21
161.5727046012956
 31
0.0
  0
LINE
  5
26A3
330
2696
100
AcDbEntity
  8
0
 62
     0
 48
10.0
100
AcDbLine
 10
101.2200845029147
 20
162.8366779324419
 30
0.0
 11
101.3165026443677
 21
162.9515845989098
 31
0.0
  0
LINE
  5
26A4
330
2696
100
AcDbEntity
  8
0
 62
     0
 48
10.0
100
AcDbLine
 10
102.3771022003505
 20
164.2155579300561
 30
0.0
 11
102.4735203418035
 21
164.3304645965239
 31
0.0
  0
LINE
  5
26A5
330
2696
100
AcDbEntity
  8
0
 62
     0
 48
10.0
100
AcDbLine
 10
101.5436325231569
 20
161.3871683790986
 30
0.0
 11
101.5940053121334
 21
161.4472003313304
 31
0.0
  0
LINE
  5
26A6
330
2696
100
AcDbEntity
  8
0
 62
     0
 48
10.0
100
AcDbLine
 10
102.6546048681162
 20
162.7111736624768
 30
0.0
 11
102.7510230095692
 21
162.8260803289446
 31
0.0
  0
LINE
  5
26A7
330
2696
100
AcDbEntity
  8
0
 62
     0
 48
10.0
100
AcDbLine
 10
98.07354110474603
 20
164.5920707399517
 30
0.0
 11
98.16995924619902
 21
164.7069774064195
 31
0.0
  0
LINE
  5
26A8
330
2696
100
AcDbEntity
  8
0
 62
     0
 48
10.0
100
AcDbLine
 10
99.2305588021818
 20
165.9709507375658
 30
0.0
 11
99.32697694363479
 21
166.0858574040337
 31
0.0
  0
LINE
  5
26A9
330
2696
100
AcDbEntity
  8
0
 62
     0
 48
10.0
100
AcDbLine
 10
100.3875764996175
 20
167.34983073518
 30
0.0
 11
100.4839946410705
 21
167.4647374016478
 31
0.0
  0
LINE
  5
26AA
330
2696
100
AcDbEntity
  8
0
 62
     0
 48
10.0
100
AcDbLine
 10
101.5445941970533
 20
168.7287107327942
 30
0.0
 11
101.6410123385063
 21
168.843617399262
 31
0.0
  0
LINE
  5
26AB
330
2696
100
AcDbEntity
  8
0
 62
     0
 48
10.0
100
AcDbLine
 10
102.7016118944891
 20
170.1075907304083
 30
0.0
 11
102.7980300359421
 21
170.2224973968762
 31
0.0
  0
LINE
  5
26AC
330
2696
100
AcDbEntity
  8
0
 62
     0
 48
10.0
100
AcDbLine
 10
98.95305613441607
 20
167.4753350051452
 30
0.0
 11
99.04947427586904
 21
167.590241671613
 31
0.0
  0
LINE
  5
26AD
330
2696
100
AcDbEntity
  8
0
 62
     0
 48
10.0
100
AcDbLine
 10
100.1100738318518
 20
168.8542150027593
 30
0.0
 11
100.2064919733048
 21
168.9691216692272
 31
0.0
  0
LINE
  5
26AE
330
2696
100
AcDbEntity
  8
0
 62
     0
 48
10.0
100
AcDbLine
 10
101.2670915292876
 20
170.2330950003735
 30
0.0
 11
101.3635096707405
 21
170.3480016668414
 31
0.0
  0
LINE
  5
26AF
330
2696
100
AcDbEntity
  8
0
 62
     0
 48
10.0
100
AcDbLine
 10
102.4241092267233
 20
171.6119749979877
 30
0.0
 11
102.5205273681763
 21
171.7268816644555
 31
0.0
  0
LINE
  5
26B0
330
2696
100
AcDbEntity
  8
0
 62
     0
 48
10.0
100
AcDbLine
 10
98.67555346665033
 20
168.9797192727245
 30
0.0
 11
98.77197160810332
 21
169.0946259391924
 31
0.0
  0
LINE
  5
26B1
330
2696
100
AcDbEntity
  8
0
 62
     0
 48
10.0
100
AcDbLine
 10
99.8325711640861
 20
170.3585992703387
 30
0.0
 11
99.92898930553909
 21
170.4735059368065
 31
0.0
  0
LINE
  5
26B2
330
2696
100
AcDbEntity
  8
0
 62
     0
 48
10.0
100
AcDbLine
 10
100.9895888615218
 20
171.7374792679528
 30
0.0
 11
101.0860070029748
 21
171.8523859344207
 31
0.0
  0
LINE
  5
26B3
330
2696
100
AcDbEntity
  8
0
 62
     0
 48
10.0
100
AcDbLine
 10
102.1466065589576
 20
173.116359265567
 30
0.0
 11
102.2430247004106
 21
173.2312659320348
 31
0.0
  0
LINE
  5
26B4
330
2696
100
AcDbEntity
  8
0
 62
     0
 48
10.0
100
AcDbLine
 10
98.43297771752247
 20
170.5257278210688
 30
0.0
 11
98.49446894033755
 21
170.5990102067717
 31
0.0
  0
LINE
  5
26B5
330
2696
100
AcDbEntity
  8
0
 62
     0
 48
10.0
100
AcDbLine
 10
99.55506849632035
 20
171.862983537918
 30
0.0
 11
99.65148663777334
 21
171.9778902043859
 31
0.0
  0
LINE
  5
26B6
330
2696
100
AcDbEntity
  8
0
 62
     0
 48
10.0
100
AcDbLine
 10
100.7120861937561
 20
173.2418635355322
 30
0.0
 11
100.72699073486
 21
173.2596260759387
 31
0.0
  0
LINE
  5
26B7
330
2696
100
AcDbEntity
  8
0
 62
     0
 48
10.0
100
AcDbLine
 10
100.72699073486
 20
173.2596260759388
 30
0.0
 11
100.808504335209
 21
173.356770202
 31
0.0
  0
LINE
  5
26B8
330
2696
100
AcDbEntity
  8
0
 62
     0
 48
10.0
100
AcDbLine
 10
99.2775658285546
 20
173.3673678054974
 30
0.0
 11
99.29418048256046
 21
173.3871683790986
 31
0.0
  0
LINE
  5
26B9
330
2696
100
AcDbEntity
  8
0
 62
     0
 48
10.0
100
AcDbLine
 10
98.9530562033004
 20
167.475335021393
 30
0.0
 11
99.07259956707141
 21
167.4648763322633
 31
0.0
  0
LINE
  5
26BA
330
2696
100
AcDbEntity
  8
0
 62
     0
 48
10.0
100
AcDbLine
 10
100.3875765685525
 20
167.3498307518364
 30
0.0
 11
100.5071199323235
 21
167.3393720627067
 31
0.0
  0
LINE
  5
26BB
330
2696
100
AcDbEntity
  8
0
 62
     0
 48
10.0
100
AcDbLine
 10
101.8220969338046
 20
167.2243264822798
 30
0.0
 11
101.9416402975756
 21
167.21386779315
 31
0.0
  0
LINE
  5
26BC
330
2696
100
AcDbEntity
  8
0
 62
     0
 48
10.0
100
AcDbLine
 10
103.2566172990567
 20
167.0988222127231
 30
0.0
 11
103.3741750844858
 21
167.0885372391889
 31
0.0
  0
LINE
  5
26BD
330
2696
100
AcDbEntity
  8
0
 62
     0
 48
10.0
100
AcDbLine
 10
98.67555353607443
 20
168.979719288793
 30
0.0
 11
98.79509689984544
 21
168.9692605996634
 31
0.0
  0
LINE
  5
26BE
330
2696
100
AcDbEntity
  8
0
 62
     0
 48
10.0
100
AcDbLine
 10
100.1100739013265
 20
168.8542150192364
 30
0.0
 11
100.2296172650975
 21
168.8437563301067
 31
0.0
  0
LINE
  5
26BF
330
2696
100
AcDbEntity
  8
0
 62
     0
 48
10.0
100
AcDbLine
 10
101.5445942665786
 20
168.7287107496798
 30
0.0
 11
101.6641376303496
 21
168.7182520605501
 31
0.0
  0
LINE
  5
26C0
330
2696
100
AcDbEntity
  8
0
 62
     0
 48
10.0
100
AcDbLine
 10
102.9791146318307
 20
168.6032064801232
 30
0.0
 11
103.0986579956017
 21
168.5927477909935
 31
0.0
  0
LINE
  5
26C1
330
2696
100
AcDbEntity
  8
0
 62
     0
 48
10.0
100
AcDbLine
 10
98.42842775252039
 20
170.4814459232385
 30
0.0
 11
98.51759423261938
 21
170.4736448670634
 31
0.0
  0
LINE
  5
26C2
330
2696
100
AcDbEntity
  8
0
 62
     0
 48
10.0
100
AcDbLine
 10
99.8325712341005
 20
170.3585992866365
 30
0.0
 11
99.95211459787151
 21
170.3481405975067
 31
0.0
  0
LINE
  5
26C3
330
2696
100
AcDbEntity
  8
0
 62
     0
 48
10.0
100
AcDbLine
 10
101.2670915993526
 20
170.2330950170798
 30
0.0
 11
101.3866349631236
 21
170.2226363279501
 31
0.0
  0
LINE
  5
26C4
330
2696
100
AcDbEntity
  8
0
 62
     0
 48
10.0
100
AcDbLine
 10
102.7016119646047
 20
170.1075907475232
 30
0.0
 11
102.8211553283757
 21
170.0971320583934
 31
0.0
  0
LINE
  5
26C5
330
2696
100
AcDbEntity
  8
0
 62
     0
 48
10.0
100
AcDbLine
 10
99.55506856687449
 20
171.8629835540365
 30
0.0
 11
99.67461193064551
 21
171.8525248649068
 31
0.0
  0
LINE
  5
26C6
330
2696
100
AcDbEntity
  8
0
 62
     0
 48
10.0
100
AcDbLine
 10
100.9895889321266
 20
171.7374792844798
 30
0.0
 11
101.1091322958976
 21
171.7270205953501
 31
0.0
  0
LINE
  5
26C7
330
2696
100
AcDbEntity
  8
0
 62
     0
 48
10.0
100
AcDbLine
 10
102.4241092973787
 20
171.6119750149232
 30
0.0
 11
102.5436526611497
 21
171.6015163257935
 31
0.0
  0
LINE
  5
26C8
330
2696
100
AcDbEntity
  8
0
 62
     0
 48
10.0
100
AcDbLine
 10
99.27756589964852
 20
173.3673678214365
 30
0.0
 11
99.39710926341954
 21
173.3569091323068
 31
0.0
  0
LINE
  5
26C9
330
2696
100
AcDbEntity
  8
0
 62
     0
 48
10.0
100
AcDbLine
 10
100.7120862649006
 20
173.2418635518799
 30
0.0
 11
100.72699073486
 21
173.2405595797226
 31
0.0
  0
LINE
  5
26CA
330
2696
100
AcDbEntity
  8
0
 62
     0
 48
10.0
100
AcDbLine
 10
100.72699073486
 20
173.2405595797225
 30
0.0
 11
100.8316296286716
 21
173.2314048627501
 31
0.0
  0
LINE
  5
26CB
330
2696
100
AcDbEntity
  8
0
 62
     0
 48
10.0
100
AcDbLine
 10
102.1466066301527
 20
173.1163592823232
 30
0.0
 11
102.2661499939237
 21
173.1059005931935
 31
0.0
  0
LINE
  5
26CC
330
2696
100
AcDbEntity
  8
0
 62
     0
 48
10.0
100
AcDbLine
 10
99.2305588705264
 20
165.970950753993
 30
0.0
 11
99.35010223429742
 21
165.9604920648633
 31
0.0
  0
LINE
  5
26CD
330
2696
100
AcDbEntity
  8
0
 62
     0
 48
10.0
100
AcDbLine
 10
100.6650792357785
 20
165.8454464844364
 30
0.0
 11
100.72699073486
 21
165.8400299301248
 31
0.0
  0
LINE
  5
26CE
330
2696
100
AcDbEntity
  8
0
 62
     0
 48
10.0
100
AcDbLine
 10
100.72699073486
 20
165.8400299301248
 30
0.0
 11
100.7846225995495
 21
165.8349877953066
 31
0.0
  0
LINE
  5
26CF
330
2696
100
AcDbEntity
  8
0
 62
     0
 48
10.0
100
AcDbLine
 10
102.0995996010306
 20
165.7199422148797
 30
0.0
 11
102.2191429648016
 21
165.70948352575
 31
0.0
  0
LINE
  5
26D0
330
2696
100
AcDbEntity
  8
0
 62
     0
 48
10.0
100
AcDbLine
 10
98.0735411725003
 20
164.5920707561496
 30
0.0
 11
98.19308453627131
 21
164.5816120670199
 31
0.0
  0
LINE
  5
26D1
330
2696
100
AcDbEntity
  8
0
 62
     0
 48
10.0
100
AcDbLine
 10
99.50806153775243
 20
164.466566486593
 30
0.0
 11
99.62760490152344
 21
164.4561077974633
 31
0.0
  0
LINE
  5
26D2
330
2696
100
AcDbEntity
  8
0
 62
     0
 48
10.0
100
AcDbLine
 10
100.9425819030045
 20
164.3410622170363
 30
0.0
 11
101.0621252667755
 21
164.3306035279066
 31
0.0
  0
LINE
  5
26D3
330
2696
100
AcDbEntity
  8
0
 62
     0
 48
10.0
100
AcDbLine
 10
102.3771022682566
 20
164.2155579474797
 30
0.0
 11
102.4966456320276
 21
164.20509925835
 31
0.0
  0
LINE
  5
26D4
330
2696
100
AcDbEntity
  8
0
 62
     0
 48
10.0
100
AcDbLine
 10
98.35104383972627
 20
163.0876864887496
 30
0.0
 11
98.47058720349728
 21
163.0772277996199
 31
0.0
  0
LINE
  5
26D5
330
2696
100
AcDbEntity
  8
0
 62
     0
 48
10.0
100
AcDbLine
 10
99.7855642049784
 20
162.962182219193
 30
0.0
 11
99.90510756874941
 21
162.9517235300633
 31
0.0
  0
LINE
  5
26D6
330
2696
100
AcDbEntity
  8
0
 62
     0
 48
10.0
100
AcDbLine
 10
101.2200845702305
 20
162.8366779496364
 30
0.0
 11
101.3396279340015
 21
162.8262192605066
 31
0.0
  0
LINE
  5
26D7
330
2696
100
AcDbEntity
  8
0
 62
     0
 48
10.0
100
AcDbLine
 10
102.6546049354826
 20
162.7111736800797
 30
0.0
 11
102.7741482992536
 21
162.70071499095
 31
0.0
  0
LINE
  5
26D8
330
2696
100
AcDbEntity
  8
0
 62
     0
 48
10.0
100
AcDbLine
 10
98.62854650695226
 20
161.5833022213496
 30
0.0
 11
98.74808987072327
 21
161.5728435322199
 31
0.0
  0
LINE
  5
26D9
330
2696
100
AcDbEntity
  8
0
 62
     0
 48
10.0
100
AcDbLine
 10
100.0630668722043
 20
161.457797951793
 30
0.0
 11
100.1826102359754
 21
161.4473392626632
 31
0.0
  0
LINE
  5
26DA
330
2696
100
AcDbEntity
  8
0
 62
     0
 48
10.0
100
AcDbLine
 10
101.6051892029216
 20
161.3871683790987
 30
0.0
 11
101.5941304023094
 21
161.4471200855588
 31
0.0
  0
LINE
  5
26DB
330
2696
100
AcDbEntity
  8
0
 62
     0
 48
10.0
100
AcDbLine
 10
101.3397540336111
 20
162.8261391963499
 30
0.0
 11
101.3166289099096
 21
162.9515045661246
 31
0.0
  0
LINE
  5
26DC
330
2696
100
AcDbEntity
  8
0
 62
     0
 48
10.0
100
AcDbLine
 10
101.0622525412112
 20
164.3305236769157
 30
0.0
 11
101.0391274175097
 21
164.4558890466903
 31
0.0
  0
LINE
  5
26DD
330
2696
100
AcDbEntity
  8
0
 62
     0
 48
10.0
100
AcDbLine
 10
100.7847510488113
 20
165.8349081574814
 30
0.0
 11
100.7616259251098
 21
165.9602735272561
 31
0.0
  0
LINE
  5
26DE
330
2696
100
AcDbEntity
  8
0
 62
     0
 48
10.0
100
AcDbLine
 10
100.5072495564115
 20
167.3392926380472
 30
0.0
 11
100.48412443271
 21
167.4646580078218
 31
0.0
  0
LINE
  5
26DF
330
2696
100
AcDbEntity
  8
0
 62
     0
 48
10.0
100
AcDbLine
 10
100.2297480640117
 20
168.8436771186129
 30
0.0
 11
100.2066229403101
 21
168.9690424883876
 31
0.0
  0
LINE
  5
26E0
330
2696
100
AcDbEntity
  8
0
 62
     0
 48
10.0
100
AcDbLine
 10
99.95224657161184
 20
170.3480615991787
 30
0.0
 11
99.92912144791032
 21
170.4734269689534
 31
0.0
  0
LINE
  5
26E1
330
2696
100
AcDbEntity
  8
0
 62
     0
 48
10.0
100
AcDbLine
 10
99.67474507921197
 20
171.8524460797445
 30
0.0
 11
99.65161995551046
 21
171.9778114495191
 31
0.0
  0
LINE
  5
26E2
330
2696
100
AcDbEntity
  8
0
 62
     0
 48
10.0
100
AcDbLine
 10
99.3972435868121
 20
173.3568305603102
 30
0.0
 11
99.39164741768202
 21
173.3871683790986
 31
0.0
  0
LINE
  5
26E3
330
2696
100
AcDbEntity
  8
0
 62
     0
 48
10.0
100
AcDbLine
 10
102.774274289439
 20
162.700633799906
 30
0.0
 11
102.7511491657375
 21
162.8259991696807
 31
0.0
  0
LINE
  5
26E4
330
2696
100
AcDbEntity
  8
0
 62
     0
 48
10.0
100
AcDbLine
 10
102.4967727970391
 20
164.2050182804718
 30
0.0
 11
102.4736476733376
 21
164.3303836502465
 31
0.0
  0
LINE
  5
26E5
330
2696
100
AcDbEntity
  8
0
 62
     0
 48
10.0
100
AcDbLine
 10
102.2192713046393
 20
165.7094027610376
 30
0.0
 11
102.1961461809377
 21
165.8347681308122
 31
0.0
  0
LINE
  5
26E6
330
2696
100
AcDbEntity
  8
0
 62
     0
 48
10.0
100
AcDbLine
 10
101.9417698122394
 20
167.2137872416033
 30
0.0
 11
101.9186446885379
 21
167.339152611378
 31
0.0
  0
LINE
  5
26E7
330
2696
100
AcDbEntity
  8
0
 62
     0
 48
10.0
100
AcDbLine
 10
101.6642683198395
 20
168.7181717221691
 30
0.0
 11
101.641143196138
 21
168.8435370919437
 31
0.0
  0
LINE
  5
26E8
330
2696
100
AcDbEntity
  8
0
 62
     0
 48
10.0
100
AcDbLine
 10
101.3867668274397
 20
170.2225562027348
 30
0.0
 11
101.3636417037382
 21
170.3479215725095
 31
0.0
  0
LINE
  5
26E9
330
2696
100
AcDbEntity
  8
0
 62
     0
 48
10.0
100
AcDbLine
 10
101.1092653350398
 20
171.7269406833006
 30
0.0
 11
101.0861402113383
 21
171.8523060530753
 31
0.0
  0
LINE
  5
26EA
330
2696
100
AcDbEntity
  8
0
 62
     0
 48
10.0
100
AcDbLine
 10
100.83176384264
 20
173.2313251638664
 30
0.0
 11
100.8086387189384
 21
173.356690533641
 31
0.0
  0
LINE
  5
26EB
330
2696
100
AcDbEntity
  8
0
 62
     0
 48
10.0
100
AcDbLine
 10
103.3715748000164
 20
167.1138441440004
 30
0.0
 11
103.3531649443658
 21
167.2136472149341
 31
0.0
  0
LINE
  5
26EC
330
2696
100
AcDbEntity
  8
0
 62
     0
 48
10.0
100
AcDbLine
 10
103.0987885756675
 20
168.5926663257253
 30
0.0
 11
103.075663451966
 21
168.7180316954999
 31
0.0
  0
LINE
  5
26ED
330
2696
100
AcDbEntity
  8
0
 62
     0
 48
10.0
100
AcDbLine
 10
102.8212870832676
 20
170.097050806291
 30
0.0
 11
102.7981619595661
 21
170.2224161760657
 31
0.0
  0
LINE
  5
26EE
330
2696
100
AcDbEntity
  8
0
 62
     0
 48
10.0
100
AcDbLine
 10
102.5437855908678
 20
171.6014352868568
 30
0.0
 11
102.5206604671662
 21
171.7268006566314
 31
0.0
  0
LINE
  5
26EF
330
2696
100
AcDbEntity
  8
0
 62
     0
 48
10.0
100
AcDbLine
 10
102.2662840984679
 20
173.1058197674225
 30
0.0
 11
102.2431589747664
 21
173.2311851371972
 31
0.0
  0
LINE
  5
26F0
330
2696
100
AcDbEntity
  8
0
 62
     0
 48
10.0
100
AcDbLine
 10
100.182735270183
 20
161.447260112228
 30
0.0
 11
100.1596101464815
 21
161.5726254820026
 31
0.0
  0
LINE
  5
26F1
330
2696
100
AcDbEntity
  8
0
 62
     0
 48
10.0
100
AcDbLine
 10
99.90523377778322
 20
162.9516445927938
 30
0.0
 11
99.8821086540817
 21
163.0770099625684
 31
0.0
  0
LINE
  5
26F2
330
2696
100
AcDbEntity
  8
0
 62
     0
 48
10.0
100
AcDbLine
 10
99.62773228538335
 20
164.4560290733595
 30
0.0
 11
99.60460716168183
 21
164.5813944431341
 31
0.0
  0
LINE
  5
26F3
330
2696
100
AcDbEntity
  8
0
 62
     0
 48
10.0
100
AcDbLine
 10
99.35023079298348
 20
165.9604135539253
 30
0.0
 11
99.32710566928196
 21
166.0857789236999
 31
0.0
  0
LINE
  5
26F4
330
2696
100
AcDbEntity
  8
0
 62
     0
 48
10.0
100
AcDbLine
 10
99.07272930058361
 20
167.464798034491
 30
0.0
 11
99.0496041768821
 21
167.5901634042657
 31
0.0
  0
LINE
  5
26F5
330
2696
100
AcDbEntity
  8
0
 62
     0
 48
10.0
100
AcDbLine
 10
98.79522780818376
 20
168.9691825150568
 30
0.0
 11
98.77210268448223
 21
169.0945478848314
 31
0.0
  0
LINE
  5
26F6
330
2696
100
AcDbEntity
  8
0
 62
     0
 48
10.0
100
AcDbLine
 10
98.5177263157839
 20
170.4735669956226
 30
0.0
 11
98.49460119208238
 21
170.5989323653972
 31
0.0
  0
LINE
  5
26F7
330
2696
100
AcDbEntity
  8
0
 62
     0
 48
10.0
100
AcDbLine
 10
98.74821501435516
 20
161.5727655086718
 30
0.0
 11
98.72508989065364
 21
161.6981308784465
 31
0.0
  0
LINE
  5
26F8
330
2696
100
AcDbEntity
  8
0
 62
     0
 48
10.0
100
AcDbLine
 10
98.47071352195529
 20
163.0771499892376
 30
0.0
 11
98.44758839825377
 21
163.2025153590122
 31
0.0
  0
LINE
  5
26F9
330
2696
100
AcDbEntity
  8
0
 62
     0
 48
10.0
100
AcDbLine
 10
98.19321202955542
 20
164.5815344698034
 30
0.0
 11
98.17008690585391
 21
164.706899839578
 31
0.0
  0
LINE
  5
26FA
330
2696
100
AcDbEntity
  8
0
 62
     0
 48
10.0
100
AcDbLine
 10
98.31834089388953
 20
164.2038888008513
 30
0.0
 11
98.47411788475195
 21
164.366241900969
 31
0.0
  0
LINE
  5
26FB
330
2696
100
AcDbEntity
  8
0
 62
     0
 48
10.0
100
AcDbLine
 10
100.1876647842385
 20
166.1521260022645
 30
0.0
 11
100.3434417751009
 21
166.3144791023823
 31
0.0
  0
LINE
  5
26FC
330
2696
100
AcDbEntity
  8
0
 62
     0
 48
10.0
100
AcDbLine
 10
102.0569886745875
 20
168.1003632036778
 30
0.0
 11
102.21276566545
 21
168.2627163037955
 31
0.0
  0
LINE
  5
26FD
330
2696
100
AcDbEntity
  8
0
 62
     0
 48
10.0
100
AcDbLine
 10
98.58349910079187
 20
161.92461357078
 30
0.0
 11
98.73927609165429
 21
162.0869666708978
 31
0.0
  0
LINE
  5
26FE
330
2696
100
AcDbEntity
  8
0
 62
     0
 48
10.0
100
AcDbLine
 10
100.4528229911408
 20
163.8728507721932
 30
0.0
 11
100.6085999820033
 21
164.035203872311
 31
0.0
  0
LINE
  5
26FF
330
2696
100
AcDbEntity
  8
0
 62
     0
 48
10.0
100
AcDbLine
 10
102.3221468814898
 20
165.8210879736065
 30
0.0
 11
102.4779238723522
 21
165.9834410737242
 31
0.0
  0
LINE
  5
2700
330
2696
100
AcDbEntity
  8
0
 62
     0
 48
10.0
100
AcDbLine
 10
100.7179811980431
 20
161.593575542122
 30
0.0
 11
100.72699073486
 21
161.6029654155863
 31
0.0
  0
LINE
  5
2701
330
2696
100
AcDbEntity
  8
0
 62
     0
 48
10.0
100
AcDbLine
 10
100.72699073486
 20
161.6029654155863
 30
0.0
 11
100.8737581889055
 21
161.7559286422397
 31
0.0
  0
LINE
  5
2702
330
2696
100
AcDbEntity
  8
0
 62
     0
 48
10.0
100
AcDbLine
 10
102.5873050883921
 20
163.5418127435352
 30
0.0
 11
102.7430820792545
 21
163.704165843653
 31
0.0
  0
LINE
  5
2703
330
2696
100
AcDbEntity
  8
0
 62
     0
 48
10.0
100
AcDbLine
 10
102.9720459900694
 20
161.3871683790986
 30
0.0
 11
103.0082402861568
 21
161.4248906135817
 31
0.0
  0
LINE
  5
2704
330
2696
100
AcDbEntity
  8
0
 62
     0
 48
10.0
100
AcDbLine
 10
98.05318268698727
 20
166.4831640309225
 30
0.0
 11
98.2089596778497
 21
166.6455171310403
 31
0.0
  0
LINE
  5
2705
330
2696
100
AcDbEntity
  8
0
 62
     0
 48
10.0
100
AcDbLine
 10
99.92250657733627
 20
168.4314012323358
 30
0.0
 11
100.0782835681987
 21
168.5937543324535
 31
0.0
  0
LINE
  5
2706
330
2696
100
AcDbEntity
  8
0
 62
     0
 48
10.0
100
AcDbLine
 10
101.7918304676852
 20
170.379638433749
 30
0.0
 11
101.9476074585477
 21
170.5419915338668
 31
0.0
  0
LINE
  5
2707
330
2696
100
AcDbEntity
  8
0
 62
     0
 48
10.0
100
AcDbLine
 10
99.65734837043399
 20
170.710676462407
 30
0.0
 11
99.81312536129641
 21
170.8730295625248
 31
0.0
  0
LINE
  5
2708
330
2696
100
AcDbEntity
  8
0
 62
     0
 48
10.0
100
AcDbLine
 10
101.526672260783
 20
172.6589136638203
 30
0.0
 11
101.6824492516454
 21
172.821266763938
 31
0.0
  0
LINE
  5
2709
330
2696
100
AcDbEntity
  8
0
 62
     0
 48
10.0
100
AcDbLine
 10
99.39219016353174
 20
172.9899516924783
 30
0.0
 11
99.54796715439416
 21
173.1523047925961
 31
0.0
  0
LINE
  5
270A
330
2696
100
AcDbEntity
  8
0
 62
     0
 48
10.0
100
AcDbLine
 10
100.8959813784587
 20
161.5659029505792
 30
0.0
 11
100.8738850095258
 21
161.7558425703686
 31
0.0
  0
LINE
  5
270B
330
2696
100
AcDbEntity
  8
0
 62
     0
 48
10.0
100
AcDbLine
 10
100.6308249900908
 20
163.8451780543032
 30
0.0
 11
100.6087286211579
 21
164.0351176740927
 31
0.0
  0
LINE
  5
270C
330
2696
100
AcDbEntity
  8
0
 62
     0
 48
10.0
100
AcDbLine
 10
100.3656686017229
 20
166.1244531580273
 30
0.0
 11
100.34357223279
 21
166.3143927778167
 31
0.0
  0
LINE
  5
270D
330
2696
100
AcDbEntity
  8
0
 62
     0
 48
10.0
100
AcDbLine
 10
100.100512213355
 20
168.4037282617513
 30
0.0
 11
100.0784158444222
 21
168.5936678815408
 31
0.0
  0
LINE
  5
270E
330
2696
100
AcDbEntity
  8
0
 62
     0
 48
10.0
100
AcDbLine
 10
99.83535582498717
 20
170.6830033654754
 30
0.0
 11
99.81325945605433
 21
170.8729429852648
 31
0.0
  0
LINE
  5
270F
330
2696
100
AcDbEntity
  8
0
 62
     0
 48
10.0
100
AcDbLine
 10
99.57019943661929
 20
172.9622784691994
 30
0.0
 11
99.54810306768644
 21
173.1522180889889
 31
0.0
  0
LINE
  5
2710
330
2696
100
AcDbEntity
  8
0
 62
     0
 48
10.0
100
AcDbLine
 10
103.0127450059934
 20
161.3871683790986
 30
0.0
 11
103.0083668089911
 21
161.4248032084455
 31
0.0
  0
LINE
  5
2711
330
2696
100
AcDbEntity
  8
0
 62
     0
 48
10.0
100
AcDbLine
 10
102.7653067895561
 20
163.5141386923801
 30
0.0
 11
102.7432104206232
 21
163.7040783121695
 31
0.0
  0
LINE
  5
2712
330
2696
100
AcDbEntity
  8
0
 62
     0
 48
10.0
100
AcDbLine
 10
102.5001504011882
 20
165.7934137961041
 30
0.0
 11
102.4780540322554
 21
165.9833534158936
 31
0.0
  0
LINE
  5
2713
330
2696
100
AcDbEntity
  8
0
 62
     0
 48
10.0
100
AcDbLine
 10
102.2349940128203
 20
168.0726888998282
 30
0.0
 11
102.2128976438875
 21
168.2626285196176
 31
0.0
  0
LINE
  5
2714
330
2696
100
AcDbEntity
  8
0
 62
     0
 48
10.0
100
AcDbLine
 10
101.9698376244524
 20
170.3519640035522
 30
0.0
 11
101.9477412555196
 21
170.5419036233417
 31
0.0
  0
LINE
  5
2715
330
2696
100
AcDbEntity
  8
0
 62
     0
 48
10.0
100
AcDbLine
 10
101.7046812360846
 20
172.6312391072763
 30
0.0
 11
101.6825848671517
 21
172.8211787270657
 31
0.0
  0
LINE
  5
2716
330
2696
100
AcDbEntity
  8
0
 62
     0
 48
10.0
100
AcDbLine
 10
98.76149957899343
 20
161.8969423125023
 30
0.0
 11
98.73940321006058
 21
162.0868819322918
 31
0.0
  0
LINE
  5
2717
330
2696
100
AcDbEntity
  8
0
 62
     0
 48
10.0
100
AcDbLine
 10
98.49634319062554
 20
164.1762174162264
 30
0.0
 11
98.47424682169268
 21
164.3661570360158
 31
0.0
  0
LINE
  5
2718
330
2696
100
AcDbEntity
  8
0
 62
     0
 48
10.0
100
AcDbLine
 10
98.23118680225766
 20
166.4554925199504
 30
0.0
 11
98.20909043332481
 21
166.6454321397399
 31
0.0
  0
LINE
  5
2719
330
2696
100
AcDbEntity
  8
0
 62
     0
 48
10.0
100
AcDbLine
 10
98.05318267745223
 20
166.4831640511927
 30
0.0
 11
98.23105618556622
 21
166.455577548855
 31
0.0
  0
LINE
  5
271A
330
2696
100
AcDbEntity
  8
0
 62
     0
 48
10.0
100
AcDbLine
 10
100.18766477482
 20
166.1521260231411
 30
0.0
 11
100.365538282934
 21
166.1245395208034
 31
0.0
  0
LINE
  5
271B
330
2696
100
AcDbEntity
  8
0
 62
     0
 48
10.0
100
AcDbLine
 10
102.3221468721878
 20
165.8210879950894
 30
0.0
 11
102.5000203803018
 21
165.7935014927518
 31
0.0
  0
LINE
  5
271C
330
2696
100
AcDbEntity
  8
0
 62
     0
 48
10.0
100
AcDbLine
 10
99.92250656771947
 20
168.4314012530433
 30
0.0
 11
100.1003800758334
 21
168.4038147507056
 31
0.0
  0
LINE
  5
271D
330
2696
100
AcDbEntity
  8
0
 62
     0
 48
10.0
100
AcDbLine
 10
102.0569886650873
 20
168.1003632249917
 30
0.0
 11
102.2348621732012
 21
168.072776722654
 31
0.0
  0
LINE
  5
271E
330
2696
100
AcDbEntity
  8
0
 62
     0
 48
10.0
100
AcDbLine
 10
99.65734836061891
 20
170.7106764829456
 30
0.0
 11
99.8352218687329
 21
170.683089980608
 31
0.0
  0
LINE
  5
271F
330
2696
100
AcDbEntity
  8
0
 62
     0
 48
10.0
100
AcDbLine
 10
101.7918304579867
 20
170.379638454894
 30
0.0
 11
101.9697039661007
 21
170.3520519525563
 31
0.0
  0
LINE
  5
2720
330
2696
100
AcDbEntity
  8
0
 62
     0
 48
10.0
100
AcDbLine
 10
99.39219015351834
 20
172.9899517128478
 30
0.0
 11
99.57006366163234
 21
172.9623652105101
 31
0.0
  0
LINE
  5
2721
330
2696
100
AcDbEntity
  8
0
 62
     0
 48
10.0
100
AcDbLine
 10
101.5266722508861
 20
172.6589136847962
 30
0.0
 11
101.7045457590001
 21
172.6313271824585
 31
0.0
  0
LINE
  5
2722
330
2696
100
AcDbEntity
  8
0
 62
     0
 48
10.0
100
AcDbLine
 10
98.31834088455275
 20
164.2038888212904
 30
0.0
 11
98.49621439266675
 21
164.1763023189528
 31
0.0
  0
LINE
  5
2723
330
2696
100
AcDbEntity
  8
0
 62
     0
 48
10.0
100
AcDbLine
 10
100.4528229819205
 20
163.8728507932388
 30
0.0
 11
100.6306964900345
 21
163.8452642909012
 31
0.0
  0
LINE
  5
2724
330
2696
100
AcDbEntity
  8
0
 62
     0
 48
10.0
100
AcDbLine
 10
102.5873050792883
 20
163.5418127651872
 30
0.0
 11
102.7651785874023
 21
163.5142262628496
 31
0.0
  0
LINE
  5
2725
330
2696
100
AcDbEntity
  8
0
 62
     0
 48
10.0
100
AcDbLine
 10
98.58349909165331
 20
161.9246135913881
 30
0.0
 11
98.76137259976729
 21
161.8970270890505
 31
0.0
  0
LINE
  5
2726
330
2696
100
AcDbEntity
  8
0
 62
     0
 48
10.0
100
AcDbLine
 10
100.7179811890211
 20
161.5935755633365
 30
0.0
 11
100.72699073486
 21
161.592178267809
 31
0.0
  0
LINE
  5
2727
330
2696
100
AcDbEntity
  8
0
 62
     0
 48
10.0
100
AcDbLine
 10
100.72699073486
 20
161.592178267809
 30
0.0
 11
100.8958546971351
 21
161.5659890609989
 31
0.0
  0
LINE
  5
2728
330
2696
100
AcDbEntity
  8
0
 62
     0
 48
10.0
100
AcDbLine
 10
98.08259527241595
 20
165.4871161079986
 30
0.0
 11
98.22263233639054
 21
165.5408713004304
 31
0.0
  0
LINE
  5
2729
330
2696
100
AcDbEntity
  8
0
 62
     0
 48
10.0
100
AcDbLine
 10
99.7630400401109
 20
166.1321784171802
 30
0.0
 11
99.90307710408549
 21
166.185933609612
 31
0.0
  0
LINE
  5
272A
330
2696
100
AcDbEntity
  8
0
 62
     0
 48
10.0
100
AcDbLine
 10
101.4434848078058
 20
166.7772407263617
 30
0.0
 11
101.5835218717804
 21
166.8309959187935
 31
0.0
  0
LINE
  5
272B
330
2696
100
AcDbEntity
  8
0
 62
     0
 48
10.0
100
AcDbLine
 10
103.1239295755008
 20
167.4223030355432
 30
0.0
 11
103.2639666394753
 21
167.476058227975
 31
0.0
  0
LINE
  5
272C
330
2696
100
AcDbEntity
  8
0
 62
     0
 48
10.0
100
AcDbLine
 10
99.27640937665287
 20
164.681878326668
 30
0.0
 11
99.41644644062744
 21
164.7356335190997
 31
0.0
  0
LINE
  5
272D
330
2696
100
AcDbEntity
  8
0
 62
     0
 48
10.0
100
AcDbLine
 10
100.9568541443478
 20
165.3269406358495
 30
0.0
 11
101.0968912083224
 21
165.3806958282813
 31
0.0
  0
LINE
  5
272E
330
2696
100
AcDbEntity
  8
0
 62
     0
 48
10.0
100
AcDbLine
 10
102.6372989120428
 20
165.972002945031
 30
0.0
 11
102.7773359760173
 21
166.0257581374628
 31
0.0
  0
LINE
  5
272F
330
2696
100
AcDbEntity
  8
0
 62
     0
 48
10.0
100
AcDbLine
 10
98.78977871319484
 20
163.2315782361557
 30
0.0
 11
98.92981577716941
 21
163.2853334285876
 31
0.0
  0
LINE
  5
2730
330
2696
100
AcDbEntity
  8
0
 62
     0
 48
10.0
100
AcDbLine
 10
100.4702234808897
 20
163.8766405453373
 30
0.0
 11
100.6102605448643
 21
163.9303957377691
 31
0.0
  0
LINE
  5
2731
330
2696
100
AcDbEntity
  8
0
 62
     0
 48
10.0
100
AcDbLine
 10
102.1506682485847
 20
164.5217028545188
 30
0.0
 11
102.2907053125593
 21
164.5754580469506
 31
0.0
  0
LINE
  5
2732
330
2696
100
AcDbEntity
  8
0
 62
     0
 48
10.0
100
AcDbLine
 10
98.3031480497368
 20
161.7812781456435
 30
0.0
 11
98.44318511371136
 21
161.8350333380753
 31
0.0
  0
LINE
  5
2733
330
2696
100
AcDbEntity
  8
0
 62
     0
 48
10.0
100
AcDbLine
 10
99.98359281743175
 20
162.426340454825
 30
0.0
 11
100.1236298814063
 21
162.4800956472568
 31
0.0
  0
LINE
  5
2734
330
2696
100
AcDbEntity
  8
0
 62
     0
 48
10.0
100
AcDbLine
 10
101.6640375851267
 20
163.0714027640066
 30
0.0
 11
101.8040746491013
 21
163.1251579564384
 31
0.0
  0
LINE
  5
2735
330
2696
100
AcDbEntity
  8
0
 62
     0
 48
10.0
100
AcDbLine
 10
103.3444823528216
 20
163.7164650731881
 30
0.0
 11
103.4845194167962
 21
163.77022026562
 31
0.0
  0
LINE
  5
2736
330
2696
100
AcDbEntity
  8
0
 62
     0
 48
10.0
100
AcDbLine
 10
101.1774069216686
 20
161.6211026734944
 30
0.0
 11
101.3174439856432
 21
161.6748578659262
 31
0.0
  0
LINE
  5
2737
330
2696
100
AcDbEntity
  8
0
 62
     0
 48
10.0
100
AcDbLine
 10
102.8578516893636
 20
162.2661649826759
 30
0.0
 11
102.9978887533382
 21
162.3199201751077
 31
0.0
  0
LINE
  5
2738
330
2696
100
AcDbEntity
  8
0
 62
     0
 48
10.0
100
AcDbLine
 10
98.56922593587398
 20
166.9374161985109
 30
0.0
 11
98.70926299984855
 21
166.9911713909427
 31
0.0
  0
LINE
  5
2739
330
2696
100
AcDbEntity
  8
0
 62
     0
 48
10.0
100
AcDbLine
 10
100.2496707035689
 20
167.5824785076924
 30
0.0
 11
100.3897077675435
 21
167.6362337001242
 31
0.0
  0
LINE
  5
273A
330
2696
100
AcDbEntity
  8
0
 62
     0
 48
10.0
100
AcDbLine
 10
101.9301154712639
 20
168.2275408168739
 30
0.0
 11
102.0701525352385
 21
168.2812960093057
 31
0.0
  0
LINE
  5
273B
330
2696
100
AcDbEntity
  8
0
 62
     0
 48
10.0
100
AcDbLine
 10
99.05585659933203
 20
168.3877162890231
 30
0.0
 11
99.19589366330662
 21
168.4414714814549
 31
0.0
  0
LINE
  5
273C
330
2696
100
AcDbEntity
  8
0
 62
     0
 48
10.0
100
AcDbLine
 10
100.736301367027
 20
169.0327785982046
 30
0.0
 11
100.8763384310015
 21
169.0865337906364
 31
0.0
  0
LINE
  5
273D
330
2696
100
AcDbEntity
  8
0
 62
     0
 48
10.0
100
AcDbLine
 10
102.4167461347219
 20
169.6778409073861
 30
0.0
 11
102.5567831986965
 21
169.7315960998179
 31
0.0
  0
LINE
  5
273E
330
2696
100
AcDbEntity
  8
0
 62
     0
 48
10.0
100
AcDbLine
 10
99.54248726279006
 20
169.8380163795353
 30
0.0
 11
99.68252432676464
 21
169.8917715719671
 31
0.0
  0
LINE
  5
273F
330
2696
100
AcDbEntity
  8
0
 62
     0
 48
10.0
100
AcDbLine
 10
101.222932030485
 20
170.4830786887168
 30
0.0
 11
101.3629690944596
 21
170.5368338811486
 31
0.0
  0
LINE
  5
2740
330
2696
100
AcDbEntity
  8
0
 62
     0
 48
10.0
100
AcDbLine
 10
102.90337679818
 20
171.1281409978983
 30
0.0
 11
102.9569911398281
 21
171.1487216154191
 31
0.0
  0
LINE
  5
2741
330
2696
100
AcDbEntity
  8
0
 62
     0
 48
10.0
100
AcDbLine
 10
98.4490110802127
 20
170.6817702803413
 30
0.0
 11
98.48871022252772
 21
170.6970093532978
 31
0.0
  0
LINE
  5
2742
330
2696
100
AcDbEntity
  8
0
 62
     0
 48
10.0
100
AcDbLine
 10
100.029117926248
 20
171.2883164700475
 30
0.0
 11
100.1691549902226
 21
171.3420716624793
 31
0.0
  0
LINE
  5
2743
330
2696
100
AcDbEntity
  8
0
 62
     0
 48
10.0
100
AcDbLine
 10
101.709562693943
 20
171.9333787792291
 30
0.0
 11
101.8495997579176
 21
171.9871339716609
 31
0.0
  0
LINE
  5
2744
330
2696
100
AcDbEntity
  8
0
 62
     0
 48
10.0
100
AcDbLine
 10
98.83530382201117
 20
172.0935542513782
 30
0.0
 11
98.97534088598575
 21
172.14730944381
 31
0.0
  0
LINE
  5
2745
330
2696
100
AcDbEntity
  8
0
 62
     0
 48
10.0
100
AcDbLine
 10
100.5157485897061
 20
172.7386165605597
 30
0.0
 11
100.6557856536806
 21
172.7923717529915
 31
0.0
  0
LINE
  5
2746
330
2696
100
AcDbEntity
  8
0
 62
     0
 48
10.0
100
AcDbLine
 10
102.1961933574011
 20
173.3836788697413
 30
0.0
 11
102.2052838400689
 21
173.3871683790986
 31
0.0
  0
LINE
  5
2747
330
2696
100
AcDbEntity
  8
0
 62
     0
 48
10.0
100
AcDbLine
 10
99.05585665719607
 20
168.3877162434308
 30
0.0
 11
99.15534116590269
 21
168.3206130950143
 31
0.0
  0
LINE
  5
2748
330
2696
100
AcDbEntity
  8
0
 62
     0
 48
10.0
100
AcDbLine
 10
100.2496707616753
 20
167.5824784624329
 30
0.0
 11
100.3491552703819
 21
167.5153753140165
 31
0.0
  0
LINE
  5
2749
330
2696
100
AcDbEntity
  8
0
 62
     0
 48
10.0
100
AcDbLine
 10
101.4434848661545
 20
166.7772406814351
 30
0.0
 11
101.5429693748612
 21
166.7101375330186
 31
0.0
  0
LINE
  5
274A
330
2696
100
AcDbEntity
  8
0
 62
     0
 48
10.0
100
AcDbLine
 10
102.6372989706338
 20
165.9720029004372
 30
0.0
 11
102.7367834793404
 21
165.9048997520207
 31
0.0
  0
LINE
  5
274B
330
2696
100
AcDbEntity
  8
0
 62
     0
 48
10.0
100
AcDbLine
 10
98.43880677060223
 20
170.5824582646676
 30
0.0
 11
98.44815772526658
 21
170.5761509661059
 31
0.0
  0
LINE
  5
274C
330
2696
100
AcDbEntity
  8
0
 62
     0
 48
10.0
100
AcDbLine
 10
99.54248732103922
 20
169.8380163335245
 30
0.0
 11
99.64197182974583
 21
169.7709131851081
 31
0.0
  0
LINE
  5
274D
330
2696
100
AcDbEntity
  8
0
 62
     0
 48
10.0
100
AcDbLine
 10
100.7363014255185
 20
169.0327785525267
 30
0.0
 11
100.8357859342251
 21
168.9656754041102
 31
0.0
  0
LINE
  5
274E
330
2696
100
AcDbEntity
  8
0
 62
     0
 48
10.0
100
AcDbLine
 10
101.9301155299977
 20
168.2275407715288
 30
0.0
 11
102.0296000387043
 21
168.1604376231123
 31
0.0
  0
LINE
  5
274F
330
2696
100
AcDbEntity
  8
0
 62
     0
 48
10.0
100
AcDbLine
 10
103.123929634477
 20
167.4223029905309
 30
0.0
 11
103.2234141431836
 21
167.3551998421144
 31
0.0
  0
LINE
  5
2750
330
2696
100
AcDbEntity
  8
0
 62
     0
 48
10.0
100
AcDbLine
 10
98.83530388040313
 20
172.0935542046161
 30
0.0
 11
98.93478838910974
 21
172.0264510561996
 31
0.0
  0
LINE
  5
2751
330
2696
100
AcDbEntity
  8
0
 62
     0
 48
10.0
100
AcDbLine
 10
100.0291179848823
 20
171.2883164236182
 30
0.0
 11
100.1286024935889
 21
171.2212132752017
 31
0.0
  0
LINE
  5
2752
330
2696
100
AcDbEntity
  8
0
 62
     0
 48
10.0
100
AcDbLine
 10
101.2229320893616
 20
170.4830786426204
 30
0.0
 11
101.3224165980682
 21
170.4159754942039
 31
0.0
  0
LINE
  5
2753
330
2696
100
AcDbEntity
  8
0
 62
     0
 48
10.0
100
AcDbLine
 10
102.4167461938409
 20
169.6778408616225
 30
0.0
 11
102.5162307025475
 21
169.610737713206
 31
0.0
  0
LINE
  5
2754
330
2696
100
AcDbEntity
  8
0
 62
     0
 48
10.0
100
AcDbLine
 10
100.5157486487255
 20
172.738616513712
 30
0.0
 11
100.6152331574321
 21
172.6715133652955
 31
0.0
  0
LINE
  5
2755
330
2696
100
AcDbEntity
  8
0
 62
     0
 48
10.0
100
AcDbLine
 10
101.7095627532048
 20
171.9333787327141
 30
0.0
 11
101.8090472619114
 21
171.8662755842976
 31
0.0
  0
LINE
  5
2756
330
2696
100
AcDbEntity
  8
0
 62
     0
 48
10.0
100
AcDbLine
 10
102.903376857684
 20
171.1281409517162
 30
0.0
 11
102.9632557549114
 21
171.0877521255573
 31
0.0
  0
LINE
  5
2757
330
2696
100
AcDbEntity
  8
0
 62
     0
 48
10.0
100
AcDbLine
 10
102.1961934170479
 20
173.3836788228078
 30
0.0
 11
102.2956779257546
 21
173.3165756743913
 31
0.0
  0
LINE
  5
2758
330
2696
100
AcDbEntity
  8
0
 62
     0
 48
10.0
100
AcDbLine
 10
98.56922599335291
 20
166.9374161533372
 30
0.0
 11
98.66871050205952
 21
166.8703130049207
 31
0.0
  0
LINE
  5
2759
330
2696
100
AcDbEntity
  8
0
 62
     0
 48
10.0
100
AcDbLine
 10
99.76304009783218
 20
166.1321783723393
 30
0.0
 11
99.86252460653879
 21
166.0650752239228
 31
0.0
  0
LINE
  5
275A
330
2696
100
AcDbEntity
  8
0
 62
     0
 48
10.0
100
AcDbLine
 10
100.9568542023114
 20
165.3269405913414
 30
0.0
 11
101.056338711018
 21
165.259837442925
 31
0.0
  0
LINE
  5
275B
330
2696
100
AcDbEntity
  8
0
 62
     0
 48
10.0
100
AcDbLine
 10
102.1506683067906
 20
164.5217028103436
 30
0.0
 11
102.2501528154972
 21
164.4545996619271
 31
0.0
  0
LINE
  5
275C
330
2696
100
AcDbEntity
  8
0
 62
     0
 48
10.0
100
AcDbLine
 10
103.3444824112699
 20
163.7164650293457
 30
0.0
 11
103.4439669199765
 21
163.6493618809292
 31
0.0
  0
LINE
  5
275D
330
2696
100
AcDbEntity
  8
0
 62
     0
 48
10.0
100
AcDbLine
 10
98.08259532950975
 20
165.4871160632434
 30
0.0
 11
98.18207983821636
 21
165.4200129148269
 31
0.0
  0
LINE
  5
275E
330
2696
100
AcDbEntity
  8
0
 62
     0
 48
10.0
100
AcDbLine
 10
99.276409433989
 20
164.6818782822455
 30
0.0
 11
99.37589394269561
 21
164.614775133829
 31
0.0
  0
LINE
  5
275F
330
2696
100
AcDbEntity
  8
0
 62
     0
 48
10.0
100
AcDbLine
 10
100.4702235384682
 20
163.8766405012477
 30
0.0
 11
100.5697080471748
 21
163.8095373528312
 31
0.0
  0
LINE
  5
2760
330
2696
100
AcDbEntity
  8
0
 62
     0
 48
10.0
100
AcDbLine
 10
101.6640376429475
 20
163.0714027202498
 30
0.0
 11
101.7635221516541
 21
163.0042995718333
 31
0.0
  0
LINE
  5
2761
330
2696
100
AcDbEntity
  8
0
 62
     0
 48
10.0
100
AcDbLine
 10
102.8578517474267
 20
162.2661649392519
 30
0.0
 11
102.9573362561334
 21
162.1990617908354
 31
0.0
  0
LINE
  5
2762
330
2696
100
AcDbEntity
  8
0
 62
     0
 48
10.0
100
AcDbLine
 10
98.78977877014586
 20
163.2315781921519
 30
0.0
 11
98.88926327885247
 21
163.1644750437354
 31
0.0
  0
LINE
  5
2763
330
2696
100
AcDbEntity
  8
0
 62
     0
 48
10.0
100
AcDbLine
 10
99.98359287462513
 20
162.426340411154
 30
0.0
 11
100.0830773833317
 21
162.3592372627375
 31
0.0
  0
LINE
  5
2764
330
2696
100
AcDbEntity
  8
0
 62
     0
 48
10.0
100
AcDbLine
 10
101.1774069791043
 20
161.6211026301561
 30
0.0
 11
101.2768914878109
 21
161.5539994817396
 31
0.0
  0
LINE
  5
2765
330
2696
100
AcDbEntity
  8
0
 62
     0
 48
10.0
100
AcDbLine
 10
98.3031481063027
 20
161.7812781020582
 30
0.0
 11
98.40263261500929
 21
161.7141749536417
 31
0.0
  0
LINE
  5
2766
330
2696
100
AcDbEntity
  8
0
 62
     0
 48
10.0
100
AcDbLine
 10
98.40275806286673
 20
161.714097873231
 30
0.0
 11
98.44331071125983
 21
161.8349561786685
 31
0.0
  0
LINE
  5
2767
330
2696
100
AcDbEntity
  8
0
 62
     0
 48
10.0
100
AcDbLine
 10
98.88938985758079
 20
163.1643975801966
 30
0.0
 11
98.92994250597389
 21
163.2852558856342
 31
0.0
  0
LINE
  5
2768
330
2696
100
AcDbEntity
  8
0
 62
     0
 48
10.0
100
AcDbLine
 10
99.37602165229485
 20
164.6146972871622
 30
0.0
 11
99.41657430068794
 21
164.7355555925998
 31
0.0
  0
LINE
  5
2769
330
2696
100
AcDbEntity
  8
0
 62
     0
 48
10.0
100
AcDbLine
 10
99.86265344700889
 20
166.0649969941279
 30
0.0
 11
99.903206095402
 21
166.1858552995655
 31
0.0
  0
LINE
  5
276A
330
2696
100
AcDbEntity
  8
0
 62
     0
 48
10.0
100
AcDbLine
 10
100.3492852417229
 20
167.5152967010935
 30
0.0
 11
100.389837890116
 21
167.6361550065311
 31
0.0
  0
LINE
  5
276B
330
2696
100
AcDbEntity
  8
0
 62
     0
 48
10.0
100
AcDbLine
 10
100.8359170364369
 20
168.9655964080593
 30
0.0
 11
100.87646968483
 21
169.0864547134968
 31
0.0
  0
LINE
  5
276C
330
2696
100
AcDbEntity
  8
0
 62
     0
 48
10.0
100
AcDbLine
 10
101.322548831151
 20
170.4158961150249
 30
0.0
 11
101.3631014795441
 21
170.5367544204625
 31
0.0
  0
LINE
  5
276D
330
2696
100
AcDbEntity
  8
0
 62
     0
 48
10.0
100
AcDbLine
 10
101.8091806258651
 20
171.8661958219905
 30
0.0
 11
101.8497332742581
 21
171.9870541274281
 31
0.0
  0
LINE
  5
276E
330
2696
100
AcDbEntity
  8
0
 62
     0
 48
10.0
100
AcDbLine
 10
102.2958124205791
 20
173.3164955289562
 30
0.0
 11
102.3195259025147
 21
173.3871683790986
 31
0.0
  0
LINE
  5
276F
330
2696
100
AcDbEntity
  8
0
 62
     0
 48
10.0
100
AcDbLine
 10
100.0832033200296
 20
162.3591588666509
 30
0.0
 11
100.1237559684227
 21
162.4800171720885
 31
0.0
  0
LINE
  5
2770
330
2696
100
AcDbEntity
  8
0
 62
     0
 48
10.0
100
AcDbLine
 10
100.5698351147437
 20
163.8094585736165
 30
0.0
 11
100.6103877631368
 21
163.9303168790541
 31
0.0
  0
LINE
  5
2771
330
2696
100
AcDbEntity
  8
0
 62
     0
 48
10.0
100
AcDbLine
 10
101.0564669094578
 20
165.2597582805822
 30
0.0
 11
101.0970195578509
 21
165.3806165860198
 31
0.0
  0
LINE
  5
2772
330
2696
100
AcDbEntity
  8
0
 62
     0
 48
10.0
100
AcDbLine
 10
101.5430987041718
 20
166.7100579875478
 30
0.0
 11
101.5836513525649
 21
166.8309162929854
 31
0.0
  0
LINE
  5
2773
330
2696
100
AcDbEntity
  8
0
 62
     0
 48
10.0
100
AcDbLine
 10
102.0297304988859
 20
168.1603576945135
 30
0.0
 11
102.070283147279
 21
168.2812159999511
 31
0.0
  0
LINE
  5
2774
330
2696
100
AcDbEntity
  8
0
 62
     0
 48
10.0
100
AcDbLine
 10
102.5163622935999
 20
169.6106574014791
 30
0.0
 11
102.556914941993
 21
169.7315157069167
 31
0.0
  0
LINE
  5
2775
330
2696
100
AcDbEntity
  8
0
 62
     0
 48
10.0
100
AcDbLine
 10
101.2770167824786
 20
161.5539201531051
 30
0.0
 11
101.3175694308717
 21
161.6747784585427
 31
0.0
  0
LINE
  5
2776
330
2696
100
AcDbEntity
  8
0
 62
     0
 48
10.0
100
AcDbLine
 10
101.7636485771926
 20
163.0042198600708
 30
0.0
 11
101.8042012255857
 21
163.1250781655084
 31
0.0
  0
LINE
  5
2777
330
2696
100
AcDbEntity
  8
0
 62
     0
 48
10.0
100
AcDbLine
 10
102.2502803719067
 20
164.4545195670364
 30
0.0
 11
102.2908330202998
 21
164.575377872474
 31
0.0
  0
LINE
  5
2778
330
2696
100
AcDbEntity
  8
0
 62
     0
 48
10.0
100
AcDbLine
 10
102.7369121666207
 20
165.904819274002
 30
0.0
 11
102.7774648150139
 21
166.0256775794396
 31
0.0
  0
LINE
  5
2779
330
2696
100
AcDbEntity
  8
0
 62
     0
 48
10.0
100
AcDbLine
 10
103.2235439613348
 20
167.3551189809677
 30
0.0
 11
103.2640966097279
 21
167.4759772864053
 31
0.0
  0
LINE
  5
277A
330
2696
100
AcDbEntity
  8
0
 62
     0
 48
10.0
100
AcDbLine
 10
102.9574620396416
 20
162.198981146525
 30
0.0
 11
102.9980146880347
 21
162.3198394519626
 31
0.0
  0
LINE
  5
277B
330
2696
100
AcDbEntity
  8
0
 62
     0
 48
10.0
100
AcDbLine
 10
103.4440938343556
 20
163.6492808534907
 30
0.0
 11
103.4846464827487
 21
163.7701391589282
 31
0.0
  0
LINE
  5
277C
330
2696
100
AcDbEntity
  8
0
 62
     0
 48
10.0
100
AcDbLine
 10
98.18220818984592
 20
165.419936000708
 30
0.0
 11
98.22276083823901
 21
165.5407943061456
 31
0.0
  0
LINE
  5
277D
330
2696
100
AcDbEntity
  8
0
 62
     0
 48
10.0
100
AcDbLine
 10
98.66883998455996
 20
166.8702357076736
 30
0.0
 11
98.70939263295307
 21
166.9910940131112
 31
0.0
  0
LINE
  5
277E
330
2696
100
AcDbEntity
  8
0
 62
     0
 48
10.0
100
AcDbLine
 10
99.15547177927402
 20
168.3205354146393
 30
0.0
 11
99.19602442766713
 21
168.4413937200769
 31
0.0
  0
LINE
  5
277F
330
2696
100
AcDbEntity
  8
0
 62
     0
 48
10.0
100
AcDbLine
 10
99.64210357398808
 20
169.7708351216049
 30
0.0
 11
99.68265622238119
 21
169.8916934270425
 31
0.0
  0
LINE
  5
2780
330
2696
100
AcDbEntity
  8
0
 62
     0
 48
10.0
100
AcDbLine
 10
100.1287353687021
 20
171.2211348285705
 30
0.0
 11
100.1692880170952
 21
171.3419931340081
 31
0.0
  0
LINE
  5
2781
330
2696
100
AcDbEntity
  8
0
 62
     0
 48
10.0
100
AcDbLine
 10
100.6153671634161
 20
172.6714345355362
 30
0.0
 11
100.6559198118093
 21
172.7922928409738
 31
0.0
  0
LINE
  5
2782
330
2696
100
AcDbEntity
  8
0
 62
     0
 48
10.0
100
AcDbLine
 10
98.44829011153915
 20
170.5760738351507
 30
0.0
 11
98.48884275993226
 21
170.6969321405883
 31
0.0
  0
LINE
  5
2783
330
2696
100
AcDbEntity
  8
0
 62
     0
 48
10.0
100
AcDbLine
 10
98.93492190625321
 20
172.0263735421164
 30
0.0
 11
98.97547455464632
 21
172.147231847554
 31
0.0
  0
LINE
  5
2784
330
2696
100
AcDbEntity
  8
0
 62
     0
 48
10.0
100
AcDbLine
 10
98.87955476242396
 20
165.8235396206003
 30
0.0
 11
98.87955476242396
 21
165.8235396206003
 31
0.0
  0
LINE
  5
2785
330
2696
100
AcDbEntity
  8
0
 62
     0
 48
10.0
100
AcDbLine
 10
99.94264823841421
 20
166.639279935472
 30
0.0
 11
99.94264823841421
 21
166.639279935472
 31
0.0
  0
LINE
  5
2786
330
2696
100
AcDbEntity
  8
0
 62
     0
 48
10.0
100
AcDbLine
 10
100.9938414143001
 20
167.4458888289085
 30
0.0
 11
100.9938414143001
 21
167.4458888289085
 31
0.0
  0
LINE
  5
2787
330
2696
100
AcDbEntity
  8
0
 62
     0
 48
10.0
100
AcDbLine
 10
102.0283741700398
 20
168.2397137323359
 30
0.0
 11
102.0283741700398
 21
168.2397137323359
 31
0.0
  0
LINE
  5
2788
330
2696
100
AcDbEntity
  8
0
 62
     0
 48
10.0
100
AcDbLine
 10
103.0914676460301
 20
169.0554540472076
 30
0.0
 11
103.0914676460301
 21
169.0554540472076
 31
0.0
  0
LINE
  5
2789
330
2696
100
AcDbEntity
  8
0
 62
     0
 48
10.0
100
AcDbLine
 10
98.90387447305849
 20
166.4893273282629
 30
0.0
 11
98.90387447305849
 21
166.4893273282629
 31
0.0
  0
LINE
  5
278A
330
2696
100
AcDbEntity
  8
0
 62
     0
 48
10.0
100
AcDbLine
 10
99.96696794904876
 20
167.3050676431346
 30
0.0
 11
99.96696794904876
 21
167.3050676431346
 31
0.0
  0
LINE
  5
278B
330
2696
100
AcDbEntity
  8
0
 62
     0
 48
10.0
100
AcDbLine
 10
101.0181611249346
 20
168.1116765365712
 30
0.0
 11
101.0181611249346
 21
168.1116765365712
 31
0.0
  0
LINE
  5
278C
330
2696
100
AcDbEntity
  8
0
 62
     0
 48
10.0
100
AcDbLine
 10
102.0526938806744
 20
168.9055014399986
 30
0.0
 11
102.0526938806744
 21
168.9055014399986
 31
0.0
  0
LINE
  5
278D
330
2696
100
AcDbEntity
  8
0
 62
     0
 48
10.0
100
AcDbLine
 10
98.92819418369311
 20
167.1551150359256
 30
0.0
 11
98.92819418369311
 21
167.1551150359256
 31
0.0
  0
LINE
  5
278E
330
2696
100
AcDbEntity
  8
0
 62
     0
 48
10.0
100
AcDbLine
 10
99.99128765968336
 20
167.9708553507972
 30
0.0
 11
99.99128765968336
 21
167.9708553507972
 31
0.0
  0
LINE
  5
278F
330
2696
100
AcDbEntity
  8
0
 62
     0
 48
10.0
100
AcDbLine
 10
101.0424808355692
 20
168.7774642442338
 30
0.0
 11
101.0424808355692
 21
168.7774642442338
 31
0.0
  0
LINE
  5
2790
330
2696
100
AcDbEntity
  8
0
 62
     0
 48
10.0
100
AcDbLine
 10
102.077013591309
 20
169.5712891476611
 30
0.0
 11
102.077013591309
 21
169.5712891476611
 31
0.0
  0
LINE
  5
2791
330
2696
100
AcDbEntity
  8
0
 62
     0
 48
10.0
100
AcDbLine
 10
98.95251389432766
 20
167.8209027435882
 30
0.0
 11
98.95251389432766
 21
167.8209027435882
 31
0.0
  0
LINE
  5
2792
330
2696
100
AcDbEntity
  8
0
 62
     0
 48
10.0
100
AcDbLine
 10
100.0156073703179
 20
168.6366430584598
 30
0.0
 11
100.0156073703179
 21
168.6366430584598
 31
0.0
  0
LINE
  5
2793
330
2696
100
AcDbEntity
  8
0
 62
     0
 48
10.0
100
AcDbLine
 10
101.0668005462038
 20
169.4432519518964
 30
0.0
 11
101.0668005462038
 21
169.4432519518964
 31
0.0
  0
LINE
  5
2794
330
2696
100
AcDbEntity
  8
0
 62
     0
 48
10.0
100
AcDbLine
 10
102.1013333019435
 20
170.2370768553238
 30
0.0
 11
102.1013333019435
 21
170.2370768553238
 31
0.0
  0
LINE
  5
2795
330
2696
100
AcDbEntity
  8
0
 62
     0
 48
10.0
100
AcDbLine
 10
98.97683360496225
 20
168.4866904512508
 30
0.0
 11
98.97683360496225
 21
168.4866904512508
 31
0.0
  0
LINE
  5
2796
330
2696
100
AcDbEntity
  8
0
 62
     0
 48
10.0
100
AcDbLine
 10
100.0399270809525
 20
169.3024307661225
 30
0.0
 11
100.0399270809525
 21
169.3024307661225
 31
0.0
  0
LINE
  5
2797
330
2696
100
AcDbEntity
  8
0
 62
     0
 48
10.0
100
AcDbLine
 10
101.0911202568383
 20
170.109039659559
 30
0.0
 11
101.0911202568383
 21
170.109039659559
 31
0.0
  0
LINE
  5
2798
330
2696
100
AcDbEntity
  8
0
 62
     0
 48
10.0
100
AcDbLine
 10
102.1256530125781
 20
170.9028645629864
 30
0.0
 11
102.1256530125781
 21
170.9028645629864
 31
0.0
  0
LINE
  5
2799
330
2696
100
AcDbEntity
  8
0
 62
     0
 48
10.0
100
AcDbLine
 10
99.00115331559684
 20
169.1524781589134
 30
0.0
 11
99.00115331559684
 21
169.1524781589134
 31
0.0
  0
LINE
  5
279A
330
2696
100
AcDbEntity
  8
0
 62
     0
 48
10.0
100
AcDbLine
 10
100.064246791587
 20
169.9682184737851
 30
0.0
 11
100.064246791587
 21
169.9682184737851
 31
0.0
  0
LINE
  5
279B
330
2696
100
AcDbEntity
  8
0
 62
     0
 48
10.0
100
AcDbLine
 10
101.1154399674729
 20
170.7748273672217
 30
0.0
 11
101.1154399674729
 21
170.7748273672217
 31
0.0
  0
LINE
  5
279C
330
2696
100
AcDbEntity
  8
0
 62
     0
 48
10.0
100
AcDbLine
 10
102.1499727232127
 20
171.5686522706491
 30
0.0
 11
102.1499727232127
 21
171.5686522706491
 31
0.0
  0
LINE
  5
279D
330
2696
100
AcDbEntity
  8
0
 62
     0
 48
10.0
100
AcDbLine
 10
99.0254730262314
 20
169.818265866576
 30
0.0
 11
99.0254730262314
 21
169.818265866576
 31
0.0
  0
LINE
  5
279E
330
2696
100
AcDbEntity
  8
0
 62
     0
 48
10.0
100
AcDbLine
 10
100.0885665022216
 20
170.6340061814477
 30
0.0
 11
100.0885665022216
 21
170.6340061814477
 31
0.0
  0
LINE
  5
279F
330
2696
100
AcDbEntity
  8
0
 62
     0
 48
10.0
100
AcDbLine
 10
101.1397596781075
 20
171.4406150748843
 30
0.0
 11
101.1397596781075
 21
171.4406150748843
 31
0.0
  0
LINE
  5
27A0
330
2696
100
AcDbEntity
  8
0
 62
     0
 48
10.0
100
AcDbLine
 10
102.1742924338473
 20
172.2344399783117
 30
0.0
 11
102.1742924338473
 21
172.2344399783117
 31
0.0
  0
LINE
  5
27A1
330
2696
100
AcDbEntity
  8
0
 62
     0
 48
10.0
100
AcDbLine
 10
99.04979273686599
 20
170.4840535742386
 30
0.0
 11
99.04979273686599
 21
170.4840535742386
 31
0.0
  0
LINE
  5
27A2
330
2696
100
AcDbEntity
  8
0
 62
     0
 48
10.0
100
AcDbLine
 10
100.1128862128562
 20
171.2997938891103
 30
0.0
 11
100.1128862128562
 21
171.2997938891103
 31
0.0
  0
LINE
  5
27A3
330
2696
100
AcDbEntity
  8
0
 62
     0
 48
10.0
100
AcDbLine
 10
101.1640793887421
 20
172.1064027825469
 30
0.0
 11
101.1640793887421
 21
172.1064027825469
 31
0.0
  0
LINE
  5
27A4
330
2696
100
AcDbEntity
  8
0
 62
     0
 48
10.0
100
AcDbLine
 10
102.1986121444819
 20
172.9002276859743
 30
0.0
 11
102.1986121444819
 21
172.9002276859743
 31
0.0
  0
LINE
  5
27A5
330
2696
100
AcDbEntity
  8
0
 62
     0
 48
10.0
100
AcDbLine
 10
99.07411244750058
 20
171.1498412819013
 30
0.0
 11
99.07411244750058
 21
171.1498412819013
 31
0.0
  0
LINE
  5
27A6
330
2696
100
AcDbEntity
  8
0
 62
     0
 48
10.0
100
AcDbLine
 10
100.1372059234908
 20
171.965581596773
 30
0.0
 11
100.1372059234908
 21
171.965581596773
 31
0.0
  0
LINE
  5
27A7
330
2696
100
AcDbEntity
  8
0
 62
     0
 48
10.0
100
AcDbLine
 10
101.1883990993767
 20
172.7721904902095
 30
0.0
 11
101.1883990993767
 21
172.7721904902095
 31
0.0
  0
LINE
  5
27A8
330
2696
100
AcDbEntity
  8
0
 62
     0
 48
10.0
100
AcDbLine
 10
99.09843215813518
 20
171.8156289895639
 30
0.0
 11
99.09843215813518
 21
171.8156289895639
 31
0.0
  0
LINE
  5
27A9
330
2696
100
AcDbEntity
  8
0
 62
     0
 48
10.0
100
AcDbLine
 10
100.1615256341254
 20
172.6313693044356
 30
0.0
 11
100.1615256341254
 21
172.6313693044356
 31
0.0
  0
LINE
  5
27AA
330
2696
100
AcDbEntity
  8
0
 62
     0
 48
10.0
100
AcDbLine
 10
99.12275186876975
 20
172.4814166972265
 30
0.0
 11
99.12275186876975
 21
172.4814166972265
 31
0.0
  0
LINE
  5
27AB
330
2696
100
AcDbEntity
  8
0
 62
     0
 48
10.0
100
AcDbLine
 10
100.18584534476
 20
173.2971570120982
 30
0.0
 11
100.18584534476
 21
173.2971570120982
 31
0.0
  0
LINE
  5
27AC
330
2696
100
AcDbEntity
  8
0
 62
     0
 48
10.0
100
AcDbLine
 10
99.14707157940434
 20
173.1472044048891
 30
0.0
 11
99.14707157940434
 21
173.1472044048891
 31
0.0
  0
LINE
  5
27AD
330
2696
100
AcDbEntity
  8
0
 62
     0
 48
10.0
100
AcDbLine
 10
97.82070229604959
 20
164.3639270095103
 30
0.0
 11
97.82070229604959
 21
164.3639270095103
 31
0.0
  0
LINE
  5
27AE
330
2696
100
AcDbEntity
  8
0
 62
     0
 48
10.0
100
AcDbLine
 10
98.85523505178937
 20
165.1577519129377
 30
0.0
 11
98.85523505178937
 21
165.1577519129377
 31
0.0
  0
LINE
  5
27AF
330
2696
100
AcDbEntity
  8
0
 62
     0
 48
10.0
100
AcDbLine
 10
99.91832852777962
 20
165.9734922278094
 30
0.0
 11
99.91832852777962
 21
165.9734922278094
 31
0.0
  0
LINE
  5
27B0
330
2696
100
AcDbEntity
  8
0
 62
     0
 48
10.0
100
AcDbLine
 10
100.9695217036654
 20
166.7801011212459
 30
0.0
 11
100.9695217036654
 21
166.7801011212459
 31
0.0
  0
LINE
  5
27B1
330
2696
100
AcDbEntity
  8
0
 62
     0
 48
10.0
100
AcDbLine
 10
102.0040544594052
 20
167.5739260246733
 30
0.0
 11
102.0040544594052
 21
167.5739260246733
 31
0.0
  0
LINE
  5
27B2
330
2696
100
AcDbEntity
  8
0
 62
     0
 48
10.0
100
AcDbLine
 10
103.0671479353955
 20
168.389666339545
 30
0.0
 11
103.0671479353955
 21
168.389666339545
 31
0.0
  0
LINE
  5
27B3
330
2696
100
AcDbEntity
  8
0
 62
     0
 48
10.0
100
AcDbLine
 10
97.79638258541503
 20
163.6981393018477
 30
0.0
 11
97.79638258541503
 21
163.6981393018477
 31
0.0
  0
LINE
  5
27B4
330
2696
100
AcDbEntity
  8
0
 62
     0
 48
10.0
100
AcDbLine
 10
98.83091534115481
 20
164.4919642052751
 30
0.0
 11
98.83091534115481
 21
164.4919642052751
 31
0.0
  0
LINE
  5
27B5
330
2696
100
AcDbEntity
  8
0
 62
     0
 48
10.0
100
AcDbLine
 10
99.89400881714507
 20
165.3077045201467
 30
0.0
 11
99.89400881714507
 21
165.3077045201467
 31
0.0
  0
LINE
  5
27B6
330
2696
100
AcDbEntity
  8
0
 62
     0
 48
10.0
100
AcDbLine
 10
100.9452019930308
 20
166.1143134135833
 30
0.0
 11
100.9452019930308
 21
166.1143134135833
 31
0.0
  0
LINE
  5
27B7
330
2696
100
AcDbEntity
  8
0
 62
     0
 48
10.0
100
AcDbLine
 10
101.9797347487706
 20
166.9081383170107
 30
0.0
 11
101.9797347487706
 21
166.9081383170107
 31
0.0
  0
LINE
  5
27B8
330
2696
100
AcDbEntity
  8
0
 62
     0
 48
10.0
100
AcDbLine
 10
103.0428282247609
 20
167.7238786318824
 30
0.0
 11
103.0428282247609
 21
167.7238786318824
 31
0.0
  0
LINE
  5
27B9
330
2696
100
AcDbEntity
  8
0
 62
     0
 48
10.0
100
AcDbLine
 10
97.77206287478044
 20
163.0323515941851
 30
0.0
 11
97.77206287478044
 21
163.0323515941851
 31
0.0
  0
LINE
  5
27BA
330
2696
100
AcDbEntity
  8
0
 62
     0
 48
10.0
100
AcDbLine
 10
98.80659563052022
 20
163.8261764976125
 30
0.0
 11
98.80659563052022
 21
163.8261764976125
 31
0.0
  0
LINE
  5
27BB
330
2696
100
AcDbEntity
  8
0
 62
     0
 48
10.0
100
AcDbLine
 10
99.86968910651048
 20
164.6419168124841
 30
0.0
 11
99.86968910651048
 21
164.6419168124841
 31
0.0
  0
LINE
  5
27BC
330
2696
100
AcDbEntity
  8
0
 62
     0
 48
10.0
100
AcDbLine
 10
100.9208822823963
 20
165.4485257059207
 30
0.0
 11
100.9208822823963
 21
165.4485257059207
 31
0.0
  0
LINE
  5
27BD
330
2696
100
AcDbEntity
  8
0
 62
     0
 48
10.0
100
AcDbLine
 10
101.9554150381361
 20
166.2423506093481
 30
0.0
 11
101.9554150381361
 21
166.2423506093481
 31
0.0
  0
LINE
  5
27BE
330
2696
100
AcDbEntity
  8
0
 62
     0
 48
10.0
100
AcDbLine
 10
103.0185085141263
 20
167.0580909242197
 30
0.0
 11
103.0185085141263
 21
167.0580909242197
 31
0.0
  0
LINE
  5
27BF
330
2696
100
AcDbEntity
  8
0
 62
     0
 48
10.0
100
AcDbLine
 10
97.74774316414585
 20
162.3665638865225
 30
0.0
 11
97.74774316414585
 21
162.3665638865225
 31
0.0
  0
LINE
  5
27C0
330
2696
100
AcDbEntity
  8
0
 62
     0
 48
10.0
100
AcDbLine
 10
98.78227591988562
 20
163.1603887899498
 30
0.0
 11
98.78227591988562
 21
163.1603887899498
 31
0.0
  0
LINE
  5
27C1
330
2696
100
AcDbEntity
  8
0
 62
     0
 48
10.0
100
AcDbLine
 10
99.84536939587588
 20
163.9761291048215
 30
0.0
 11
99.84536939587588
 21
163.9761291048215
 31
0.0
  0
LINE
  5
27C2
330
2696
100
AcDbEntity
  8
0
 62
     0
 48
10.0
100
AcDbLine
 10
100.8965625717617
 20
164.782737998258
 30
0.0
 11
100.8965625717617
 21
164.782737998258
 31
0.0
  0
LINE
  5
27C3
330
2696
100
AcDbEntity
  8
0
 62
     0
 48
10.0
100
AcDbLine
 10
101.9310953275015
 20
165.5765629016854
 30
0.0
 11
101.9310953275015
 21
165.5765629016854
 31
0.0
  0
LINE
  5
27C4
330
2696
100
AcDbEntity
  8
0
 62
     0
 48
10.0
100
AcDbLine
 10
102.9941888034917
 20
166.3923032165571
 30
0.0
 11
102.9941888034917
 21
166.3923032165571
 31
0.0
  0
LINE
  5
27C5
330
2696
100
AcDbEntity
  8
0
 62
     0
 48
10.0
100
AcDbLine
 10
97.72342345351127
 20
161.7007761788598
 30
0.0
 11
97.72342345351127
 21
161.7007761788598
 31
0.0
  0
LINE
  5
27C6
330
2696
100
AcDbEntity
  8
0
 62
     0
 48
10.0
100
AcDbLine
 10
98.75795620925105
 20
162.4946010822872
 30
0.0
 11
98.75795620925105
 21
162.4946010822872
 31
0.0
  0
LINE
  5
27C7
330
2696
100
AcDbEntity
  8
0
 62
     0
 48
10.0
100
AcDbLine
 10
99.82104968524131
 20
163.3103413971589
 30
0.0
 11
99.82104968524131
 21
163.3103413971589
 31
0.0
  0
LINE
  5
27C8
330
2696
100
AcDbEntity
  8
0
 62
     0
 48
10.0
100
AcDbLine
 10
100.8722428611271
 20
164.1169502905954
 30
0.0
 11
100.8722428611271
 21
164.1169502905954
 31
0.0
  0
LINE
  5
27C9
330
2696
100
AcDbEntity
  8
0
 62
     0
 48
10.0
100
AcDbLine
 10
101.9067756168669
 20
164.9107751940228
 30
0.0
 11
101.9067756168669
 21
164.9107751940228
 31
0.0
  0
LINE
  5
27CA
330
2696
100
AcDbEntity
  8
0
 62
     0
 48
10.0
100
AcDbLine
 10
102.9698690928572
 20
165.7265155088945
 30
0.0
 11
102.9698690928572
 21
165.7265155088945
 31
0.0
  0
LINE
  5
27CB
330
2696
100
AcDbEntity
  8
0
 62
     0
 48
10.0
100
AcDbLine
 10
98.73363649861644
 20
161.8288133746245
 30
0.0
 11
98.73363649861644
 21
161.8288133746245
 31
0.0
  0
LINE
  5
27CC
330
2696
100
AcDbEntity
  8
0
 62
     0
 48
10.0
100
AcDbLine
 10
99.79672997460671
 20
162.6445536894962
 30
0.0
 11
99.79672997460671
 21
162.6445536894962
 31
0.0
  0
LINE
  5
27CD
330
2696
100
AcDbEntity
  8
0
 62
     0
 48
10.0
100
AcDbLine
 10
100.8479231504925
 20
163.4511625829328
 30
0.0
 11
100.8479231504925
 21
163.4511625829328
 31
0.0
  0
LINE
  5
27CE
330
2696
100
AcDbEntity
  8
0
 62
     0
 48
10.0
100
AcDbLine
 10
101.8824559062323
 20
164.2449874863602
 30
0.0
 11
101.8824559062323
 21
164.2449874863602
 31
0.0
  0
LINE
  5
27CF
330
2696
100
AcDbEntity
  8
0
 62
     0
 48
10.0
100
AcDbLine
 10
102.9455493822226
 20
165.0607278012319
 30
0.0
 11
102.9455493822226
 21
165.0607278012319
 31
0.0
  0
LINE
  5
27D0
330
2696
100
AcDbEntity
  8
0
 62
     0
 48
10.0
100
AcDbLine
 10
99.77241026397212
 20
161.9787659818336
 30
0.0
 11
99.77241026397212
 21
161.9787659818336
 31
0.0
  0
LINE
  5
27D1
330
2696
100
AcDbEntity
  8
0
 62
     0
 48
10.0
100
AcDbLine
 10
100.823603439858
 20
162.7853748752702
 30
0.0
 11
100.823603439858
 21
162.7853748752702
 31
0.0
  0
LINE
  5
27D2
330
2696
100
AcDbEntity
  8
0
 62
     0
 48
10.0
100
AcDbLine
 10
101.8581361955977
 20
163.5791997786975
 30
0.0
 11
101.8581361955977
 21
163.5791997786975
 31
0.0
  0
LINE
  5
27D3
330
2696
100
AcDbEntity
  8
0
 62
     0
 48
10.0
100
AcDbLine
 10
102.921229671588
 20
164.3949400935692
 30
0.0
 11
102.921229671588
 21
164.3949400935692
 31
0.0
  0
LINE
  5
27D4
330
2696
100
AcDbEntity
  8
0
 62
     0
 48
10.0
100
AcDbLine
 10
100.7992837292234
 20
162.1195871676075
 30
0.0
 11
100.7992837292234
 21
162.1195871676075
 31
0.0
  0
LINE
  5
27D5
330
2696
100
AcDbEntity
  8
0
 62
     0
 48
10.0
100
AcDbLine
 10
101.8338164849632
 20
162.9134120710349
 30
0.0
 11
101.8338164849632
 21
162.9134120710349
 31
0.0
  0
LINE
  5
27D6
330
2696
100
AcDbEntity
  8
0
 62
     0
 48
10.0
100
AcDbLine
 10
102.8969099609534
 20
163.7291523859066
 30
0.0
 11
102.8969099609534
 21
163.7291523859066
 31
0.0
  0
LINE
  5
27D7
330
2696
100
AcDbEntity
  8
0
 62
     0
 48
10.0
100
AcDbLine
 10
100.7749640185888
 20
161.4537994599449
 30
0.0
 11
100.7749640185888
 21
161.4537994599449
 31
0.0
  0
LINE
  5
27D8
330
2696
100
AcDbEntity
  8
0
 62
     0
 48
10.0
100
AcDbLine
 10
101.8094967743286
 20
162.2476243633723
 30
0.0
 11
101.8094967743286
 21
162.2476243633723
 31
0.0
  0
LINE
  5
27D9
330
2696
100
AcDbEntity
  8
0
 62
     0
 48
10.0
100
AcDbLine
 10
102.8725902503188
 20
163.063364678244
 30
0.0
 11
102.8725902503188
 21
163.063364678244
 31
0.0
  0
LINE
  5
27DA
330
2696
100
AcDbEntity
  8
0
 62
     0
 48
10.0
100
AcDbLine
 10
101.785177063694
 20
161.5818366557097
 30
0.0
 11
101.785177063694
 21
161.5818366557097
 31
0.0
  0
LINE
  5
27DB
330
2696
100
AcDbEntity
  8
0
 62
     0
 48
10.0
100
AcDbLine
 10
102.8482705396843
 20
162.3975769705814
 30
0.0
 11
102.8482705396843
 21
162.3975769705814
 31
0.0
  0
LINE
  5
27DC
330
2696
100
AcDbEntity
  8
0
 62
     0
 48
10.0
100
AcDbLine
 10
102.8239508290497
 20
161.7317892629188
 30
0.0
 11
102.8239508290497
 21
161.7317892629188
 31
0.0
  0
LINE
  5
27DD
330
2696
100
AcDbEntity
  8
0
 62
     0
 48
10.0
100
AcDbLine
 10
103.850824294301
 20
161.8726104486927
 30
0.0
 11
103.850824294301
 21
161.8726104486927
 31
0.0
  0
LINE
  5
27DE
330
2696
100
AcDbEntity
  8
0
 62
     0
 48
10.0
100
AcDbLine
 10
98.22376020448764
 20
166.9163660556127
 30
0.0
 11
98.22376020448764
 21
166.9163660556127
 31
0.0
  0
LINE
  5
27DF
330
2696
100
AcDbEntity
  8
0
 62
     0
 48
10.0
100
AcDbLine
 10
99.48686095787786
 20
167.0826564245011
 30
0.0
 11
99.48686095787786
 21
167.0826564245011
 31
0.0
  0
LINE
  5
27E0
330
2696
100
AcDbEntity
  8
0
 62
     0
 48
10.0
100
AcDbLine
 10
99.98754061287165
 20
167.1485721515722
 30
0.0
 11
99.98754061287165
 21
167.1485721515722
 31
0.0
  0
LINE
  5
27E1
330
2696
100
AcDbEntity
  8
0
 62
     0
 48
10.0
100
AcDbLine
 10
100.7450044869612
 20
167.2482941624283
 30
0.0
 11
100.7450044869612
 21
167.2482941624283
 31
0.0
  0
LINE
  5
27E2
330
2696
100
AcDbEntity
  8
0
 62
     0
 48
10.0
100
AcDbLine
 10
102.0081052403514
 20
167.4145845313166
 30
0.0
 11
102.0081052403514
 21
167.4145845313166
 31
0.0
  0
LINE
  5
27E3
330
2696
100
AcDbEntity
  8
0
 62
     0
 48
10.0
100
AcDbLine
 10
102.5087848953452
 20
167.4805002583877
 30
0.0
 11
102.5087848953452
 21
167.4805002583877
 31
0.0
  0
LINE
  5
27E4
330
2696
100
AcDbEntity
  8
0
 62
     0
 48
10.0
100
AcDbLine
 10
103.2662487694348
 20
167.5802222692439
 30
0.0
 11
103.2662487694348
 21
167.5802222692439
 31
0.0
  0
LINE
  5
27E5
330
2696
100
AcDbEntity
  8
0
 62
     0
 48
10.0
100
AcDbLine
 10
98.74989927937194
 20
167.7051894793774
 30
0.0
 11
98.74989927937194
 21
167.7051894793774
 31
0.0
  0
LINE
  5
27E6
330
2696
100
AcDbEntity
  8
0
 62
     0
 48
10.0
100
AcDbLine
 10
100.0130000327621
 20
167.8714798482658
 30
0.0
 11
100.0130000327621
 21
167.8714798482658
 31
0.0
  0
LINE
  5
27E7
330
2696
100
AcDbEntity
  8
0
 62
     0
 48
10.0
100
AcDbLine
 10
100.5136796877559
 20
167.9373955753369
 30
0.0
 11
100.5136796877559
 21
167.9373955753369
 31
0.0
  0
LINE
  5
27E8
330
2696
100
AcDbEntity
  8
0
 62
     0
 48
10.0
100
AcDbLine
 10
101.2711435618455
 20
168.037117586193
 30
0.0
 11
101.2711435618455
 21
168.037117586193
 31
0.0
  0
LINE
  5
27E9
330
2696
100
AcDbEntity
  8
0
 62
     0
 48
10.0
100
AcDbLine
 10
102.5342443152357
 20
168.2034079550814
 30
0.0
 11
102.5342443152357
 21
168.2034079550814
 31
0.0
  0
LINE
  5
27EA
330
2696
100
AcDbEntity
  8
0
 62
     0
 48
10.0
100
AcDbLine
 10
103.0349239702295
 20
168.2693236821525
 30
0.0
 11
103.0349239702295
 21
168.2693236821525
 31
0.0
  0
LINE
  5
27EB
330
2696
100
AcDbEntity
  8
0
 62
     0
 48
10.0
100
AcDbLine
 10
98.51857448016664
 20
168.394290892286
 30
0.0
 11
98.51857448016664
 21
168.394290892286
 31
0.0
  0
LINE
  5
27EC
330
2696
100
AcDbEntity
  8
0
 62
     0
 48
10.0
100
AcDbLine
 10
99.27603835425623
 20
168.4940129031421
 30
0.0
 11
99.27603835425623
 21
168.4940129031421
 31
0.0
  0
LINE
  5
27ED
330
2696
100
AcDbEntity
  8
0
 62
     0
 48
10.0
100
AcDbLine
 10
100.5391391076464
 20
168.6603032720305
 30
0.0
 11
100.5391391076464
 21
168.6603032720305
 31
0.0
  0
LINE
  5
27EE
330
2696
100
AcDbEntity
  8
0
 62
     0
 48
10.0
100
AcDbLine
 10
101.0398187626402
 20
168.7262189991016
 30
0.0
 11
101.0398187626402
 21
168.7262189991016
 31
0.0
  0
LINE
  5
27EF
330
2696
100
AcDbEntity
  8
0
 62
     0
 48
10.0
100
AcDbLine
 10
101.7972826367298
 20
168.8259410099577
 30
0.0
 11
101.7972826367298
 21
168.8259410099577
 31
0.0
  0
LINE
  5
27F0
330
2696
100
AcDbEntity
  8
0
 62
     0
 48
10.0
100
AcDbLine
 10
103.06038339012
 20
168.9922313788461
 30
0.0
 11
103.06038339012
 21
168.9922313788461
 31
0.0
  0
LINE
  5
27F1
330
2696
100
AcDbEntity
  8
0
 62
     0
 48
10.0
100
AcDbLine
 10
98.54403390005714
 20
169.1171985889796
 30
0.0
 11
98.54403390005714
 21
169.1171985889796
 31
0.0
  0
LINE
  5
27F2
330
2696
100
AcDbEntity
  8
0
 62
     0
 48
10.0
100
AcDbLine
 10
99.04471355505092
 20
169.1831143160507
 30
0.0
 11
99.04471355505092
 21
169.1831143160507
 31
0.0
  0
LINE
  5
27F3
330
2696
100
AcDbEntity
  8
0
 62
     0
 48
10.0
100
AcDbLine
 10
99.80217742914051
 20
169.2828363269068
 30
0.0
 11
99.80217742914051
 21
169.2828363269068
 31
0.0
  0
LINE
  5
27F4
330
2696
100
AcDbEntity
  8
0
 62
     0
 48
10.0
100
AcDbLine
 10
101.0652781825307
 20
169.4491266957952
 30
0.0
 11
101.0652781825307
 21
169.4491266957952
 31
0.0
  0
LINE
  5
27F5
330
2696
100
AcDbEntity
  8
0
 62
     0
 48
10.0
100
AcDbLine
 10
101.5659578375245
 20
169.5150424228663
 30
0.0
 11
101.5659578375245
 21
169.5150424228663
 31
0.0
  0
LINE
  5
27F6
330
2696
100
AcDbEntity
  8
0
 62
     0
 48
10.0
100
AcDbLine
 10
102.3234217116141
 20
169.6147644337225
 30
0.0
 11
102.3234217116141
 21
169.6147644337225
 31
0.0
  0
LINE
  5
27F7
330
2696
100
AcDbEntity
  8
0
 62
     0
 48
10.0
100
AcDbLine
 10
99.07017297494146
 20
169.9060220127443
 30
0.0
 11
99.07017297494146
 21
169.9060220127443
 31
0.0
  0
LINE
  5
27F8
330
2696
100
AcDbEntity
  8
0
 62
     0
 48
10.0
100
AcDbLine
 10
99.57085262993523
 20
169.9719377398154
 30
0.0
 11
99.57085262993523
 21
169.9719377398154
 31
0.0
  0
LINE
  5
27F9
330
2696
100
AcDbEntity
  8
0
 62
     0
 48
10.0
100
AcDbLine
 10
100.3283165040248
 20
170.0716597506715
 30
0.0
 11
100.3283165040248
 21
170.0716597506715
 31
0.0
  0
LINE
  5
27FA
330
2696
100
AcDbEntity
  8
0
 62
     0
 48
10.0
100
AcDbLine
 10
101.591417257415
 20
170.2379501195599
 30
0.0
 11
101.591417257415
 21
170.2379501195599
 31
0.0
  0
LINE
  5
27FB
330
2696
100
AcDbEntity
  8
0
 62
     0
 48
10.0
100
AcDbLine
 10
102.0920969124088
 20
170.303865846631
 30
0.0
 11
102.0920969124088
 21
170.303865846631
 31
0.0
  0
LINE
  5
27FC
330
2696
100
AcDbEntity
  8
0
 62
     0
 48
10.0
100
AcDbLine
 10
102.8495607864984
 20
170.4035878574871
 30
0.0
 11
102.8495607864984
 21
170.4035878574871
 31
0.0
  0
LINE
  5
27FD
330
2696
100
AcDbEntity
  8
0
 62
     0
 48
10.0
100
AcDbLine
 10
99.59631204982574
 20
170.694845436509
 30
0.0
 11
99.59631204982574
 21
170.694845436509
 31
0.0
  0
LINE
  5
27FE
330
2696
100
AcDbEntity
  8
0
 62
     0
 48
10.0
100
AcDbLine
 10
100.0969917048195
 20
170.7607611635801
 30
0.0
 11
100.0969917048195
 21
170.7607611635801
 31
0.0
  0
LINE
  5
27FF
330
2696
100
AcDbEntity
  8
0
 62
     0
 48
10.0
100
AcDbLine
 10
100.8544555789091
 20
170.8604831744363
 30
0.0
 11
100.8544555789091
 21
170.8604831744363
 31
0.0
  0
LINE
  5
2800
330
2696
100
AcDbEntity
  8
0
 62
     0
 48
10.0
100
AcDbLine
 10
102.1175563322993
 20
171.0267735433247
 30
0.0
 11
102.1175563322993
 21
171.0267735433247
 31
0.0
  0
LINE
  5
2801
330
2696
100
AcDbEntity
  8
0
 62
     0
 48
10.0
100
AcDbLine
 10
102.6182359872931
 20
171.0926892703958
 30
0.0
 11
102.6182359872931
 21
171.0926892703958
 31
0.0
  0
LINE
  5
2802
330
2696
100
AcDbEntity
  8
0
 62
     0
 48
10.0
100
AcDbLine
 10
98.85935037131984
 20
171.3173784913854
 30
0.0
 11
98.85935037131984
 21
171.3173784913854
 31
0.0
  0
LINE
  5
2803
330
2696
100
AcDbEntity
  8
0
 62
     0
 48
10.0
100
AcDbLine
 10
100.12245112471
 20
171.4836688602737
 30
0.0
 11
100.12245112471
 21
171.4836688602737
 31
0.0
  0
LINE
  5
2804
330
2696
100
AcDbEntity
  8
0
 62
     0
 48
10.0
100
AcDbLine
 10
100.6231307797038
 20
171.5495845873449
 30
0.0
 11
100.6231307797038
 21
171.5495845873449
 31
0.0
  0
LINE
  5
2805
330
2696
100
AcDbEntity
  8
0
 62
     0
 48
10.0
100
AcDbLine
 10
101.3805946537934
 20
171.649306598201
 30
0.0
 11
101.3805946537934
 21
171.649306598201
 31
0.0
  0
LINE
  5
2806
330
2696
100
AcDbEntity
  8
0
 62
     0
 48
10.0
100
AcDbLine
 10
102.6436954071836
 20
171.8155969670893
 30
0.0
 11
102.6436954071836
 21
171.8155969670893
 31
0.0
  0
LINE
  5
2807
330
2696
100
AcDbEntity
  8
0
 62
     0
 48
10.0
100
AcDbLine
 10
98.62802557211452
 20
172.006479904294
 30
0.0
 11
98.62802557211452
 21
172.006479904294
 31
0.0
  0
LINE
  5
2808
330
2696
100
AcDbEntity
  8
0
 62
     0
 48
10.0
100
AcDbLine
 10
99.38548944620411
 20
172.1062019151502
 30
0.0
 11
99.38548944620411
 21
172.1062019151502
 31
0.0
  0
LINE
  5
2809
330
2696
100
AcDbEntity
  8
0
 62
     0
 48
10.0
100
AcDbLine
 10
100.6485901995943
 20
172.2724922840385
 30
0.0
 11
100.6485901995943
 21
172.2724922840385
 31
0.0
  0
LINE
  5
280A
330
2696
100
AcDbEntity
  8
0
 62
     0
 48
10.0
100
AcDbLine
 10
101.1492698545881
 20
172.3384080111096
 30
0.0
 11
101.1492698545881
 21
172.3384080111096
 31
0.0
  0
LINE
  5
280B
330
2696
100
AcDbEntity
  8
0
 62
     0
 48
10.0
100
AcDbLine
 10
101.9067337286777
 20
172.4381300219657
 30
0.0
 11
101.9067337286777
 21
172.4381300219657
 31
0.0
  0
LINE
  5
280C
330
2696
100
AcDbEntity
  8
0
 62
     0
 48
10.0
100
AcDbLine
 10
99.15416464699882
 20
172.7953033280588
 30
0.0
 11
99.15416464699882
 21
172.7953033280588
 31
0.0
  0
LINE
  5
280D
330
2696
100
AcDbEntity
  8
0
 62
     0
 48
10.0
100
AcDbLine
 10
99.91162852108843
 20
172.8950253389149
 30
0.0
 11
99.91162852108843
 21
172.8950253389149
 31
0.0
  0
LINE
  5
280E
330
2696
100
AcDbEntity
  8
0
 62
     0
 48
10.0
100
AcDbLine
 10
101.1747292744786
 20
173.0613157078033
 30
0.0
 11
101.1747292744786
 21
173.0613157078033
 31
0.0
  0
LINE
  5
280F
330
2696
100
AcDbEntity
  8
0
 62
     0
 48
10.0
100
AcDbLine
 10
101.6754089294724
 20
173.1272314348744
 30
0.0
 11
101.6754089294724
 21
173.1272314348744
 31
0.0
  0
LINE
  5
2810
330
2696
100
AcDbEntity
  8
0
 62
     0
 48
10.0
100
AcDbLine
 10
102.432872803562
 20
173.2269534457305
 30
0.0
 11
102.432872803562
 21
173.2269534457305
 31
0.0
  0
LINE
  5
2811
330
2696
100
AcDbEntity
  8
0
 62
     0
 48
10.0
100
AcDbLine
 10
98.96072188299356
 20
166.2938330007363
 30
0.0
 11
98.96072188299356
 21
166.2938330007363
 31
0.0
  0
LINE
  5
2812
330
2696
100
AcDbEntity
  8
0
 62
     0
 48
10.0
100
AcDbLine
 10
99.46140153798733
 20
166.3597487278074
 30
0.0
 11
99.46140153798733
 21
166.3597487278074
 31
0.0
  0
LINE
  5
2813
330
2696
100
AcDbEntity
  8
0
 62
     0
 48
10.0
100
AcDbLine
 10
100.2188654120769
 20
166.4594707386636
 30
0.0
 11
100.2188654120769
 21
166.4594707386636
 31
0.0
  0
LINE
  5
2814
330
2696
100
AcDbEntity
  8
0
 62
     0
 48
10.0
100
AcDbLine
 10
101.4819661654671
 20
166.625761107552
 30
0.0
 11
101.4819661654671
 21
166.625761107552
 31
0.0
  0
LINE
  5
2815
330
2696
100
AcDbEntity
  8
0
 62
     0
 48
10.0
100
AcDbLine
 10
101.9826458204609
 20
166.6916768346231
 30
0.0
 11
101.9826458204609
 21
166.6916768346231
 31
0.0
  0
LINE
  5
2816
330
2696
100
AcDbEntity
  8
0
 62
     0
 48
10.0
100
AcDbLine
 10
102.7401096945505
 20
166.7913988454792
 30
0.0
 11
102.7401096945505
 21
166.7913988454792
 31
0.0
  0
LINE
  5
2817
330
2696
100
AcDbEntity
  8
0
 62
     0
 48
10.0
100
AcDbLine
 10
98.43458280810926
 20
165.5050095769716
 30
0.0
 11
98.43458280810926
 21
165.5050095769716
 31
0.0
  0
LINE
  5
2818
330
2696
100
AcDbEntity
  8
0
 62
     0
 48
10.0
100
AcDbLine
 10
98.93526246310303
 20
165.5709253040427
 30
0.0
 11
98.93526246310303
 21
165.5709253040427
 31
0.0
  0
LINE
  5
2819
330
2696
100
AcDbEntity
  8
0
 62
     0
 48
10.0
100
AcDbLine
 10
99.69272633719263
 20
165.6706473148989
 30
0.0
 11
99.69272633719263
 21
165.6706473148989
 31
0.0
  0
LINE
  5
281A
330
2696
100
AcDbEntity
  8
0
 62
     0
 48
10.0
100
AcDbLine
 10
100.9558270905828
 20
165.8369376837872
 30
0.0
 11
100.9558270905828
 21
165.8369376837872
 31
0.0
  0
LINE
  5
281B
330
2696
100
AcDbEntity
  8
0
 62
     0
 48
10.0
100
AcDbLine
 10
101.4565067455766
 20
165.9028534108584
 30
0.0
 11
101.4565067455766
 21
165.9028534108584
 31
0.0
  0
LINE
  5
281C
330
2696
100
AcDbEntity
  8
0
 62
     0
 48
10.0
100
AcDbLine
 10
102.2139706196662
 20
166.0025754217144
 30
0.0
 11
102.2139706196662
 21
166.0025754217144
 31
0.0
  0
LINE
  5
281D
330
2696
100
AcDbEntity
  8
0
 62
     0
 48
10.0
100
AcDbLine
 10
97.90844373322499
 20
164.7161861532069
 30
0.0
 11
97.90844373322499
 21
164.7161861532069
 31
0.0
  0
LINE
  5
281E
330
2696
100
AcDbEntity
  8
0
 62
     0
 48
10.0
100
AcDbLine
 10
98.40912338821876
 20
164.782101880278
 30
0.0
 11
98.40912338821876
 21
164.782101880278
 31
0.0
  0
LINE
  5
281F
330
2696
100
AcDbEntity
  8
0
 62
     0
 48
10.0
100
AcDbLine
 10
99.16658726230835
 20
164.8818238911341
 30
0.0
 11
99.16658726230835
 21
164.8818238911341
 31
0.0
  0
LINE
  5
2820
330
2696
100
AcDbEntity
  8
0
 62
     0
 48
10.0
100
AcDbLine
 10
100.4296880156985
 20
165.0481142600225
 30
0.0
 11
100.4296880156985
 21
165.0481142600225
 31
0.0
  0
LINE
  5
2821
330
2696
100
AcDbEntity
  8
0
 62
     0
 48
10.0
100
AcDbLine
 10
100.9303676706923
 20
165.1140299870936
 30
0.0
 11
100.9303676706923
 21
165.1140299870936
 31
0.0
  0
LINE
  5
2822
330
2696
100
AcDbEntity
  8
0
 62
     0
 48
10.0
100
AcDbLine
 10
101.6878315447819
 20
165.2137519979497
 30
0.0
 11
101.6878315447819
 21
165.2137519979497
 31
0.0
  0
LINE
  5
2823
330
2696
100
AcDbEntity
  8
0
 62
     0
 48
10.0
100
AcDbLine
 10
102.9509322981721
 20
165.3800423668381
 30
0.0
 11
102.9509322981721
 21
165.3800423668381
 31
0.0
  0
LINE
  5
2824
330
2696
100
AcDbEntity
  8
0
 62
     0
 48
10.0
100
AcDbLine
 10
103.4516119531659
 20
165.4459580939092
 30
0.0
 11
103.4516119531659
 21
165.4459580939092
 31
0.0
  0
LINE
  5
2825
330
2696
100
AcDbEntity
  8
0
 62
     0
 48
10.0
100
AcDbLine
 10
97.88298431333444
 20
163.9932784565133
 30
0.0
 11
97.88298431333444
 21
163.9932784565133
 31
0.0
  0
LINE
  5
2826
330
2696
100
AcDbEntity
  8
0
 62
     0
 48
10.0
100
AcDbLine
 10
98.64044818742405
 20
164.0930004673694
 30
0.0
 11
98.64044818742405
 21
164.0930004673694
 31
0.0
  0
LINE
  5
2827
330
2696
100
AcDbEntity
  8
0
 62
     0
 48
10.0
100
AcDbLine
 10
99.90354894081427
 20
164.2592908362578
 30
0.0
 11
99.90354894081427
 21
164.2592908362578
 31
0.0
  0
LINE
  5
2828
330
2696
100
AcDbEntity
  8
0
 62
     0
 48
10.0
100
AcDbLine
 10
100.404228595808
 20
164.3252065633289
 30
0.0
 11
100.404228595808
 21
164.3252065633289
 31
0.0
  0
LINE
  5
2829
330
2696
100
AcDbEntity
  8
0
 62
     0
 48
10.0
100
AcDbLine
 10
101.1616924698976
 20
164.424928574185
 30
0.0
 11
101.1616924698976
 21
164.424928574185
 31
0.0
  0
LINE
  5
282A
330
2696
100
AcDbEntity
  8
0
 62
     0
 48
10.0
100
AcDbLine
 10
102.4247932232878
 20
164.5912189430734
 30
0.0
 11
102.4247932232878
 21
164.5912189430734
 31
0.0
  0
LINE
  5
282B
330
2696
100
AcDbEntity
  8
0
 62
     0
 48
10.0
100
AcDbLine
 10
102.9254728782816
 20
164.6571346701445
 30
0.0
 11
102.9254728782816
 21
164.6571346701445
 31
0.0
  0
LINE
  5
282C
330
2696
100
AcDbEntity
  8
0
 62
     0
 48
10.0
100
AcDbLine
 10
98.11430911253976
 20
163.3041770436047
 30
0.0
 11
98.11430911253976
 21
163.3041770436047
 31
0.0
  0
LINE
  5
282D
330
2696
100
AcDbEntity
  8
0
 62
     0
 48
10.0
100
AcDbLine
 10
99.37740986592999
 20
163.470467412493
 30
0.0
 11
99.37740986592999
 21
163.470467412493
 31
0.0
  0
LINE
  5
282E
330
2696
100
AcDbEntity
  8
0
 62
     0
 48
10.0
100
AcDbLine
 10
99.87808952092377
 20
163.5363831395642
 30
0.0
 11
99.87808952092377
 21
163.5363831395642
 31
0.0
  0
LINE
  5
282F
330
2696
100
AcDbEntity
  8
0
 62
     0
 48
10.0
100
AcDbLine
 10
100.6355533950133
 20
163.6361051504203
 30
0.0
 11
100.6355533950133
 21
163.6361051504203
 31
0.0
  0
LINE
  5
2830
330
2696
100
AcDbEntity
  8
0
 62
     0
 48
10.0
100
AcDbLine
 10
101.8986541484036
 20
163.8023955193087
 30
0.0
 11
101.8986541484036
 21
163.8023955193087
 31
0.0
  0
LINE
  5
2831
330
2696
100
AcDbEntity
  8
0
 62
     0
 48
10.0
100
AcDbLine
 10
102.3993338033973
 20
163.8683112463798
 30
0.0
 11
102.3993338033973
 21
163.8683112463798
 31
0.0
  0
LINE
  5
2832
330
2696
100
AcDbEntity
  8
0
 62
     0
 48
10.0
100
AcDbLine
 10
103.1567976774869
 20
163.9680332572359
 30
0.0
 11
103.1567976774869
 21
163.9680332572359
 31
0.0
  0
LINE
  5
2833
330
2696
100
AcDbEntity
  8
0
 62
     0
 48
10.0
100
AcDbLine
 10
98.85127079104568
 20
162.6816439887283
 30
0.0
 11
98.85127079104568
 21
162.6816439887283
 31
0.0
  0
LINE
  5
2834
330
2696
100
AcDbEntity
  8
0
 62
     0
 48
10.0
100
AcDbLine
 10
99.35195044603945
 20
162.7475597157994
 30
0.0
 11
99.35195044603945
 21
162.7475597157994
 31
0.0
  0
LINE
  5
2835
330
2696
100
AcDbEntity
  8
0
 62
     0
 48
10.0
100
AcDbLine
 10
100.109414320129
 20
162.8472817266555
 30
0.0
 11
100.109414320129
 21
162.8472817266555
 31
0.0
  0
LINE
  5
2836
330
2696
100
AcDbEntity
  8
0
 62
     0
 48
10.0
100
AcDbLine
 10
101.3725150735192
 20
163.0135720955439
 30
0.0
 11
101.3725150735192
 21
163.0135720955439
 31
0.0
  0
LINE
  5
2837
330
2696
100
AcDbEntity
  8
0
 62
     0
 48
10.0
100
AcDbLine
 10
101.873194728513
 20
163.079487822615
 30
0.0
 11
101.873194728513
 21
163.079487822615
 31
0.0
  0
LINE
  5
2838
330
2696
100
AcDbEntity
  8
0
 62
     0
 48
10.0
100
AcDbLine
 10
102.6306586026026
 20
163.1792098334711
 30
0.0
 11
102.6306586026026
 21
163.1792098334711
 31
0.0
  0
LINE
  5
2839
330
2696
100
AcDbEntity
  8
0
 62
     0
 48
10.0
100
AcDbLine
 10
98.3251317161614
 20
161.8928205649636
 30
0.0
 11
98.3251317161614
 21
161.8928205649636
 31
0.0
  0
LINE
  5
283A
330
2696
100
AcDbEntity
  8
0
 62
     0
 48
10.0
100
AcDbLine
 10
98.82581137115517
 20
161.9587362920347
 30
0.0
 11
98.82581137115517
 21
161.9587362920347
 31
0.0
  0
LINE
  5
283B
330
2696
100
AcDbEntity
  8
0
 62
     0
 48
10.0
100
AcDbLine
 10
99.58327524524477
 20
162.0584583028908
 30
0.0
 11
99.58327524524477
 21
162.0584583028908
 31
0.0
  0
LINE
  5
283C
330
2696
100
AcDbEntity
  8
0
 62
     0
 48
10.0
100
AcDbLine
 10
100.8463759986349
 20
162.2247486717792
 30
0.0
 11
100.8463759986349
 21
162.2247486717792
 31
0.0
  0
LINE
  5
283D
330
2696
100
AcDbEntity
  8
0
 62
     0
 48
10.0
100
AcDbLine
 10
101.3470556536287
 20
162.2906643988503
 30
0.0
 11
101.3470556536287
 21
162.2906643988503
 31
0.0
  0
LINE
  5
283E
330
2696
100
AcDbEntity
  8
0
 62
     0
 48
10.0
100
AcDbLine
 10
102.1045195277183
 20
162.3903864097064
 30
0.0
 11
102.1045195277183
 21
162.3903864097064
 31
0.0
  0
LINE
  5
283F
330
2696
100
AcDbEntity
  8
0
 62
     0
 48
10.0
100
AcDbLine
 10
103.3676202811085
 20
162.5566767785947
 30
0.0
 11
103.3676202811085
 21
162.5566767785947
 31
0.0
  0
LINE
  5
2840
330
2696
100
AcDbEntity
  8
0
 62
     0
 48
10.0
100
AcDbLine
 10
100.3202369237506
 20
161.4359252480145
 30
0.0
 11
100.3202369237506
 21
161.4359252480145
 31
0.0
  0
LINE
  5
2841
330
2696
100
AcDbEntity
  8
0
 62
     0
 48
10.0
100
AcDbLine
 10
100.8209165787444
 20
161.5018409750856
 30
0.0
 11
100.8209165787444
 21
161.5018409750856
 31
0.0
  0
LINE
  5
2842
330
2696
100
AcDbEntity
  8
0
 62
     0
 48
10.0
100
AcDbLine
 10
101.578380452834
 20
161.6015629859417
 30
0.0
 11
101.578380452834
 21
161.6015629859417
 31
0.0
  0
LINE
  5
2843
330
2696
100
AcDbEntity
  8
0
 62
     0
 48
10.0
100
AcDbLine
 10
102.8414812062242
 20
161.7678533548301
 30
0.0
 11
102.8414812062242
 21
161.7678533548301
 31
0.0
  0
LINE
  5
2844
330
2696
100
AcDbEntity
  8
0
 62
     0
 48
10.0
100
AcDbLine
 10
103.342160861218
 20
161.8337690819012
 30
0.0
 11
103.342160861218
 21
161.8337690819012
 31
0.0
  0
LINE
  5
2845
330
2696
100
AcDbEntity
  8
0
 62
     0
 48
10.0
100
AcDbLine
 10
98.39240440282679
 20
168.8280865683884
 30
0.0
 11
98.39240440282679
 21
168.8280865683884
 31
0.0
  0
LINE
  5
2846
330
2696
100
AcDbEntity
  8
0
 62
     0
 48
10.0
100
AcDbLine
 10
100.1382246956594
 20
167.7158763791105
 30
0.0
 11
100.1382246956594
 21
167.7158763791105
 31
0.0
  0
LINE
  5
2847
330
2696
100
AcDbEntity
  8
0
 62
     0
 48
10.0
100
AcDbLine
 10
100.5599204185659
 20
167.4472265749371
 30
0.0
 11
100.5599204185659
 21
167.4472265749371
 31
0.0
  0
LINE
  5
2848
330
2696
100
AcDbEntity
  8
0
 62
     0
 48
10.0
100
AcDbLine
 10
101.875611074034
 20
166.609039185916
 30
0.0
 11
101.875611074034
 21
166.609039185916
 31
0.0
  0
LINE
  5
2849
330
2696
100
AcDbEntity
  8
0
 62
     0
 48
10.0
100
AcDbLine
 10
99.4600492751716
 20
168.7829768249197
 30
0.0
 11
99.4600492751716
 21
168.7829768249197
 31
0.0
  0
LINE
  5
284A
330
2696
100
AcDbEntity
  8
0
 62
     0
 48
10.0
100
AcDbLine
 10
101.2058695680042
 20
167.6707666356417
 30
0.0
 11
101.2058695680042
 21
167.6707666356417
 31
0.0
  0
LINE
  5
284B
330
2696
100
AcDbEntity
  8
0
 62
     0
 48
10.0
100
AcDbLine
 10
101.6275652909107
 20
167.4021168314683
 30
0.0
 11
101.6275652909107
 21
167.4021168314683
 31
0.0
  0
LINE
  5
284C
330
2696
100
AcDbEntity
  8
0
 62
     0
 48
10.0
100
AcDbLine
 10
102.9432559463788
 20
166.5639294424473
 30
0.0
 11
102.9432559463788
 21
166.5639294424473
 31
0.0
  0
LINE
  5
284D
330
2696
100
AcDbEntity
  8
0
 62
     0
 48
10.0
100
AcDbLine
 10
98.79030776914193
 20
169.8447042746454
 30
0.0
 11
98.79030776914193
 21
169.8447042746454
 31
0.0
  0
LINE
  5
284E
330
2696
100
AcDbEntity
  8
0
 62
     0
 48
10.0
100
AcDbLine
 10
99.21200349204838
 20
169.576054470472
 30
0.0
 11
99.21200349204838
 21
169.576054470472
 31
0.0
  0
LINE
  5
284F
330
2696
100
AcDbEntity
  8
0
 62
     0
 48
10.0
100
AcDbLine
 10
100.5276941475164
 20
168.7378670814509
 30
0.0
 11
100.5276941475164
 21
168.7378670814509
 31
0.0
  0
LINE
  5
2850
330
2696
100
AcDbEntity
  8
0
 62
     0
 48
10.0
100
AcDbLine
 10
102.2735144403491
 20
167.625656892173
 30
0.0
 11
102.2735144403491
 21
167.625656892173
 31
0.0
  0
LINE
  5
2851
330
2696
100
AcDbEntity
  8
0
 62
     0
 48
10.0
100
AcDbLine
 10
102.6952101632555
 20
167.3570070879996
 30
0.0
 11
102.6952101632555
 21
167.3570070879996
 31
0.0
  0
LINE
  5
2852
330
2696
100
AcDbEntity
  8
0
 62
     0
 48
10.0
100
AcDbLine
 10
99.85795264148674
 20
169.7995945311766
 30
0.0
 11
99.85795264148674
 21
169.7995945311766
 31
0.0
  0
LINE
  5
2853
330
2696
100
AcDbEntity
  8
0
 62
     0
 48
10.0
100
AcDbLine
 10
100.2796483643931
 20
169.5309447270032
 30
0.0
 11
100.2796483643931
 21
169.5309447270032
 31
0.0
  0
LINE
  5
2854
330
2696
100
AcDbEntity
  8
0
 62
     0
 48
10.0
100
AcDbLine
 10
101.5953390198612
 20
168.6927573379822
 30
0.0
 11
101.5953390198612
 21
168.6927573379822
 31
0.0
  0
LINE
  5
2855
330
2696
100
AcDbEntity
  8
0
 62
     0
 48
10.0
100
AcDbLine
 10
99.17977722099889
 20
170.8666949769858
 30
0.0
 11
99.17977722099889
 21
170.8666949769858
 31
0.0
  0
LINE
  5
2856
330
2696
100
AcDbEntity
  8
0
 62
     0
 48
10.0
100
AcDbLine
 10
100.9255975138315
 20
169.7544847877078
 30
0.0
 11
100.9255975138315
 21
169.7544847877078
 31
0.0
  0
LINE
  5
2857
330
2696
100
AcDbEntity
  8
0
 62
     0
 48
10.0
100
AcDbLine
 10
101.3472932367379
 20
169.4858349835344
 30
0.0
 11
101.3472932367379
 21
169.4858349835344
 31
0.0
  0
LINE
  5
2858
330
2696
100
AcDbEntity
  8
0
 62
     0
 48
10.0
100
AcDbLine
 10
102.662983892206
 20
168.6476475945134
 30
0.0
 11
102.662983892206
 21
168.6476475945134
 31
0.0
  0
LINE
  5
2859
330
2696
100
AcDbEntity
  8
0
 62
     0
 48
10.0
100
AcDbLine
 10
98.93173143787556
 20
171.6597726225381
 30
0.0
 11
98.93173143787556
 21
171.6597726225381
 31
0.0
  0
LINE
  5
285A
330
2696
100
AcDbEntity
  8
0
 62
     0
 48
10.0
100
AcDbLine
 10
100.2474220933436
 20
170.821585233517
 30
0.0
 11
100.2474220933436
 21
170.821585233517
 31
0.0
  0
LINE
  5
285B
330
2696
100
AcDbEntity
  8
0
 62
     0
 48
10.0
100
AcDbLine
 10
101.9932423861763
 20
169.7093750442391
 30
0.0
 11
101.9932423861763
 21
169.7093750442391
 31
0.0
  0
LINE
  5
285C
330
2696
100
AcDbEntity
  8
0
 62
     0
 48
10.0
100
AcDbLine
 10
102.4149381090827
 20
169.4407252400657
 30
0.0
 11
102.4149381090827
 21
169.4407252400657
 31
0.0
  0
LINE
  5
285D
330
2696
100
AcDbEntity
  8
0
 62
     0
 48
10.0
100
AcDbLine
 10
99.57768058731401
 20
171.8833126832427
 30
0.0
 11
99.57768058731401
 21
171.8833126832427
 31
0.0
  0
LINE
  5
285E
330
2696
100
AcDbEntity
  8
0
 62
     0
 48
10.0
100
AcDbLine
 10
99.99937631022046
 20
171.6146628790693
 30
0.0
 11
99.99937631022046
 21
171.6146628790693
 31
0.0
  0
LINE
  5
285F
330
2696
100
AcDbEntity
  8
0
 62
     0
 48
10.0
100
AcDbLine
 10
101.3150669656884
 20
170.7764754900483
 30
0.0
 11
101.3150669656884
 21
170.7764754900483
 31
0.0
  0
LINE
  5
2860
330
2696
100
AcDbEntity
  8
0
 62
     0
 48
10.0
100
AcDbLine
 10
103.0608872585211
 20
169.6642653007703
 30
0.0
 11
103.0608872585211
 21
169.6642653007703
 31
0.0
  0
LINE
  5
2861
330
2696
100
AcDbEntity
  8
0
 62
     0
 48
10.0
100
AcDbLine
 10
98.8995051668261
 20
172.9504131290519
 30
0.0
 11
98.8995051668261
 21
172.9504131290519
 31
0.0
  0
LINE
  5
2862
330
2696
100
AcDbEntity
  8
0
 62
     0
 48
10.0
100
AcDbLine
 10
100.6453254596587
 20
171.8382029397739
 30
0.0
 11
100.6453254596587
 21
171.8382029397739
 31
0.0
  0
LINE
  5
2863
330
2696
100
AcDbEntity
  8
0
 62
     0
 48
10.0
100
AcDbLine
 10
101.0670211825652
 20
171.5695531356005
 30
0.0
 11
101.0670211825652
 21
171.5695531356005
 31
0.0
  0
LINE
  5
2864
330
2696
100
AcDbEntity
  8
0
 62
     0
 48
10.0
100
AcDbLine
 10
102.3827118380333
 20
170.7313657465795
 30
0.0
 11
102.3827118380333
 21
170.7313657465795
 31
0.0
  0
LINE
  5
2865
330
2696
100
AcDbEntity
  8
0
 62
     0
 48
10.0
100
AcDbLine
 10
99.96715003917094
 20
172.9053033855831
 30
0.0
 11
99.96715003917094
 21
172.9053033855831
 31
0.0
  0
LINE
  5
2866
330
2696
100
AcDbEntity
  8
0
 62
     0
 48
10.0
100
AcDbLine
 10
101.7129703320036
 20
171.7930931963052
 30
0.0
 11
101.7129703320036
 21
171.7930931963052
 31
0.0
  0
LINE
  5
2867
330
2696
100
AcDbEntity
  8
0
 62
     0
 48
10.0
100
AcDbLine
 10
102.13466605491
 20
171.5244433921318
 30
0.0
 11
102.13466605491
 21
171.5244433921318
 31
0.0
  0
LINE
  5
2868
330
2696
100
AcDbEntity
  8
0
 62
     0
 48
10.0
100
AcDbLine
 10
101.0347949115156
 20
172.8601936421144
 30
0.0
 11
101.0347949115156
 21
172.8601936421144
 31
0.0
  0
LINE
  5
2869
330
2696
100
AcDbEntity
  8
0
 62
     0
 48
10.0
100
AcDbLine
 10
102.7806152043483
 20
171.7479834528364
 30
0.0
 11
102.7806152043483
 21
171.7479834528364
 31
0.0
  0
LINE
  5
286A
330
2696
100
AcDbEntity
  8
0
 62
     0
 48
10.0
100
AcDbLine
 10
102.1024397838605
 20
172.8150838986456
 30
0.0
 11
102.1024397838605
 21
172.8150838986456
 31
0.0
  0
LINE
  5
286B
330
2696
100
AcDbEntity
  8
0
 62
     0
 48
10.0
100
AcDbLine
 10
99.07057982331462
 20
167.7609861225793
 30
0.0
 11
99.07057982331462
 21
167.7609861225793
 31
0.0
  0
LINE
  5
286C
330
2696
100
AcDbEntity
  8
0
 62
     0
 48
10.0
100
AcDbLine
 10
99.49227554622106
 20
167.4923363184059
 30
0.0
 11
99.49227554622106
 21
167.4923363184059
 31
0.0
  0
LINE
  5
286D
330
2696
100
AcDbEntity
  8
0
 62
     0
 48
10.0
100
AcDbLine
 10
100.8079662016892
 20
166.6541489293848
 30
0.0
 11
100.8079662016892
 21
166.6541489293848
 31
0.0
  0
LINE
  5
286E
330
2696
100
AcDbEntity
  8
0
 62
     0
 48
10.0
100
AcDbLine
 10
102.5537864945218
 20
165.5419387401069
 30
0.0
 11
102.5537864945218
 21
165.5419387401069
 31
0.0
  0
LINE
  5
286F
330
2696
100
AcDbEntity
  8
0
 62
     0
 48
10.0
100
AcDbLine
 10
102.9754822174283
 20
165.2732889359335
 30
0.0
 11
102.9754822174283
 21
165.2732889359335
 31
0.0
  0
LINE
  5
2870
330
2696
100
AcDbEntity
  8
0
 62
     0
 48
10.0
100
AcDbLine
 10
98.42463067387638
 20
167.5374460618746
 30
0.0
 11
98.42463067387638
 21
167.5374460618746
 31
0.0
  0
LINE
  5
2871
330
2696
100
AcDbEntity
  8
0
 62
     0
 48
10.0
100
AcDbLine
 10
99.74032132934448
 20
166.6992586728535
 30
0.0
 11
99.74032132934448
 21
166.6992586728535
 31
0.0
  0
LINE
  5
2872
330
2696
100
AcDbEntity
  8
0
 62
     0
 48
10.0
100
AcDbLine
 10
101.4861416221771
 20
165.5870484835756
 30
0.0
 11
101.4861416221771
 21
165.5870484835756
 31
0.0
  0
LINE
  5
2873
330
2696
100
AcDbEntity
  8
0
 62
     0
 48
10.0
100
AcDbLine
 10
101.9078373450835
 20
165.3183986794022
 30
0.0
 11
101.9078373450835
 21
165.3183986794022
 31
0.0
  0
LINE
  5
2874
330
2696
100
AcDbEntity
  8
0
 62
     0
 48
10.0
100
AcDbLine
 10
103.2235280005517
 20
164.4802112903811
 30
0.0
 11
103.2235280005517
 21
164.4802112903811
 31
0.0
  0
LINE
  5
2875
330
2696
100
AcDbEntity
  8
0
 62
     0
 48
10.0
100
AcDbLine
 10
98.67267645699962
 20
166.7443684163223
 30
0.0
 11
98.67267645699962
 21
166.7443684163223
 31
0.0
  0
LINE
  5
2876
330
2696
100
AcDbEntity
  8
0
 62
     0
 48
10.0
100
AcDbLine
 10
100.4184967498322
 20
165.6321582270444
 30
0.0
 11
100.4184967498322
 21
165.6321582270444
 31
0.0
  0
LINE
  5
2877
330
2696
100
AcDbEntity
  8
0
 62
     0
 48
10.0
100
AcDbLine
 10
100.8401924727387
 20
165.3635084228709
 30
0.0
 11
100.8401924727387
 21
165.3635084228709
 31
0.0
  0
LINE
  5
2878
330
2696
100
AcDbEntity
  8
0
 62
     0
 48
10.0
100
AcDbLine
 10
102.1558831282068
 20
164.5253210338499
 30
0.0
 11
102.1558831282068
 21
164.5253210338499
 31
0.0
  0
LINE
  5
2879
330
2696
100
AcDbEntity
  8
0
 62
     0
 48
10.0
100
AcDbLine
 10
99.35085187748747
 20
165.6772679705132
 30
0.0
 11
99.35085187748747
 21
165.6772679705132
 31
0.0
  0
LINE
  5
287A
330
2696
100
AcDbEntity
  8
0
 62
     0
 48
10.0
100
AcDbLine
 10
99.77254760039393
 20
165.4086181663398
 30
0.0
 11
99.77254760039393
 21
165.4086181663398
 31
0.0
  0
LINE
  5
287B
330
2696
100
AcDbEntity
  8
0
 62
     0
 48
10.0
100
AcDbLine
 10
101.088238255862
 20
164.5704307773187
 30
0.0
 11
101.088238255862
 21
164.5704307773187
 31
0.0
  0
LINE
  5
287C
330
2696
100
AcDbEntity
  8
0
 62
     0
 48
10.0
100
AcDbLine
 10
102.8340585486946
 20
163.4582205880408
 30
0.0
 11
102.8340585486946
 21
163.4582205880408
 31
0.0
  0
LINE
  5
287D
330
2696
100
AcDbEntity
  8
0
 62
     0
 48
10.0
100
AcDbLine
 10
103.2557542716011
 20
163.1895707838674
 30
0.0
 11
103.2557542716011
 21
163.1895707838674
 31
0.0
  0
LINE
  5
287E
330
2696
100
AcDbEntity
  8
0
 62
     0
 48
10.0
100
AcDbLine
 10
98.28320700514268
 20
165.7223777139819
 30
0.0
 11
98.28320700514268
 21
165.7223777139819
 31
0.0
  0
LINE
  5
287F
330
2696
100
AcDbEntity
  8
0
 62
     0
 48
10.0
100
AcDbLine
 10
98.70490272804914
 20
165.4537279098085
 30
0.0
 11
98.70490272804914
 21
165.4537279098085
 31
0.0
  0
LINE
  5
2880
330
2696
100
AcDbEntity
  8
0
 62
     0
 48
10.0
100
AcDbLine
 10
100.0205933835172
 20
164.6155405207874
 30
0.0
 11
100.0205933835172
 21
164.6155405207874
 31
0.0
  0
LINE
  5
2881
330
2696
100
AcDbEntity
  8
0
 62
     0
 48
10.0
100
AcDbLine
 10
101.7664136763499
 20
163.5033303315095
 30
0.0
 11
101.7664136763499
 21
163.5033303315095
 31
0.0
  0
LINE
  5
2882
330
2696
100
AcDbEntity
  8
0
 62
     0
 48
10.0
100
AcDbLine
 10
102.1881093992563
 20
163.2346805273361
 30
0.0
 11
102.1881093992563
 21
163.2346805273361
 31
0.0
  0
LINE
  5
2883
330
2696
100
AcDbEntity
  8
0
 62
     0
 48
10.0
100
AcDbLine
 10
103.5038000547244
 20
162.396493138315
 30
0.0
 11
103.5038000547244
 21
162.396493138315
 31
0.0
  0
LINE
  5
2884
330
2696
100
AcDbEntity
  8
0
 62
     0
 48
10.0
100
AcDbLine
 10
98.95294851117235
 20
164.6606502642562
 30
0.0
 11
98.95294851117235
 21
164.6606502642562
 31
0.0
  0
LINE
  5
2885
330
2696
100
AcDbEntity
  8
0
 62
     0
 48
10.0
100
AcDbLine
 10
100.698768804005
 20
163.5484400749783
 30
0.0
 11
100.698768804005
 21
163.5484400749783
 31
0.0
  0
LINE
  5
2886
330
2696
100
AcDbEntity
  8
0
 62
     0
 48
10.0
100
AcDbLine
 10
101.1204645269114
 20
163.2797902708049
 30
0.0
 11
101.1204645269114
 21
163.2797902708049
 31
0.0
  0
LINE
  5
2887
330
2696
100
AcDbEntity
  8
0
 62
     0
 48
10.0
100
AcDbLine
 10
102.4361551823795
 20
162.4416028817838
 30
0.0
 11
102.4361551823795
 21
162.4416028817838
 31
0.0
  0
LINE
  5
2888
330
2696
100
AcDbEntity
  8
0
 62
     0
 48
10.0
100
AcDbLine
 10
97.88530363882754
 20
164.705760007725
 30
0.0
 11
97.88530363882754
 21
164.705760007725
 31
0.0
  0
LINE
  5
2889
330
2696
100
AcDbEntity
  8
0
 62
     0
 48
10.0
100
AcDbLine
 10
99.63112393166021
 20
163.593549818447
 30
0.0
 11
99.63112393166021
 21
163.593549818447
 31
0.0
  0
LINE
  5
288A
330
2696
100
AcDbEntity
  8
0
 62
     0
 48
10.0
100
AcDbLine
 10
100.0528196545666
 20
163.3249000142736
 30
0.0
 11
100.0528196545666
 21
163.3249000142736
 31
0.0
  0
LINE
  5
288B
330
2696
100
AcDbEntity
  8
0
 62
     0
 48
10.0
100
AcDbLine
 10
101.3685103100347
 20
162.4867126252526
 30
0.0
 11
101.3685103100347
 21
162.4867126252526
 31
0.0
  0
LINE
  5
288C
330
2696
100
AcDbEntity
  8
0
 62
     0
 48
10.0
100
AcDbLine
 10
98.56347905931544
 20
163.6386595619158
 30
0.0
 11
98.56347905931544
 21
163.6386595619158
 31
0.0
  0
LINE
  5
288D
330
2696
100
AcDbEntity
  8
0
 62
     0
 48
10.0
100
AcDbLine
 10
98.98517478222188
 20
163.3700097577424
 30
0.0
 11
98.98517478222188
 21
163.3700097577424
 31
0.0
  0
LINE
  5
288E
330
2696
100
AcDbEntity
  8
0
 62
     0
 48
10.0
100
AcDbLine
 10
100.3008654376899
 20
162.5318223687214
 30
0.0
 11
100.3008654376899
 21
162.5318223687214
 31
0.0
  0
LINE
  5
288F
330
2696
100
AcDbEntity
  8
0
 62
     0
 48
10.0
100
AcDbLine
 10
102.0466857305226
 20
161.4196121794434
 30
0.0
 11
102.0466857305226
 21
161.4196121794434
 31
0.0
  0
LINE
  5
2890
330
2696
100
AcDbEntity
  8
0
 62
     0
 48
10.0
100
AcDbLine
 10
97.91752990987703
 20
163.4151195012111
 30
0.0
 11
97.91752990987703
 21
163.4151195012111
 31
0.0
  0
LINE
  5
2891
330
2696
100
AcDbEntity
  8
0
 62
     0
 48
10.0
100
AcDbLine
 10
99.23322056534514
 20
162.5769321121901
 30
0.0
 11
99.23322056534514
 21
162.5769321121901
 31
0.0
  0
LINE
  5
2892
330
2696
100
AcDbEntity
  8
0
 62
     0
 48
10.0
100
AcDbLine
 10
100.9790408581778
 20
161.4647219229122
 30
0.0
 11
100.9790408581778
 21
161.4647219229122
 31
0.0
  0
LINE
  5
2893
330
2696
100
AcDbEntity
  8
0
 62
     0
 48
10.0
100
AcDbLine
 10
98.16557569300028
 20
162.6220418556589
 30
0.0
 11
98.16557569300028
 21
162.6220418556589
 31
0.0
  0
LINE
  5
2894
330
2696
100
AcDbEntity
  8
0
 62
     0
 48
10.0
100
AcDbLine
 10
99.91139598583295
 20
161.509831666381
 30
0.0
 11
99.91139598583295
 21
161.509831666381
 31
0.0
  0
LINE
  5
2895
330
2696
100
AcDbEntity
  8
0
 62
     0
 48
10.0
100
AcDbLine
 10
98.84375111348818
 20
161.5549414098497
 30
0.0
 11
98.84375111348818
 21
161.5549414098497
 31
0.0
  0
LINE
  5
2896
330
2696
100
AcDbEntity
  8
0
 62
     0
 48
10.0
100
AcDbLine
 10
97.77610624114331
 20
161.6000511533184
 30
0.0
 11
97.77610624114331
 21
161.6000511533184
 31
0.0
  0
LINE
  5
2897
330
2696
100
AcDbEntity
  8
0
 62
     0
 48
10.0
100
AcDbLine
 10
98.84949293201328
 20
168.9728044703517
 30
0.0
 11
98.84949293201328
 21
168.9728044703517
 31
0.0
  0
LINE
  5
2898
330
2696
100
AcDbEntity
  8
0
 62
     0
 48
10.0
100
AcDbLine
 10
99.32872320093986
 20
168.5336708354015
 30
0.0
 11
99.32872320093986
 21
168.5336708354015
 31
0.0
  0
LINE
  5
2899
330
2696
100
AcDbEntity
  8
0
 62
     0
 48
10.0
100
AcDbLine
 10
100.0925425218751
 20
167.8337593803117
 30
0.0
 11
100.0925425218751
 21
167.8337593803117
 31
0.0
  0
LINE
  5
289A
330
2696
100
AcDbEntity
  8
0
 62
     0
 48
10.0
100
AcDbLine
 10
101.176340206986
 20
166.8406417751166
 30
0.0
 11
101.176340206986
 21
166.8406417751166
 31
0.0
  0
LINE
  5
289B
330
2696
100
AcDbEntity
  8
0
 62
     0
 48
10.0
100
AcDbLine
 10
101.6555704759126
 20
166.4015081401664
 30
0.0
 11
101.6555704759126
 21
166.4015081401664
 31
0.0
  0
LINE
  5
289C
330
2696
100
AcDbEntity
  8
0
 62
     0
 48
10.0
100
AcDbLine
 10
102.4193897968478
 20
165.7015966850766
 30
0.0
 11
102.4193897968478
 21
165.7015966850766
 31
0.0
  0
LINE
  5
289D
330
2696
100
AcDbEntity
  8
0
 62
     0
 48
10.0
100
AcDbLine
 10
103.5031874819587
 20
164.7084790798816
 30
0.0
 11
103.5031874819587
 21
164.7084790798816
 31
0.0
  0
LINE
  5
289E
330
2696
100
AcDbEntity
  8
0
 62
     0
 48
10.0
100
AcDbLine
 10
98.93206758558715
 20
170.1661320402113
 30
0.0
 11
98.93206758558715
 21
170.1661320402113
 31
0.0
  0
LINE
  5
289F
330
2696
100
AcDbEntity
  8
0
 62
     0
 48
10.0
100
AcDbLine
 10
100.015865270698
 20
169.1730144350163
 30
0.0
 11
100.015865270698
 21
169.1730144350163
 31
0.0
  0
LINE
  5
28A0
330
2696
100
AcDbEntity
  8
0
 62
     0
 48
10.0
100
AcDbLine
 10
100.4950955396246
 20
168.7338808000661
 30
0.0
 11
100.4950955396246
 21
168.7338808000661
 31
0.0
  0
LINE
  5
28A1
330
2696
100
AcDbEntity
  8
0
 62
     0
 48
10.0
100
AcDbLine
 10
101.2589148605598
 20
168.0339693449762
 30
0.0
 11
101.2589148605598
 21
168.0339693449762
 31
0.0
  0
LINE
  5
28A2
330
2696
100
AcDbEntity
  8
0
 62
     0
 48
10.0
100
AcDbLine
 10
102.3427125456707
 20
167.0408517397812
 30
0.0
 11
102.3427125456707
 21
167.0408517397812
 31
0.0
  0
LINE
  5
28A3
330
2696
100
AcDbEntity
  8
0
 62
     0
 48
10.0
100
AcDbLine
 10
102.8219428145973
 20
166.6017181048311
 30
0.0
 11
102.8219428145973
 21
166.6017181048311
 31
0.0
  0
LINE
  5
28A4
330
2696
100
AcDbEntity
  8
0
 62
     0
 48
10.0
100
AcDbLine
 10
98.85539033441011
 20
171.5053870949159
 30
0.0
 11
98.85539033441011
 21
171.5053870949159
 31
0.0
  0
LINE
  5
28A5
330
2696
100
AcDbEntity
  8
0
 62
     0
 48
10.0
100
AcDbLine
 10
99.33462060333669
 20
171.0662534599658
 30
0.0
 11
99.33462060333669
 21
171.0662534599658
 31
0.0
  0
LINE
  5
28A6
330
2696
100
AcDbEntity
  8
0
 62
     0
 48
10.0
100
AcDbLine
 10
100.0984399242719
 20
170.366342004876
 30
0.0
 11
100.0984399242719
 21
170.366342004876
 31
0.0
  0
LINE
  5
28A7
330
2696
100
AcDbEntity
  8
0
 62
     0
 48
10.0
100
AcDbLine
 10
101.1822376093828
 20
169.3732243996809
 30
0.0
 11
101.1822376093828
 21
169.3732243996809
 31
0.0
  0
LINE
  5
28A8
330
2696
100
AcDbEntity
  8
0
 62
     0
 48
10.0
100
AcDbLine
 10
101.6614678783094
 20
168.9340907647307
 30
0.0
 11
101.6614678783094
 21
168.9340907647307
 31
0.0
  0
LINE
  5
28A9
330
2696
100
AcDbEntity
  8
0
 62
     0
 48
10.0
100
AcDbLine
 10
102.4252871992447
 20
168.2341793096409
 30
0.0
 11
102.4252871992447
 21
168.2341793096409
 31
0.0
  0
LINE
  5
28AA
330
2696
100
AcDbEntity
  8
0
 62
     0
 48
10.0
100
AcDbLine
 10
98.93796498798401
 20
172.6987146647756
 30
0.0
 11
98.93796498798401
 21
172.6987146647756
 31
0.0
  0
LINE
  5
28AB
330
2696
100
AcDbEntity
  8
0
 62
     0
 48
10.0
100
AcDbLine
 10
100.0217626730948
 20
171.7055970595806
 30
0.0
 11
100.0217626730948
 21
171.7055970595806
 31
0.0
  0
LINE
  5
28AC
330
2696
100
AcDbEntity
  8
0
 62
     0
 48
10.0
100
AcDbLine
 10
100.5009929420214
 20
171.2664634246304
 30
0.0
 11
100.5009929420214
 21
171.2664634246304
 31
0.0
  0
LINE
  5
28AD
330
2696
100
AcDbEntity
  8
0
 62
     0
 48
10.0
100
AcDbLine
 10
101.2648122629567
 20
170.5665519695406
 30
0.0
 11
101.2648122629567
 21
170.5665519695406
 31
0.0
  0
LINE
  5
28AE
330
2696
100
AcDbEntity
  8
0
 62
     0
 48
10.0
100
AcDbLine
 10
102.3486099480675
 20
169.5734343643455
 30
0.0
 11
102.3486099480675
 21
169.5734343643455
 31
0.0
  0
LINE
  5
28AF
330
2696
100
AcDbEntity
  8
0
 62
     0
 48
10.0
100
AcDbLine
 10
102.8278402169941
 20
169.1343007293954
 30
0.0
 11
102.8278402169941
 21
169.1343007293954
 31
0.0
  0
LINE
  5
28B0
330
2696
100
AcDbEntity
  8
0
 62
     0
 48
10.0
100
AcDbLine
 10
100.1043373266687
 20
172.8989246294402
 30
0.0
 11
100.1043373266687
 21
172.8989246294402
 31
0.0
  0
LINE
  5
28B1
330
2696
100
AcDbEntity
  8
0
 62
     0
 48
10.0
100
AcDbLine
 10
101.1881350117796
 20
171.9058070242452
 30
0.0
 11
101.1881350117796
 21
171.9058070242452
 31
0.0
  0
LINE
  5
28B2
330
2696
100
AcDbEntity
  8
0
 62
     0
 48
10.0
100
AcDbLine
 10
101.6673652807062
 20
171.4666733892951
 30
0.0
 11
101.6673652807062
 21
171.4666733892951
 31
0.0
  0
LINE
  5
28B3
330
2696
100
AcDbEntity
  8
0
 62
     0
 48
10.0
100
AcDbLine
 10
102.4311846016414
 20
170.7667619342052
 30
0.0
 11
102.4311846016414
 21
170.7667619342052
 31
0.0
  0
LINE
  5
28B4
330
2696
100
AcDbEntity
  8
0
 62
     0
 48
10.0
100
AcDbLine
 10
101.2707096653535
 20
173.0991345941049
 30
0.0
 11
101.2707096653535
 21
173.0991345941049
 31
0.0
  0
LINE
  5
28B5
330
2696
100
AcDbEntity
  8
0
 62
     0
 48
10.0
100
AcDbLine
 10
102.3545073504643
 20
172.1060169889099
 30
0.0
 11
102.3545073504643
 21
172.1060169889099
 31
0.0
  0
LINE
  5
28B6
330
2696
100
AcDbEntity
  8
0
 62
     0
 48
10.0
100
AcDbLine
 10
102.8337376193909
 20
171.6668833539597
 30
0.0
 11
102.8337376193909
 21
171.6668833539597
 31
0.0
  0
LINE
  5
28B7
330
2696
100
AcDbEntity
  8
0
 62
     0
 48
10.0
100
AcDbLine
 10
102.4370820040383
 20
173.2993445587695
 30
0.0
 11
102.4370820040383
 21
173.2993445587695
 31
0.0
  0
LINE
  5
28B8
330
2696
100
AcDbEntity
  8
0
 62
     0
 48
10.0
100
AcDbLine
 10
98.92617018319038
 20
167.633549415647
 30
0.0
 11
98.92617018319038
 21
167.633549415647
 31
0.0
  0
LINE
  5
28B9
330
2696
100
AcDbEntity
  8
0
 62
     0
 48
10.0
100
AcDbLine
 10
100.0099678683012
 20
166.640431810452
 30
0.0
 11
100.0099678683012
 21
166.640431810452
 31
0.0
  0
LINE
  5
28BA
330
2696
100
AcDbEntity
  8
0
 62
     0
 48
10.0
100
AcDbLine
 10
100.4891981372278
 20
166.2012981755018
 30
0.0
 11
100.4891981372278
 21
166.2012981755018
 31
0.0
  0
LINE
  5
28BB
330
2696
100
AcDbEntity
  8
0
 62
     0
 48
10.0
100
AcDbLine
 10
101.2530174581631
 20
165.501386720412
 30
0.0
 11
101.2530174581631
 21
165.501386720412
 31
0.0
  0
LINE
  5
28BC
330
2696
100
AcDbEntity
  8
0
 62
     0
 48
10.0
100
AcDbLine
 10
102.336815143274
 20
164.508269115217
 30
0.0
 11
102.336815143274
 21
164.508269115217
 31
0.0
  0
LINE
  5
28BD
330
2696
100
AcDbEntity
  8
0
 62
     0
 48
10.0
100
AcDbLine
 10
102.8160454122005
 20
164.0691354802668
 30
0.0
 11
102.8160454122005
 21
164.0691354802668
 31
0.0
  0
LINE
  5
28BE
330
2696
100
AcDbEntity
  8
0
 62
     0
 48
10.0
100
AcDbLine
 10
103.5798647331358
 20
163.369224025177
 30
0.0
 11
103.5798647331358
 21
163.369224025177
 31
0.0
  0
LINE
  5
28BF
330
2696
100
AcDbEntity
  8
0
 62
     0
 48
10.0
100
AcDbLine
 10
98.84359552961649
 20
166.4402218457874
 30
0.0
 11
98.84359552961649
 21
166.4402218457874
 31
0.0
  0
LINE
  5
28C0
330
2696
100
AcDbEntity
  8
0
 62
     0
 48
10.0
100
AcDbLine
 10
99.32282579854309
 20
166.0010882108372
 30
0.0
 11
99.32282579854309
 21
166.0010882108372
 31
0.0
  0
LINE
  5
28C1
330
2696
100
AcDbEntity
  8
0
 62
     0
 48
10.0
100
AcDbLine
 10
100.0866451194783
 20
165.3011767557474
 30
0.0
 11
100.0866451194783
 21
165.3011767557474
 31
0.0
  0
LINE
  5
28C2
330
2696
100
AcDbEntity
  8
0
 62
     0
 48
10.0
100
AcDbLine
 10
101.1704428045892
 20
164.3080591505523
 30
0.0
 11
101.1704428045892
 21
164.3080591505523
 31
0.0
  0
LINE
  5
28C3
330
2696
100
AcDbEntity
  8
0
 62
     0
 48
10.0
100
AcDbLine
 10
101.6496730735158
 20
163.8689255156022
 30
0.0
 11
101.6496730735158
 21
163.8689255156022
 31
0.0
  0
LINE
  5
28C4
330
2696
100
AcDbEntity
  8
0
 62
     0
 48
10.0
100
AcDbLine
 10
102.4134923944511
 20
163.1690140605124
 30
0.0
 11
102.4134923944511
 21
163.1690140605124
 31
0.0
  0
LINE
  5
28C5
330
2696
100
AcDbEntity
  8
0
 62
     0
 48
10.0
100
AcDbLine
 10
103.4972900795619
 20
162.1758964553174
 30
0.0
 11
103.4972900795619
 21
162.1758964553174
 31
0.0
  0
LINE
  5
28C6
330
2696
100
AcDbEntity
  8
0
 62
     0
 48
10.0
100
AcDbLine
 10
98.15645345985831
 20
165.8008782461725
 30
0.0
 11
98.15645345985831
 21
165.8008782461725
 31
0.0
  0
LINE
  5
28C7
330
2696
100
AcDbEntity
  8
0
 62
     0
 48
10.0
100
AcDbLine
 10
98.9202727807936
 20
165.1009667910827
 30
0.0
 11
98.9202727807936
 21
165.1009667910827
 31
0.0
  0
LINE
  5
28C8
330
2696
100
AcDbEntity
  8
0
 62
     0
 48
10.0
100
AcDbLine
 10
100.0040704659044
 20
164.1078491858877
 30
0.0
 11
100.0040704659044
 21
164.1078491858877
 31
0.0
  0
LINE
  5
28C9
330
2696
100
AcDbEntity
  8
0
 62
     0
 48
10.0
100
AcDbLine
 10
100.483300734831
 20
163.6687155509375
 30
0.0
 11
100.483300734831
 21
163.6687155509375
 31
0.0
  0
LINE
  5
28CA
330
2696
100
AcDbEntity
  8
0
 62
     0
 48
10.0
100
AcDbLine
 10
101.2471200557663
 20
162.9688040958477
 30
0.0
 11
101.2471200557663
 21
162.9688040958477
 31
0.0
  0
LINE
  5
28CB
330
2696
100
AcDbEntity
  8
0
 62
     0
 48
10.0
100
AcDbLine
 10
102.3309177408772
 20
161.9756864906527
 30
0.0
 11
102.3309177408772
 21
161.9756864906527
 31
0.0
  0
LINE
  5
28CC
330
2696
100
AcDbEntity
  8
0
 62
     0
 48
10.0
100
AcDbLine
 10
102.8101480098037
 20
161.5365528557025
 30
0.0
 11
102.8101480098037
 21
161.5365528557025
 31
0.0
  0
LINE
  5
28CD
330
2696
100
AcDbEntity
  8
0
 62
     0
 48
10.0
100
AcDbLine
 10
98.8376981272197
 20
163.907639221223
 30
0.0
 11
98.8376981272197
 21
163.907639221223
 31
0.0
  0
LINE
  5
28CE
330
2696
100
AcDbEntity
  8
0
 62
     0
 48
10.0
100
AcDbLine
 10
99.31692839614628
 20
163.4685055862729
 30
0.0
 11
99.31692839614628
 21
163.4685055862729
 31
0.0
  0
LINE
  5
28CF
330
2696
100
AcDbEntity
  8
0
 62
     0
 48
10.0
100
AcDbLine
 10
100.0807477170815
 20
162.7685941311831
 30
0.0
 11
100.0807477170815
 21
162.7685941311831
 31
0.0
  0
LINE
  5
28D0
330
2696
100
AcDbEntity
  8
0
 62
     0
 48
10.0
100
AcDbLine
 10
101.1645454021924
 20
161.775476525988
 30
0.0
 11
101.1645454021924
 21
161.775476525988
 31
0.0
  0
LINE
  5
28D1
330
2696
100
AcDbEntity
  8
0
 62
     0
 48
10.0
100
AcDbLine
 10
98.15055605746151
 20
163.2682956216082
 30
0.0
 11
98.15055605746151
 21
163.2682956216082
 31
0.0
  0
LINE
  5
28D2
330
2696
100
AcDbEntity
  8
0
 62
     0
 48
10.0
100
AcDbLine
 10
98.91437537839678
 20
162.5683841665184
 30
0.0
 11
98.91437537839678
 21
162.5683841665184
 31
0.0
  0
LINE
  5
28D3
330
2696
100
AcDbEntity
  8
0
 62
     0
 48
10.0
100
AcDbLine
 10
99.99817306350767
 20
161.5752665613234
 30
0.0
 11
99.99817306350767
 21
161.5752665613234
 31
0.0
  0
LINE
  5
28D4
330
2696
100
AcDbEntity
  8
0
 62
     0
 48
10.0
100
AcDbLine
 10
97.74800303971204
 20
162.3681742018538
 30
0.0
 11
97.74800303971204
 21
162.3681742018538
 31
0.0
  0
ENDBLK
  5
28D6
330
2696
100
AcDbEntity
  8
0
 48
10.0
100
AcDbBlockEnd
  0
ENDSEC
  0
SECTION
  2
ENTITIES
  0
MTEXT
  5
1C2
330
2
100
AcDbEntity
  8
BEM
 48
10.0
100
AcDbMText
 10
457.9302800175508
 20
202.179276141615
 30
0.0
 40
10.0
 41
0.0
 71
     6
 72
     1
  1
\A1;
1001
ACAD
1000
MTEXTBEGIN
1070
    73
1070
     1
1070
    44
1040
1.0
1070
    74
1070
     0
1000
MTEXTEND
  0
MTEXT
  5
1F2
330
2
100
AcDbEntity
  8
BEM
 48
10.0
100
AcDbMText
 10
613.0433420937672
 20
186.1266045212951
 30
0.0
 40
10.0
 41
0.0
 71
     4
 72
     1
  1
\A1;
1001
ACAD
1000
MTEXTBEGIN
1070
    73
1070
     1
1070
    44
1040
1.0
1070
    74
1070
     0
1000
MTEXTEND
  0
MTEXT
  5
D23
330
2
100
AcDbEntity
  8
BEM
 48
10.0
100
AcDbMText
 10
628.1735689389818
 20
-952.5232742439497
 30
0.0
 40
10.0
 41
0.0
 71
     4
 72
     1
  1
\A1;
1001
ACAD
1000
MTEXTBEGIN
1070
    73
1070
     1
1070
    44
1040
1.0
1070
    74
1070
     0
1000
MTEXTEND
  0
LINE
  5
140A
330
2
100
AcDbEntity
  8
0
100
AcDbLine
 10
710.7755172758039
 20
373.6245360919884
 30
0.0
 11
851.2070147583253
 21
373.6245360919884
 31
0.0
1001
ACAD
1000
ASC_BOUNDS
1002
{
1070
    19
1002
}
  0
LINE
  5
140B
330
2
100
AcDbEntity
  8
MITTE
 48
15.0
100
AcDbLine
 10
631.4647862988086
 20
312.6245360919883
 30
0.0
 11
974.9548977570539
 21
312.6245360919883
 31
0.0
  0
LINE
  5
140C
330
2
100
AcDbEntity
  8
0
100
AcDbLine
 10
710.7755172758039
 20
251.6245360919883
 30
0.0
 11
720.2070147583254
 21
251.6245360919883
 31
0.0
1001
ACAD
1000
ASC_BOUNDS
1002
{
1070
    19
1002
}
  0
LINE
  5
140D
330
2
100
AcDbEntity
  8
0
100
AcDbLine
 10
708.7070147583253
 20
243.6245360919883
 30
0.0
 11
791.2070147583253
 21
243.6245360919883
 31
0.0
1001
ACAD
1000
ASC_BOUNDS
1002
{
1070
    19
1002
}
  0
ARC
  5
1415
330
2
100
AcDbEntity
  8
0
100
AcDbCircle
 10
264.9377418213362
 20
312.6245360919883
 30
0.0
 40
61.0
100
AcDbArc
 50
203.3712029743099
 51
336.62879702569
  0
HATCH
  5
1416
330
2
100
AcDbEntity
  8
LINIE
 48
10.0
100
AcDbHatch
 10
0.0
 20
0.0
 30
0.0
210
0.0
220
0.0
230
1.0
  2
AR-CONC
 70
     0
 71
     0
 91
        4
 92
        7
 72
     1
 73
     1
 93
        6
 10
316.4216488141742
 20
277.3745360919883
 42
0.0
 10
314.721649863996
 20
277.3745360919883
 42
-0.243307867483704
 10
264.9377418213363
 20
251.6245360919883
 42
0.0
 10
264.9377418213363
 20
242.6245360919883
 42
0.0
 10
285.215867358254
 20
242.6245360919883
 42
0.1804963181033816
 10
291.7667131240246
 20
245.0689805364327
 42
0.1026679893051984
 97
        0
 92
        7
 72
     1
 73
     1
 93
        6
 10
264.9377418213363
 20
251.6245360919883
 42
-0.2433078674837039
 10
215.1538337786766
 20
277.3745360919883
 42
0.0
 10
213.4538348284984
 20
277.3745360919883
 42
0.1026679893051985
 10
238.108770518648
 20
245.0689805364327
 42
0.1804963181033798
 10
244.6596162844185
 20
242.6245360919883
 42
0.0
 10
264.9377418213363
 20
242.6245360919883
 42
0.0
 97
        0
 92
        7
 72
     1
 73
     1
 93
        6
 10
264.9377418213363
 20
242.6245360919883
 42
0.0
 10
239.9377418213363
 20
242.6245360919883
 42
-0.4142135623730951
 10
242.4377418213363
 20
240.1245360919883
 42
0.0
 10
242.4377418213363
 20
232.1245360919883
 42
0.0503820444849776
 10
242.4882520785534
 20
231.6245360919874
 42
0.0
 10
264.9377418213363
 20
231.6245360919874
 42
0.0
 97
        0
 92
        7
 72
     1
 73
     1
 93
        6
 10
287.4377418213363
 20
240.1245360919883
 42
-0.4142135623730951
 10
289.9377418213363
 20
242.6245360919883
 42
0.0
 10
264.9377418213363
 20
242.6245360919883
 42
0.0
 10
264.9377418213363
 20
231.6245360919874
 42
0.0
 10
287.3872315641193
 20
231.6245360919874
 42
0.0503820444849763
 10
287.4377418213363
 20
232.1245360919883
 42
0.0
 97
        0
 75
     0
 76
     1
 52
0.0
 41
1.0
 77
     0
 78
    13
 53
50.0
 43
304.3060002322794
 44
-13.08517362976499
 45
7.172601826007534
 46
-0.6275213498259511
 79
     2
 49
0.75
 49
-8.25
 53
355.0
 43
304.3060002322794
 44
-13.08517362976499
 45
-1.38751333613
 46
7.521921337000118
 79
     2
 49
0.6
 49
-6.599999999999999
 53
100.4513999999999
 43
304.9037170322793
 44
-13.13746702976504
 45
5.785093817140215
 46
6.894395420609535
 79
     2
 49
0.6374018999999991
 49
-7.011421119999991
 53
46.1842
 43
304.3060002322794
 44
-11.08517362976499
 45
10.67241048625644
 46
-1.65519014329018
 79
     2
 49
1.125
 49
-12.375
 53
96.63559999999998
 43
305.1953676822794
 44
-11.22310669976513
 45
9.346627055487033
 46
9.741178709004417
 79
     2
 49
0.9561028799999988
 49
-10.51712999999998
 53
351.1842
 43
304.3060002322794
 44
-11.08517362976499
 45
9.346619451336271
 46
9.741186009253246
 79
     2
 49
0.9
 49
-9.9
 53
21.0
 43
305.3060002322794
 44
-11.58517362976499
 45
5.969070521184616
 46
-4.026188906653388
 79
     2
 49
0.75
 49
-8.25
 53
326.0
 43
305.3060002322794
 44
-11.58517362976499
 45
2.433153319215817
 46
7.25150045046853
 79
     2
 49
0.6
 49
-6.599999999999999
 53
71.45140000000001
 43
305.8034225622793
 44
-11.92068968976514
 45
8.402226285814899
 46
3.225304967099523
 79
     2
 49
0.6374019000000001
 49
-7.011421119999999
 53
37.5
 43
304.3060002322794
 44
-13.08517362976499
 45
0.1215985531729067
 46
3.328938538313114
 79
     6
 49
0.0
 49
-6.519999999999999
 49
0.0
 49
-6.7
 49
0.0
 49
-6.625
 53
7.499999999999999
 43
304.3060002322794
 44
-13.08517362976499
 45
2.630695374421486
 46
3.944117118823602
 79
     6
 49
0.0
 49
-3.819999999999999
 49
0.0
 49
-6.37
 49
0.0
 49
-2.524999999999999
 53
327.4999999999999
 43
302.0760002322794
 44
-13.08517362976499
 45
5.33822436172409
 46
-0.225548717343798
 79
     6
 49
0.0
 49
-2.5
 49
0.0
 49
-7.799999999999999
 49
0.0
 49
-10.34999999999999
 53
317.5
 43
301.0760002322793
 44
-13.08517362976499
 45
5.831861693423862
 46
1.001049823323176
 79
     6
 49
0.0
 49
-3.25
 49
0.0
 49
-5.179999999999999
 49
0.0
 49
-7.349999999999999
 47
0.2899962470445532
 98
        4
 10
285.4090054776914
 20
249.4009379251479
 10
254.3688355336001
 20
249.1109409807709
 10
259.010356629942
 20
237.5110924936539
 10
277.5764380766085
 20
234.0311375291193
  0
CIRCLE
  5
1417
330
2
100
AcDbEntity
  8
0
100
AcDbCircle
 10
264.9377418213362
 20
312.6245360919883
 30
0.0
 40
47.5
  0
CIRCLE
  5
1418
330
2
100
AcDbEntity
  8
0
100
AcDbCircle
 10
264.9377418213362
 20
312.6245360919883
 30
0.0
 40
45.49999999999999
  0
CIRCLE
  5
1419
330
2
100
AcDbEntity
  8
MITTE
 48
10.0
100
AcDbCircle
 10
264.9377418213362
 20
312.6245360919883
 30
0.0
 40
55.0
  0
LINE
  5
141A
330
2
100
AcDbEntity
  8
0
100
AcDbLine
 10
644.2070147583254
 20
389.1808852780923
 30
0.0
 11
644.2070147583244
 21
230.1808852780923
 31
0.0
1001
ACAD
1000
ASC_BOUNDS
1002
{
1070
    19
1002
}
  0
LINE
  5
141B
330
2
100
AcDbEntity
  8
0
100
AcDbLine
 10
684.2070147583253
 20
378.6245360919883
 30
0.0
 11
684.2070147583253
 21
246.6245360919883
 31
0.0
1001
ACAD
1000
ASC_BOUNDS
1002
{
1070
    19
1005
0
1005
0
1005
0
1005
0
1002
}
  0
LINE
  5
141C
330
2
100
AcDbEntity
  8
0
100
AcDbLine
 10
684.2070147583253
 20
378.6245360919883
 30
0.0
 11
684.2070147583253
 21
246.6245360919883
 31
0.0
1001
ACAD
1000
ASC_BOUNDS
1002
{
1070
    19
1005
0
1002
}
  0
LINE
  5
141D
330
2
100
AcDbEntity
  8
LINIE
 48
10.0
100
AcDbLine
 10
707.8842700045497
 20
311.4677452987261
 30
0.0
 11
707.8842700045497
 21
253.7634980366724
 31
0.0
  0
LINE
  5
141E
330
2
100
AcDbEntity
  8
0
100
AcDbLine
 10
637.8070147583257
 20
389.1808852780923
 30
0.0
 11
637.8070147583253
 21
230.1808852780923
 31
0.0
1001
ACAD
1000
ASC_BOUNDS
1002
{
1070
    19
1002
}
  0
ARC
  5
141F
330
2
100
AcDbEntity
  8
0
100
AcDbCircle
 10
264.9377418213362
 20
333.1808852780923
 30
0.0
 40
90.0
100
AcDbArc
 50
317.1708262854232
 51
204.4415405741396
  0
LINE
  5
1420
330
2
100
AcDbEntity
  8
MITTE
 48
20.0
100
AcDbLine
 10
264.9377418213362
 20
429.810493946095
 30
0.0
 11
264.9377418213362
 21
207.4540283675546
 31
0.0
  0
LINE
  5
1421
330
2
100
AcDbEntity
  8
0
100
AcDbLine
 10
480.8070147583253
 20
423.1808852780923
 30
0.0
 11
480.8070147583253
 21
243.1808852780923
 31
0.0
1001
ACAD
1000
ASC_BOUNDS
1002
{
1070
    19
1002
}
  0
LINE
  5
1422
330
2
100
AcDbEntity
  8
0
100
AcDbLine
 10
494.3070147583252
 20
421.1808852780923
 30
0.0
 11
494.3070147583248
 21
245.1808852780918
 31
0.0
1001
ACAD
1000
ASC_BOUNDS
1002
{
1070
    19
1002
}
  0
LINE
  5
1423
330
2
100
AcDbEntity
  8
0
100
AcDbLine
 10
195.1331232205698
 20
362.3374982916939
 30
0.0
 11
176.1331232205698
 21
258.3374982916939
 31
0.0
  0
LINE
  5
1424
330
2
100
AcDbEntity
  8
0
100
AcDbLine
 10
203.9377418213362
 20
312.6245360919883
 30
0.0
 11
203.9377418213362
 21
245.1245360919883
 31
0.0
  0
LINE
  5
1425
330
2
100
AcDbEntity
  8
0
100
AcDbLine
 10
203.9377418213362
 20
312.6245360919888
 30
0.0
 11
203.9377418213362
 21
245.1245360919883
 31
0.0
  0
ARC
  5
1426
330
2
100
AcDbEntity
  8
0
100
AcDbCircle
 10
303.6172281763533
 20
320.6245360919883
 30
0.0
 40
100.0
100
AcDbArc
 50
184.5885657357819
 51
229.0739366903948
1001
ACAD
1000
ASC_BOUNDS
1002
{
1070
    19
1005
0
1002
}
  0
ARC
  5
1427
330
2
100
AcDbEntity
  8
0
100
AcDbCircle
 10
264.9377418213362
 20
303.1808852780923
 30
0.0
 40
73.0
100
AcDbArc
 50
326.680080629394
 51
3.593995493088477
  0
LINE
  5
1428
330
2
100
AcDbEntity
  8
0
100
AcDbLine
 10
325.9377418213361
 20
312.6245360919883
 30
0.0
 11
325.9377418213361
 21
245.1245360919883
 31
0.0
  0
LINE
  5
1429
330
2
100
AcDbEntity
  8
0
100
AcDbLine
 10
325.9377418213361
 20
312.6245360919888
 30
0.0
 11
325.9377418213361
 21
245.1245360919883
 31
0.0
  0
ARC
  5
142A
330
2
100
AcDbEntity
  8
0
100
AcDbCircle
 10
226.2582554663195
 20
320.6245360919883
 30
0.0
 40
100.0
100
AcDbArc
 50
310.9260633096051
 51
355.4114342642181
1001
ACAD
1000
ASC_BOUNDS
1002
{
1070
    19
1005
0
1002
}
  0
LINE
  5
142C
330
2
100
AcDbEntity
  8
LINIE
 48
10.0
100
AcDbLine
 10
581.3070147583252
 20
243.1808852780923
 30
0.0
 11
581.3070147583252
 21
346.7846613839706
 31
0.0
  0
LINE
  5
142D
330
2
100
AcDbEntity
  8
0
100
AcDbLine
 10
539.3070147583248
 20
328.1808852780923
 30
0.0
 11
539.3070147583252
 21
259.1808852780923
 31
0.0
1001
ACAD
1000
ASC_BOUNDS
1002
{
1070
    19
1002
}
  0
LINE
  5
142F
330
2
100
AcDbEntity
  8
0
 48
10.0
100
AcDbLine
 10
492.3070147583253
 20
423.1808852780923
 30
0.0
 11
492.3070147583253
 21
243.1808852780923
 31
0.0
  0
LINE
  5
1430
330
2
100
AcDbEntity
  8
LINIE
 48
10.0
100
AcDbLine
 10
611.3070147583252
 20
383.1900004944973
 30
0.0
 11
611.3070147583252
 21
236.2367736549281
 31
0.0
  0
LINE
  5
1434
330
2
100
AcDbEntity
  8
0
100
AcDbLine
 10
204.4377418213362
 20
233.7792366303679
 30
0.0
 11
242.4377418213366
 21
233.7792366303674
 31
0.0
  0
ARC
  5
1435
330
2
100
AcDbEntity
  8
0
100
AcDbCircle
 10
216.6877418213362
 20
210.1292366303677
 30
0.0
 40
23.65
100
AcDbArc
 50
70.14839776841663
 51
109.8516022315833
  0
LINE
  5
1436
330
2
100
AcDbEntity
  8
0
100
AcDbLine
 10
246.4377418213361
 20
212.6245360919883
 30
0.0
 11
207.4377418213361
 21
212.6245360919883
 31
0.0
1001
ACAD
1000
ASC_BOUNDS
1002
{
1070
    19
1005
0
1002
}
  0
ARC
  5
1437
330
2
100
AcDbEntity
  8
0
100
AcDbCircle
 10
216.6877418213362
 20
236.2745360919884
 30
0.0
 40
23.65
100
AcDbArc
 50
250.1483977684166
 51
289.8516022315833
  0
LINE
  5
1438
330
2
100
AcDbEntity
  8
0
100
AcDbLine
 10
206.4377418213362
 20
242.6245360919883
 30
0.0
 11
323.4377418213361
 21
242.6245360919883
 31
0.0
1001
ACAD
1000
ASC_BOUNDS
1002
{
1070
    19
1005
0
1002
}
  0
LINE
  5
1439
330
2
100
AcDbEntity
  8
0
100
AcDbLine
 10
249.4377418213362
 20
242.6245360919883
 30
0.0
 11
204.4377418213362
 21
242.6245360919883
 31
0.0
1001
ACAD
1000
ASC_BOUNDS
1002
{
1070
    19
1002
}
  0
TEXT
  5
143B
330
2
100
AcDbEntity
  8
0
100
AcDbText
 10
191.8662213419702
 20
218.282932216065
 30
0.0
 40
10.0
  1
L
100
AcDbText
  0
LINE
  5
143C
330
2
100
AcDbEntity
  8
0
100
AcDbLine
 10
208.6565526192316
 20
214.0299300042197
 30
0.0
 11
208.6565526192316
 21
232.3738427181365
 31
0.0
  0
LINE
  5
143D
330
2
100
AcDbEntity
  8
0
100
AcDbLine
 10
206.4377418213362
 20
213.6245360919883
 30
0.0
 11
206.4377418213362
 21
232.6245360919883
 31
0.0
1001
ACAD
1000
ASC_BOUNDS
1002
{
1070
    19
1002
}
  0
LINE
  5
143E
330
2
100
AcDbEntity
  8
0
100
AcDbLine
 10
206.4377418213362
 20
213.6245360919883
 30
0.0
 11
208.6565526192316
 21
214.0299300042197
 31
0.0
  0
LINE
  5
143F
330
2
100
AcDbEntity
  8
0
100
AcDbLine
 10
206.4377418213362
 20
213.6245360919883
 30
0.0
 11
207.4377418213361
 21
212.6245360919883
 31
0.0
1001
ACAD
1000
ASC_BOUNDS
1002
{
1070
    19
1002
}
  0
ARC
  5
1440
330
2
100
AcDbEntity
  8
0
100
AcDbCircle
 10
206.4377418213362
 20
245.1245360919883
 30
0.0
 40
2.5
100
AcDbArc
 50
180.0
 51
270.0
  0
ARC
  5
1441
330
2
100
AcDbEntity
  8
0
100
AcDbCircle
 10
206.4377418213362
 20
245.1245360919883
 30
0.0
 40
2.5
100
AcDbArc
 50
180.0
 51
270.0
  0
ARC
  5
1442
330
2
100
AcDbEntity
  8
0
100
AcDbCircle
 10
187.9377418213362
 20
256.1808852780923
 30
0.0
 40
12.0
100
AcDbArc
 50
169.6466799560699
 51
251.9738691867106
  0
LINE
  5
1443
330
2
100
AcDbEntity
  8
MITTE
 48
10.0
100
AcDbLine
 10
187.9377418213362
 20
262.2268275209303
 30
0.0
 11
187.9377418213362
 21
243.7227344026077
 31
0.0
  0
LINE
  5
1444
330
2
100
AcDbEntity
  8
0
100
AcDbLine
 10
204.4377418213362
 20
238.1919714524392
 30
0.0
 11
184.2243333090391
 21
244.7698994652537
 31
0.0
  0
LINE
  5
1445
330
2
100
AcDbEntity
  8
0
100
AcDbLine
 10
206.4377418213362
 20
232.6245360919883
 30
0.0
 11
208.6565526192316
 21
232.3738427181365
 31
0.0
  0
LINE
  5
1446
330
2
100
AcDbEntity
  8
0
100
AcDbLine
 10
206.4377418213362
 20
232.6245360919883
 30
0.0
 11
204.4377418213362
 21
233.7792366303679
 31
0.0
1001
ACAD
1000
ASC_BOUNDS
1002
{
1070
    19
1002
}
  0
LINE
  5
1447
330
2
100
AcDbEntity
  8
0
100
AcDbLine
 10
204.4377418213362
 20
233.7792366303679
 30
0.0
 11
204.4377418213362
 21
242.6245360919883
 31
0.0
1001
ACAD
1000
ASC_BOUNDS
1002
{
1070
    19
1002
}
  0
CIRCLE
  5
1448
330
2
100
AcDbEntity
  8
0
100
AcDbCircle
 10
187.9377418213362
 20
256.1808852780923
 30
0.0
 40
3.3235
  0
ARC
  5
1449
330
2
100
AcDbEntity
  8
LINIE
 48
10.0
100
AcDbCircle
 10
187.9377418213362
 20
256.1808852780923
 30
0.0
 40
4.0
100
AcDbArc
 50
81.14562423575646
 51
16.65070178048212
  0
LINE
  5
144A
330
2
100
AcDbEntity
  8
MITTE
 48
10.0
100
AcDbLine
 10
192.6746847228951
 20
256.1808852780923
 30
0.0
 11
174.201524731653
 21
256.1808852780923
 31
0.0
  0
ARC
  5
144E
330
2
100
AcDbEntity
  8
0
100
AcDbCircle
 10
313.1877418213361
 20
210.1292366303677
 30
0.0
 40
23.65
100
AcDbArc
 50
70.14839776841663
 51
109.8516022315833
  0
LINE
  5
144F
330
2
100
AcDbEntity
  8
0
100
AcDbLine
 10
325.4377418213362
 20
242.6245360919883
 30
0.0
 11
280.4377418213362
 21
242.6245360919883
 31
0.0
1001
ACAD
1000
ASC_BOUNDS
1002
{
1070
    19
1002
}
  0
LINE
  5
1450
330
2
100
AcDbEntity
  8
0
100
AcDbLine
 10
287.4377418213362
 20
233.7792366303679
 30
0.0
 11
325.4377418213362
 21
233.7792366303674
 31
0.0
  0
ARC
  5
1451
330
2
100
AcDbEntity
  8
0
100
AcDbCircle
 10
313.1877418213361
 20
236.2745360919884
 30
0.0
 40
23.65
100
AcDbArc
 50
250.1483977684166
 51
289.8516022315833
  0
LINE
  5
1452
330
2
100
AcDbEntity
  8
0
100
AcDbLine
 10
322.4377418213362
 20
212.6245360919883
 30
0.0
 11
283.4377418213362
 21
212.6245360919883
 31
0.0
1001
ACAD
1000
ASC_BOUNDS
1002
{
1070
    19
1005
0
1002
}
  0
LINE
  5
1453
330
2
100
AcDbEntity
  8
MITTE
 48
7.0
100
AcDbLine
 10
302.9377418213361
 20
209.566775484382
 30
0.0
 11
302.9377418213361
 21
245.9578103224789
 31
0.0
  0
LINE
  5
1454
330
2
100
AcDbEntity
  8
0
100
AcDbLine
 10
305.1565526192316
 20
214.0299300042197
 30
0.0
 11
305.1565526192316
 21
232.3738427181365
 31
0.0
  0
LINE
  5
1455
330
2
100
AcDbEntity
  8
0
100
AcDbLine
 10
282.4377418213362
 20
213.6245360919883
 30
0.0
 11
282.4377418213362
 21
231.6245360919874
 31
0.0
1001
ACAD
1000
ASC_BOUNDS
1002
{
1070
    19
1002
}
  0
LINE
  5
1456
330
2
100
AcDbEntity
  8
0
100
AcDbLine
 10
284.6565526192316
 20
214.0299300042197
 30
0.0
 11
284.6565526192316
 21
231.6245360919874
 31
0.0
  0
LINE
  5
1457
330
2
100
AcDbEntity
  8
0
100
AcDbLine
 10
300.7189310234407
 20
214.0299300042197
 30
0.0
 11
300.7189310234407
 21
232.3738427181365
 31
0.0
  0
LINE
  5
1458
330
2
100
AcDbEntity
  8
MITTE
 48
7.0
100
AcDbLine
 10
226.9377418213362
 20
209.566775484382
 30
0.0
 11
226.9377418213362
 21
245.9578103224789
 31
0.0
  0
LINE
  5
1459
330
2
100
AcDbEntity
  8
0
100
AcDbLine
 10
224.7189310234407
 20
214.0299300042197
 30
0.0
 11
224.7189310234407
 21
232.3738427181365
 31
0.0
  0
LINE
  5
145A
330
2
100
AcDbEntity
  8
0
100
AcDbLine
 10
229.1565526192316
 20
214.0299300042197
 30
0.0
 11
229.1565526192316
 21
232.3738427181365
 31
0.0
  0
LINE
  5
145B
330
2
100
AcDbEntity
  8
0
100
AcDbLine
 10
247.4377418213362
 20
213.6245360919883
 30
0.0
 11
247.4377418213362
 21
231.6245360919874
 31
0.0
1001
ACAD
1000
ASC_BOUNDS
1002
{
1070
    19
1002
}
  0
LINE
  5
145C
330
2
100
AcDbEntity
  8
0
100
AcDbLine
 10
245.2189310234407
 20
214.0299300042197
 30
0.0
 11
245.2189310234407
 21
231.6245360919874
 31
0.0
  0
ARC
  5
145E
330
2
100
AcDbEntity
  8
0
100
AcDbCircle
 10
237.1877418213362
 20
236.2745360919884
 30
0.0
 40
23.65
100
AcDbArc
 50
250.1483977684166
 51
289.8516022315833
  0
LINE
  5
145F
330
2
100
AcDbEntity
  8
0
100
AcDbLine
 10
224.7189310234407
 20
214.0299300042197
 30
0.0
 11
229.1565526192316
 21
214.0299300042197
 31
0.0
  0
LINE
  5
1460
330
2
100
AcDbEntity
  8
0
100
AcDbLine
 10
245.2189310234407
 20
214.0299300042197
 30
0.0
 11
247.4377418213362
 21
213.6245360919883
 31
0.0
  0
LINE
  5
1461
330
2
100
AcDbEntity
  8
0
100
AcDbLine
 10
247.4377418213362
 20
213.6245360919883
 30
0.0
 11
246.4377418213361
 21
212.6245360919883
 31
0.0
1001
ACAD
1000
ASC_BOUNDS
1002
{
1070
    19
1002
}
  0
ARC
  5
1462
330
2
100
AcDbEntity
  8
0
100
AcDbCircle
 10
292.6877418213361
 20
236.2745360919884
 30
0.0
 40
23.65
100
AcDbArc
 50
250.1483977684166
 51
289.8516022315833
  0
LINE
  5
1463
330
2
100
AcDbEntity
  8
0
100
AcDbLine
 10
282.4377418213362
 20
213.6245360919883
 30
0.0
 11
283.4377418213362
 21
212.6245360919883
 31
0.0
1001
ACAD
1000
ASC_BOUNDS
1002
{
1070
    19
1002
}
  0
LINE
  5
1464
330
2
100
AcDbEntity
  8
0
100
AcDbLine
 10
282.4377418213362
 20
213.6245360919883
 30
0.0
 11
284.6565526192316
 21
214.0299300042197
 31
0.0
  0
LINE
  5
1465
330
2
100
AcDbEntity
  8
0
100
AcDbLine
 10
300.7189310234407
 20
214.0299300042197
 30
0.0
 11
305.1565526192316
 21
214.0299300042197
 31
0.0
  0
CIRCLE
  5
1466
330
2
100
AcDbEntity
  8
0
100
AcDbCircle
 10
264.9377418213362
 20
257.6245360919883
 30
0.0
 40
5.0
  0
LINE
  5
1467
330
2
100
AcDbEntity
  8
0
100
AcDbLine
 10
242.4882520785531
 20
231.6245360919874
 30
0.0
 11
287.3872315641192
 21
231.6245360919874
 31
0.0
  0
LINE
  5
1468
330
2
100
AcDbEntity
  8
0
100
AcDbLine
 10
238.4916962407596
 20
242.6245360919883
 30
0.0
 11
292.1496388461364
 21
242.6245360919883
 31
0.0
  0
LINE
  5
1469
330
2
100
AcDbEntity
  8
0
100
AcDbLine
 10
264.9377418213362
 20
230.1808852780923
 30
0.0
 11
247.4377418213362
 21
230.1808852780923
 31
0.0
  0
ARC
  5
146A
330
2
100
AcDbEntity
  8
0
100
AcDbCircle
 10
244.6596162844184
 20
252.6245360919883
 30
0.0
 40
10.0
100
AcDbArc
 50
229.0739366903899
 51
270.0
1001
ACAD
1000
ASC_BOUNDS
1002
{
1070
    19
1005
0
1002
}
  0
ARC
  5
146B
330
2
100
AcDbEntity
  8
0
100
AcDbCircle
 10
237.1877418213362
 20
210.1292366303677
 30
0.0
 40
23.65
100
AcDbArc
 50
77.17421556953915
 51
109.8516022315833
  0
LINE
  5
146C
330
2
100
AcDbEntity
  8
0
100
AcDbLine
 10
224.7189310234407
 20
232.3738427181365
 30
0.0
 11
229.1565526192316
 21
232.3738427181365
 31
0.0
  0
ARC
  5
146D
330
2
100
AcDbEntity
  8
0
100
AcDbCircle
 10
244.9377418213362
 20
232.1245360919883
 30
0.0
 40
2.5
100
AcDbArc
 50
180.0
 51
191.5369590328449
  0
LINE
  5
146E
330
2
100
AcDbEntity
  8
0
100
AcDbLine
 10
242.4377418213361
 20
240.1245360919883
 30
0.0
 11
242.4377418213361
 21
232.1245360919883
 31
0.0
  0
ARC
  5
146F
330
2
100
AcDbEntity
  8
0
100
AcDbCircle
 10
239.9377418213362
 20
240.1245360919883
 30
0.0
 40
2.5
100
AcDbArc
 50
0.0
 51
90.0
  0
ARC
  5
1470
330
2
100
AcDbEntity
  8
0
100
AcDbCircle
 10
285.2158673582539
 20
252.6245360919883
 30
0.0
 40
10.0
100
AcDbArc
 50
270.0
 51
310.92606330961
1001
ACAD
1000
ASC_BOUNDS
1002
{
1070
    19
1005
0
1002
}
  0
ARC
  5
1471
330
2
100
AcDbEntity
  8
0
100
AcDbCircle
 10
289.9377418213362
 20
240.1245360919883
 30
0.0
 40
2.5
100
AcDbArc
 50
90.0
 51
180.0
  0
ARC
  5
1472
330
2
100
AcDbEntity
  8
0
100
AcDbCircle
 10
292.6877418213361
 20
210.1292366303677
 30
0.0
 40
23.65
100
AcDbArc
 50
70.14839776841663
 51
102.8257844304608
  0
ARC
  5
1473
330
2
100
AcDbEntity
  8
0
100
AcDbCircle
 10
284.9377418213362
 20
232.1245360919883
 30
0.0
 40
2.5
100
AcDbArc
 50
348.463040967155
 51
0.0
  0
ARC
  5
1474
330
2
100
AcDbEntity
  8
0
100
AcDbCircle
 10
264.9377418213362
 20
303.1808852780923
 30
0.0
 40
73.0
100
AcDbArc
 50
270.0
 51
281.4136777865645
  0
LINE
  5
1475
330
2
100
AcDbEntity
  8
0
100
AcDbLine
 10
287.4377418213362
 20
240.1245360919883
 30
0.0
 11
287.4377418213362
 21
232.1245360919883
 31
0.0
  0
LINE
  5
1476
330
2
100
AcDbEntity
  8
0
100
AcDbLine
 10
300.7189310234407
 20
232.3738427181365
 30
0.0
 11
305.1565526192316
 21
232.3738427181365
 31
0.0
  0
TEXT
  5
1477
330
2
100
AcDbEntity
  8
0
100
AcDbText
 10
330.0624427871762
 20
217.8772223424203
 30
0.0
 40
10.0
  1
R
100
AcDbText
  0
LINE
  5
1478
330
2
100
AcDbEntity
  8
0
100
AcDbLine
 10
323.4377418213361
 20
213.6245360919883
 30
0.0
 11
323.4377418213361
 21
232.6245360919883
 31
0.0
1001
ACAD
1000
ASC_BOUNDS
1002
{
1070
    19
1002
}
  0
LINE
  5
1479
330
2
100
AcDbEntity
  8
0
100
AcDbLine
 10
321.2189310234407
 20
214.0299300042197
 30
0.0
 11
321.2189310234407
 21
232.3738427181365
 31
0.0
  0
LINE
  5
147A
330
2
100
AcDbEntity
  8
0
100
AcDbLine
 10
321.2189310234407
 20
214.0299300042197
 30
0.0
 11
323.4377418213361
 21
213.6245360919883
 31
0.0
  0
LINE
  5
147B
330
2
100
AcDbEntity
  8
0
100
AcDbLine
 10
323.4377418213361
 20
213.6245360919883
 30
0.0
 11
322.4377418213362
 21
212.6245360919883
 31
0.0
1001
ACAD
1000
ASC_BOUNDS
1002
{
1070
    19
1002
}
  0
ARC
  5
147C
330
2
100
AcDbEntity
  8
0
100
AcDbCircle
 10
323.4377418213361
 20
245.1245360919883
 30
0.0
 40
2.5
100
AcDbArc
 50
270.0
 51
0.0
  0
ARC
  5
147D
330
2
100
AcDbEntity
  8
0
100
AcDbCircle
 10
323.4377418213361
 20
245.1245360919883
 30
0.0
 40
2.5
100
AcDbArc
 50
270.0
 51
0.0
  0
LINE
  5
147E
330
2
100
AcDbEntity
  8
0
100
AcDbLine
 10
323.4377418213361
 20
232.6245360919883
 30
0.0
 11
325.4377418213362
 21
233.7792366303674
 31
0.0
1001
ACAD
1000
ASC_BOUNDS
1002
{
1070
    19
1002
}
  0
LINE
  5
147F
330
2
100
AcDbEntity
  8
0
100
AcDbLine
 10
323.4377418213361
 20
232.6245360919883
 30
0.0
 11
321.2189310234407
 21
232.3738427181365
 31
0.0
  0
LINE
  5
1480
330
2
100
AcDbEntity
  8
0
100
AcDbLine
 10
325.4377418213362
 20
233.7792366303674
 30
0.0
 11
325.4377418213362
 21
242.6245360919883
 31
0.0
1001
ACAD
1000
ASC_BOUNDS
1002
{
1070
    19
1002
}
  0
LINE
  5
1481
330
2
100
AcDbEntity
  8
0
100
AcDbLine
 10
540.8348788033258
 20
255.1808852780923
 30
0.0
 11
494.3070147583252
 21
255.1808852780923
 31
0.0
  0
LINE
  5
1483
330
2
100
AcDbEntity
  8
0
100
AcDbLine
 10
494.3070147583252
 20
245.1808852780923
 30
0.0
 11
492.3070147583253
 21
243.1808852780923
 31
0.0
  0
LINE
  5
1484
330
2
100
AcDbEntity
  8
0
100
AcDbLine
 10
480.8070147583253
 20
243.1808852780923
 30
0.0
 11
492.3070147583253
 21
243.1808852780923
 31
0.0
  0
LINE
  5
1485
330
2
100
AcDbEntity
  8
0
100
AcDbLine
 10
611.3070147583252
 20
230.1808852780923
 30
0.0
 11
644.2070147583254
 21
230.1808852780923
 31
0.0
1001
ACAD
1000
ASC_BOUNDS
1002
{
1070
    19
1002
}
  0
LINE
  5
1486
330
2
100
AcDbEntity
  8
0
100
AcDbLine
 10
558.3070147583253
 20
253.1808852780923
 30
0.0
 11
583.504820122791
 21
232.5394075011863
 31
0.0
  0
LINE
  5
1487
330
2
100
AcDbEntity
  8
0
100
AcDbLine
 10
545.3070147583253
 20
253.1808852780923
 30
0.0
 11
571.3070147583253
 21
253.1808852780923
 31
0.0
1001
ACAD
1000
ASC_BOUNDS
1002
{
1070
    19
1002
}
  0
ARC
  5
1488
330
2
100
AcDbEntity
  8
0
100
AcDbCircle
 10
545.3070147583253
 20
259.1808852780923
 30
0.0
 40
6.0
100
AcDbArc
 50
180.0
 51
270.0
1001
ACAD
1000
ASC_BOUNDS
1002
{
1070
    19
1002
}
  0
ARC
  5
1489
330
2
100
AcDbEntity
  8
0
100
AcDbCircle
 10
571.3070147583253
 20
243.1808852780923
 30
0.0
 40
10.0
100
AcDbArc
 50
0.0
 51
90.0
1001
ACAD
1000
ASC_BOUNDS
1002
{
1070
    19
1002
}
  0
LINE
  5
148A
330
2
100
AcDbEntity
  8
0
100
AcDbLine
 10
587.3070147583253
 20
231.1808852780923
 30
0.0
 11
609.3070147583253
 21
231.1808852780923
 31
0.0
1001
ACAD
1000
ASC_BOUNDS
1002
{
1070
    19
1002
}
  0
ARC
  5
148B
330
2
100
AcDbEntity
  8
0
100
AcDbCircle
 10
587.3070147583253
 20
237.1808852780923
 30
0.0
 40
6.0
100
AcDbArc
 50
180.0
 51
270.0
1001
ACAD
1000
ASC_BOUNDS
1002
{
1070
    19
1002
}
  0
LINE
  5
148C
330
2
100
AcDbEntity
  8
0
100
AcDbLine
 10
581.3070147583252
 20
243.1808852780923
 30
0.0
 11
581.3070147583252
 21
237.1808852780923
 31
0.0
1001
ACAD
1000
ASC_BOUNDS
1002
{
1070
    19
1002
}
  0
ARC
  5
148D
330
2
100
AcDbEntity
  8
0
100
AcDbCircle
 10
609.3070147583253
 20
228.6808852780923
 30
0.0
 40
2.5
100
AcDbArc
 50
36.86989764585183
 51
90.0
1001
ACAD
1000
ASC_BOUNDS
1002
{
1070
    19
1002
}
  0
LINE
  5
148E
330
2
100
AcDbEntity
  8
0
100
AcDbLine
 10
644.2070147583254
 20
246.6245360919883
 30
0.0
 11
684.2070147583253
 21
246.6245360919883
 31
0.0
1001
ACAD
1000
ASC_BOUNDS
1002
{
1070
    19
1005
0
1002
}
  0
ARC
  5
148F
330
2
100
AcDbEntity
  8
0
100
AcDbCircle
 10
710.7070147583254
 20
245.1245360919883
 30
0.0
 40
2.5
100
AcDbArc
 50
180.0
 51
216.8698976458518
  0
LINE
  5
1490
330
2
100
AcDbEntity
  8
0
100
AcDbLine
 10
684.2070147583253
 20
246.6245360919883
 30
0.0
 11
697.546760720481
 21
246.6245360919883
 31
0.0
1001
ACAD
1000
ASC_BOUNDS
1002
{
1070
    19
1002
}
  0
LINE
  5
1491
330
2
100
AcDbEntity
  8
LINIE
 48
10.0
100
AcDbLine
 10
685.5800355498622
 20
251.6245360919883
 30
0.0
 11
708.5350709764789
 21
251.6245360919883
 31
0.0
  0
ARC
  5
1492
330
2
100
AcDbEntity
  8
0
100
AcDbCircle
 10
710.7755172758039
 20
241.6245360919883
 30
0.0
 40
10.0
100
AcDbArc
 50
90.0
 51
131.4096221092697
1001
ACAD
1000
ASC_BOUNDS
1002
{
1070
    19
1002
}
  0
ARC
  5
1493
330
2
100
AcDbEntity
  8
0
100
AcDbCircle
 10
697.546760720481
 20
256.6245360919883
 30
0.0
 40
10.0
100
AcDbArc
 50
270.0
 51
311.4096221092697
1001
ACAD
1000
ASC_BOUNDS
1002
{
1070
    19
1002
}
  0
LINE
  5
1494
330
2
100
AcDbEntity
  8
0
100
AcDbLine
 10
708.2070147583253
 20
245.1245360919883
 30
0.0
 11
708.2070147583253
 21
251.2890482275133
 31
0.0
  0
LINE
  5
1498
330
2
100
AcDbEntity
  8
MITTE
 48
10.0
100
AcDbLine
 10
195.9112390674795
 20
312.6245360919883
 30
0.0
 11
332.4560205900252
 21
312.6245360919883
 31
0.0
  0
CIRCLE
  5
1499
330
2
100
AcDbEntity
  8
0
100
AcDbCircle
 10
213.6725001853119
 20
384.446126914117
 30
0.0
 40
5.75
  0
LINE
  5
149A
330
2
100
AcDbEntity
  8
0
100
AcDbLine
 10
203.1321465517476
 20
371.5614584026798
 30
0.0
 11
247.1782972299229
 21
386.2902265261677
 31
0.0
  0
ARC
  5
149B
330
2
100
AcDbEntity
  8
MITTE
 48
15.0
100
AcDbCircle
 10
264.9377418213362
 20
333.1808852780923
 30
0.0
 40
72.5
100
AcDbArc
 50
126.5931189888065
 51
144.1811683713747
  0
LINE
  5
149C
330
2
100
AcDbEntity
  8
MITTE
 48
10.0
100
AcDbLine
 10
220.0460540713233
 20
378.0725730281046
 30
0.0
 11
206.0623312748057
 21
392.0562958246219
 31
0.0
  0
LINE
  5
149D
330
2
100
AcDbEntity
  8
MITTE
 48
10.0
100
AcDbLine
 10
195.9112390674795
 20
312.6245360919883
 30
0.0
 11
332.4560205900252
 21
312.6245360919883
 31
0.0
  0
LINE
  5
149E
330
2
100
AcDbEntity
  8
MITTE
 48
20.0
100
AcDbLine
 10
300.7418857581369
 20
333.1808852780923
 30
0.0
 11
171.2106656316841
 21
333.1808852780923
 31
0.0
  0
ARC
  5
149F
330
2
100
AcDbEntity
  8
0
100
AcDbCircle
 10
264.9377418213362
 20
333.1808852780923
 30
0.0
 40
89.0
100
AcDbArc
 50
105.2685646988438
 51
164.7314353011498
  0
ARC
  5
14A0
330
2
100
AcDbEntity
  8
0
100
AcDbCircle
 10
264.9377418213362
 20
312.6245360919883
 30
0.0
 40
61.0
100
AcDbArc
 50
0.0
 51
180.0
1001
ACAD
1000
ASC_BOUNDS
1002
{
1070
    19
1005
0
1002
}
  0
LINE
  5
14A1
330
2
100
AcDbEntity
  8
MITTE
 48
10.0
100
AcDbLine
 10
211.5699189674014
 20
360.1808852780923
 30
0.0
 11
192.7616613009072
 21
360.1808852780923
 31
0.0
  0
ARC
  5
14A2
330
2
100
AcDbEntity
  8
0
100
AcDbCircle
 10
206.9377418213361
 20
360.1808852780923
 30
0.0
 40
12.0
100
AcDbArc
 50
108.4896255071092
 51
169.6466799560699
  0
LINE
  5
14A3
330
2
100
AcDbEntity
  8
MITTE
 48
10.0
100
AcDbLine
 10
206.9377418213361
 20
373.8845327551684
 30
0.0
 11
206.9377418213361
 21
354.6062290867771
 31
0.0
  0
ARC
  5
14A4
330
2
100
AcDbEntity
  8
0
100
AcDbCircle
 10
264.9377418213362
 20
333.1808852780923
 30
0.0
 40
88.0
100
AcDbArc
 50
164.5202251796857
 51
202.5209141936052
  0
ARC
  5
14A5
330
2
100
AcDbEntity
  8
0
100
AcDbCircle
 10
207.1183119477154
 20
312.8337344555998
 30
0.0
 40
8.0
100
AcDbArc
 50
109.625453741556
 51
181.4984437231768
  0
ARC
  5
14A6
330
2
100
AcDbEntity
  8
0
100
AcDbCircle
 10
264.9377418213362
 20
312.6245360919883
 30
0.0
 40
65.81669415865359
100
AcDbArc
 50
179.5853943548327
 51
202.05611422016
  0
CIRCLE
  5
14A7
330
2
100
AcDbEntity
  8
0
100
AcDbCircle
 10
202.9377418213361
 20
343.1808852780923
 30
0.0
 40
1.95
  0
LINE
  5
14A8
330
2
100
AcDbEntity
  8
MITTE
 48
5.0
100
AcDbLine
 10
202.9377418213361
 20
347.475012344852
 30
0.0
 11
202.9377418213361
 21
338.856178891559
 31
0.0
  0
ARC
  5
14A9
330
2
100
AcDbEntity
  8
0
100
AcDbCircle
 10
176.5493941730178
 20
421.5692329264106
 30
0.0
 40
65.0
100
AcDbArc
 50
272.2305728409494
 51
286.0711476672055
  0
LINE
  5
14AA
330
2
100
AcDbEntity
  8
MITTE
 48
5.0
100
AcDbLine
 10
207.64840147835
 20
343.1808852780923
 30
0.0
 11
198.9868750752753
 21
343.1808852780923
 31
0.0
  0
ARC
  5
14AB
330
2
100
AcDbEntity
  8
LINIE
 48
10.0
100
AcDbCircle
 10
206.9377418213361
 20
360.1808852780923
 30
0.0
 40
4.0
100
AcDbArc
 50
81.14562423575646
 51
16.65070178048212
  0
CIRCLE
  5
14AC
330
2
100
AcDbEntity
  8
0
100
AcDbCircle
 10
206.9377418213361
 20
360.1808852780923
 30
0.0
 40
3.3235
  0
CIRCLE
  5
14AD
330
2
100
AcDbEntity
  8
0
100
AcDbCircle
 10
264.9377418213362
 20
367.6245360919883
 30
0.0
 40
5.0
  0
LINE
  5
14AF
330
2
100
AcDbEntity
  8
0
100
AcDbLine
 10
333.4412233658699
 20
360.8444536718793
 30
0.0
 11
290.6206556958263
 21
382.9442044490992
 31
0.0
  0
ARC
  5
14B0
330
2
100
AcDbEntity
  8
0
100
AcDbCircle
 10
264.9377418213362
 20
333.1808852780923
 30
0.0
 40
48.0
100
AcDbArc
 50
30.25955070532045
 51
149.7404492946795
  0
ARC
  5
14B1
330
2
100
AcDbEntity
  8
0
100
AcDbCircle
 10
264.9377418213362
 20
333.1808852780923
 30
0.0
 40
89.0
100
AcDbArc
 50
15.26856469885017
 51
74.73143530115611
  0
CIRCLE
  5
14B2
330
2
100
AcDbEntity
  8
0
100
AcDbCircle
 10
312.5691390294805
 20
285.1245360919883
 30
0.0
 40
5.0
  0
CIRCLE
  5
14B3
330
2
100
AcDbEntity
  8
0
100
AcDbCircle
 10
312.5691390294805
 20
340.1245360919883
 30
0.0
 40
5.0
  0
LINE
  5
14B4
330
2
100
AcDbEntity
  8
MITTE
 48
20.0
100
AcDbLine
 10
358.0184220221449
 20
333.1808852780923
 30
0.0
 11
311.9933769930085
 21
333.1808852780923
 31
0.0
  0
CIRCLE
  5
14B5
330
2
100
AcDbEntity
  8
0
100
AcDbCircle
 10
217.3063446131923
 20
285.1245360919883
 30
0.0
 40
5.0
  0
CIRCLE
  5
14B6
330
2
100
AcDbEntity
  8
0
100
AcDbCircle
 10
217.3063446131923
 20
340.1245360919883
 30
0.0
 40
5.0
  0
ARC
  5
14B7
330
2
100
AcDbEntity
  8
0
100
AcDbCircle
 10
322.7571716949569
 20
312.8337344555998
 30
0.0
 40
8.0
100
AcDbArc
 50
293.4264341163778
 51
70.37454625844393
  0
ARC
  5
14B8
330
2
100
AcDbEntity
  8
0
100
AcDbCircle
 10
264.9377418213362
 20
333.1808852780923
 30
0.0
 40
88.0
100
AcDbArc
 50
321.1089922459243
 51
356.6614237975709
  0
LINE
  5
14B9
330
2
100
AcDbEntity
  8
0
100
AcDbLine
 10
350.4230231955748
 20
324.6956039038536
 30
0.0
 11
340.412511660822
 21
314.6850923691008
 31
0.0
  0
ARC
  5
14BA
330
2
100
AcDbEntity
  8
0
100
AcDbCircle
 10
346.7764726915011
 20
308.3211313384222
 30
0.0
 40
9.0
100
AcDbArc
 50
135.0000000000046
 51
183.5939954930885
  0
ARC
  5
14BB
330
2
100
AcDbEntity
  8
0
100
AcDbCircle
 10
264.9377418213362
 20
333.1808852780923
 30
0.0
 40
88.0
100
AcDbArc
 50
3.338576202428982
 51
15.47977482031425
  0
LINE
  5
14BC
330
2
100
AcDbEntity
  8
MITTE
 48
10.0
100
AcDbLine
 10
341.9377418213362
 20
347.20979764219
 30
0.0
 11
341.9377418213362
 21
320.3361640702987
 31
0.0
  0
LINE
  5
14BD
330
2
100
AcDbEntity
  8
0
100
AcDbLine
 10
351.200904648741
 20
340.8093723124252
 30
0.0
 11
337.200904648741
 21
357.8093723124252
 31
0.0
  0
ARC
  5
14BE
330
2
100
AcDbEntity
  8
LINIE
 48
10.0
100
AcDbCircle
 10
341.9377418213362
 20
333.1808852780923
 30
0.0
 40
4.0
100
AcDbArc
 50
81.14562423575646
 51
16.65070178048212
  0
CIRCLE
  5
14BF
330
2
100
AcDbEntity
  8
0
100
AcDbCircle
 10
341.9377418213362
 20
333.1808852780923
 30
0.0
 40
3.3235
  0
ARC
  5
14C0
330
2
100
AcDbEntity
  8
0
100
AcDbCircle
 10
341.9377418213362
 20
333.1808852780923
 30
0.0
 40
12.0
100
AcDbArc
 50
315.0000000000046
 51
39.4724598483391
  0
ARC
  5
14C1
330
2
100
AcDbEntity
  8
0
100
AcDbCircle
 10
353.326089469655
 20
421.5692329264106
 30
0.0
 40
65.0
100
AcDbArc
 50
254.7469712997409
 51
267.7694271590505
  0
ARC
  5
14C2
330
2
100
AcDbEntity
  8
0
100
AcDbCircle
 10
327.9377418213361
 20
350.1808852780923
 30
0.0
 40
12.0
100
AcDbArc
 50
39.4724598483391
 51
62.70168236142517
  0
CIRCLE
  5
14C3
330
2
100
AcDbEntity
  8
0
100
AcDbCircle
 10
316.2029834573609
 20
384.4461269141165
 30
0.0
 40
5.75
  0
LINE
  5
14C4
330
2
100
AcDbEntity
  8
MITTE
 48
10.0
100
AcDbLine
 10
309.7240642600208
 20
377.967207716777
 30
0.0
 11
322.6022437771084
 21
390.845387233865
 31
0.0
  0
ARC
  5
14C5
330
2
100
AcDbEntity
  8
MITTE
 48
15.0
100
AcDbCircle
 10
264.9377418213362
 20
333.1808852780923
 30
0.0
 40
72.5
100
AcDbArc
 50
36.42334422561722
 51
53.5117163400944
  0
ARC
  5
14C6
330
2
100
AcDbEntity
  8
0
100
AcDbCircle
 10
353.326089469655
 20
421.5692329264106
 30
0.0
 40
65.0
100
AcDbArc
 50
182.2305728409426
 51
228.7467412799719
  0
ARC
  5
14C7
330
2
100
AcDbEntity
  8
0
100
AcDbCircle
 10
176.5493941730178
 20
421.5692329264106
 30
0.0
 40
65.0
100
AcDbArc
 50
319.2477660926224
 51
357.7694271590573
  0
LINE
  5
14C8
330
2
100
AcDbEntity
  8
0
100
AcDbLine
 10
262.4377418213362
 20
411.1808852780923
 30
0.0
 11
267.4377418213361
 21
411.1808852780923
 31
0.0
  0
ARC
  5
14C9
330
2
100
AcDbEntity
  8
0
100
AcDbCircle
 10
265.3489586525415
 20
370.451186272041
 30
0.0
 40
8.0
100
AcDbArc
 50
19.35914998622951
 51
159.8259803411122
  0
ARC
  5
14CA
330
2
100
AcDbEntity
  8
0
100
AcDbCircle
 10
264.9377418213362
 20
333.1808852780923
 30
0.0
 40
56.0
100
AcDbArc
 50
62.70168236142517
 51
108.4896255071092
  0
LINE
  5
14CB
330
2
100
AcDbEntity
  8
0
100
AcDbLine
 10
259.9377418213362
 20
408.6808852780923
 30
0.0
 11
259.9377418213362
 21
388.9572243476295
 31
0.0
  0
ARC
  5
14CC
330
2
100
AcDbEntity
  8
0
100
AcDbCircle
 10
262.4377418213362
 20
408.6808852780923
 30
0.0
 40
2.5
100
AcDbArc
 50
90.0
 51
180.0
  0
LINE
  5
14CD
330
2
100
AcDbEntity
  8
0
100
AcDbLine
 10
269.9377418213362
 20
408.6808852780923
 30
0.0
 11
269.9377418213362
 21
388.9572243476295
 31
0.0
  0
ARC
  5
14CE
330
2
100
AcDbEntity
  8
0
100
AcDbCircle
 10
267.4377418213361
 20
408.6808852780923
 30
0.0
 40
2.5
100
AcDbArc
 50
0.0
 51
90.0
  0
ARC
  5
14CF
330
2
100
AcDbEntity
  8
0
100
AcDbCircle
 10
264.9377418213362
 20
333.1808852780923
 30
0.0
 40
88.0
100
AcDbArc
 50
74.52022517968575
 51
105.4797748203142
  0
LINE
  5
14D2
330
2
100
AcDbEntity
  8
0
100
AcDbLine
 10
494.3070147583252
 20
411.1808852780923
 30
0.0
 11
555.2457431224829
 21
387.2726507856095
 31
0.0
  0
LINE
  5
14D3
330
2
100
AcDbEntity
  8
0
100
AcDbLine
 10
544.3070147583252
 20
366.6808852780923
 30
0.0
 11
515.9491503820563
 21
366.6808852780923
 31
0.0
1001
ACAD
1000
ASC_BOUNDS
1002
{
1070
    19
1002
}
  0
LINE
  5
14D4
330
2
100
AcDbEntity
  8
0
 48
10.0
100
AcDbLine
 10
544.3070147583252
 20
328.1808852780923
 30
0.0
 11
504.3070147583248
 21
328.1808852780923
 31
0.0
  0
LINE
  5
14D5
330
2
100
AcDbEntity
  8
0
 48
10.0
100
AcDbLine
 10
544.3070147583252
 20
338.1808852780923
 30
0.0
 11
504.3070147583248
 21
338.1808852780923
 31
0.0
  0
LINE
  5
14D6
330
2
100
AcDbEntity
  8
0
100
AcDbLine
 10
529.3070147583253
 20
299.6808852780923
 30
0.0
 11
515.9491503820563
 21
299.6808852780923
 31
0.0
1001
ACAD
1000
ASC_BOUNDS
1002
{
1070
    19
1002
}
  0
LINE
  5
14D7
330
2
100
AcDbEntity
  8
MITTE
 48
10.0
100
AcDbLine
 10
405.6629774748126
 20
333.1808852780923
 30
0.0
 11
596.7464291445899
 21
333.1808852780923
 31
0.0
  0
LINE
  5
14D8
330
2
100
AcDbEntity
  8
MITTE
 48
20.0
100
AcDbLine
 10
517.4351648934971
 20
333.1808852780923
 30
0.0
 11
478.0327263542044
 21
333.1808852780923
 31
0.0
  0
LINE
  5
14D9
330
2
100
AcDbEntity
  8
LINIE
  6
GESTRICHELT
 48
10.0
100
AcDbLine
 10
485.8070147583252
 20
395.480885278092
 30
0.0
 11
485.8070147583252
 21
270.8808852780921
 31
0.0
1001
ACAD
1000
ASC_BOUNDS
1002
{
1070
    19
1002
}
  0
ARC
  5
14DA
330
2
100
AcDbEntity
  8
0
100
AcDbCircle
 10
515.9491503820563
 20
376.6808852780923
 30
0.0
 40
10.0
100
AcDbArc
 50
224.9999999999953
 51
270.0
1001
ACAD
1000
ASC_BOUNDS
1002
{
1070
    19
1002
}
  0
LINE
  5
14DB
330
2
100
AcDbEntity
  8
0
 48
10.0
100
AcDbLine
 10
411.8570147583255
 20
350.6808852780923
 30
0.0
 11
477.3570147583255
 21
350.6808852780923
 31
0.0
  0
LINE
  5
14DC
330
2
100
AcDbEntity
  8
0
 48
10.0
100
AcDbLine
 10
411.8570147583255
 20
315.6808852780923
 30
0.0
 11
477.3570147583255
 21
315.6808852780923
 31
0.0
  0
LINE
  5
14DE
330
2
100
AcDbEntity
  8
0
 48
10.0
100
AcDbLine
 10
411.8570147583255
 20
350.6808852780923
 30
0.0
 11
411.8570147583255
 21
315.6808852780923
 31
0.0
  0
LINE
  5
14DF
330
2
100
AcDbEntity
  8
0
 48
10.0
100
AcDbLine
 10
411.8570147583255
 20
315.6808852780923
 30
0.0
 11
409.8570147583254
 21
317.6808852780923
 31
0.0
  0
LINE
  5
14E1
330
2
100
AcDbEntity
  8
0
 48
10.0
100
AcDbLine
 10
409.8570147583254
 20
348.6808852780923
 30
0.0
 11
409.8570147583254
 21
317.6808852780923
 31
0.0
  0
LINE
  5
14E2
330
2
100
AcDbEntity
  8
0
 48
10.0
100
AcDbLine
 10
411.8570147583255
 20
350.6808852780923
 30
0.0
 11
409.8570147583254
 21
348.6808852780923
 31
0.0
  0
LINE
  5
14E3
330
2
100
AcDbEntity
  8
0
 48
10.0
100
AcDbLine
 10
479.8570147583254
 20
355.3344751165786
 30
0.0
 11
479.8570147583254
 21
311.0272954396059
 31
0.0
  0
LINE
  5
14E4
330
2
100
AcDbEntity
  8
0
 48
10.0
100
AcDbLine
 10
480.4570147583254
 20
355.6808852780923
 30
0.0
 11
480.4570147583254
 21
310.6808852780923
 31
0.0
  0
ARC
  5
14E6
330
2
100
AcDbEntity
  8
0
100
AcDbCircle
 10
499.6040757374994
 20
301.620081880997
 30
0.0
 40
10.0
100
AcDbArc
 50
283.6002851900804
 51
315.0000000000046
1001
ACAD
1000
ASC_BOUNDS
1002
{
1070
    19
1002
}
  0
ARC
  5
14E7
330
2
100
AcDbEntity
  8
0
100
AcDbCircle
 10
504.3070147583253
 20
282.1808852780923
 30
0.0
 40
10.0
100
AcDbArc
 50
103.6002851900805
 51
180.0
1001
ACAD
1000
ASC_BOUNDS
1002
{
1070
    19
1002
}
  0
LINE
  5
14E8
330
2
100
AcDbEntity
  8
LINIE
  6
GESTRICHELT
 48
10.0
100
AcDbLine
 10
480.8070147583253
 20
270.6808852780923
 30
0.0
 11
485.6070147583254
 21
270.6808852780923
 31
0.0
  0
ARC
  5
14E9
330
2
100
AcDbEntity
  8
LINIE
  6
GESTRICHELT
 48
10.0
100
AcDbCircle
 10
485.6070147583254
 20
270.8808852780921
 30
0.0
 40
0.2
100
AcDbArc
 50
270.0
 51
0.0
1001
ACAD
1000
ASC_BOUNDS
1002
{
1070
    19
1002
}
  0
ARC
  5
14EA
330
2
100
AcDbEntity
  8
0
 48
10.0
100
AcDbCircle
 10
477.3570147583255
 20
313.1808852780923
 30
0.0
 40
2.5
100
AcDbArc
 50
0.0
 51
90.0
  0
LINE
  5
14EB
330
2
100
AcDbEntity
  8
0
 48
10.0
100
AcDbLine
 10
480.4570147583254
 20
310.6808852780923
 30
0.0
 11
479.8570147583254
 21
311.0272954396059
 31
0.0
  0
LINE
  5
14EC
330
2
100
AcDbEntity
  8
0
 48
10.0
100
AcDbLine
 10
480.4570147583254
 20
310.6808852780923
 30
0.0
 11
480.8070147583253
 21
310.6808852780923
 31
0.0
  0
LINE
  5
14ED
330
2
100
AcDbEntity
  8
0
100
AcDbLine
 10
506.6751435493651
 20
294.5490140691317
 30
0.0
 11
508.8780825701905
 21
296.7519530899576
 31
0.0
1001
ACAD
1000
ASC_BOUNDS
1002
{
1070
    19
1002
}
  0
ARC
  5
14EE
330
2
100
AcDbEntity
  8
0
100
AcDbCircle
 10
515.9491503820563
 20
289.6808852780923
 30
0.0
 40
10.0
100
AcDbArc
 50
90.0
 51
135.0000000000046
1001
ACAD
1000
ASC_BOUNDS
1002
{
1070
    19
1002
}
  0
LINE
  5
14EF
330
2
100
AcDbEntity
  8
0
 48
10.0
100
AcDbLine
 10
419.8570147583255
 20
353.980885278092
 30
0.0
 11
469.8570147583255
 21
353.980885278092
 31
0.0
  0
LINE
  5
14F0
330
2
100
AcDbEntity
  8
0
 48
10.0
100
AcDbLine
 10
419.8570147583255
 20
350.6808852780923
 30
0.0
 11
419.8570147583255
 21
353.980885278092
 31
0.0
  0
ARC
  5
14F1
330
2
100
AcDbEntity
  8
0
 48
10.0
100
AcDbCircle
 10
504.3070147583248
 20
348.1808852780923
 30
0.0
 40
10.0
100
AcDbArc
 50
180.0
 51
270.0
  0
ARC
  5
14F2
330
2
100
AcDbEntity
  8
0
 48
10.0
100
AcDbCircle
 10
504.3070147583248
 20
318.1808852780923
 30
0.0
 40
10.0
100
AcDbArc
 50
90.0
 51
180.0
  0
ARC
  5
14F3
330
2
100
AcDbEntity
  8
0
 48
10.0
100
AcDbCircle
 10
477.3570147583255
 20
353.1808852780923
 30
0.0
 40
2.5
100
AcDbArc
 50
270.0
 51
0.0
  0
LINE
  5
14F4
330
2
100
AcDbEntity
  8
0
 48
10.0
100
AcDbLine
 10
469.8570147583255
 20
350.6808852780923
 30
0.0
 11
469.8570147583255
 21
353.9808852780925
 31
0.0
  0
LINE
  5
14F5
330
2
100
AcDbEntity
  8
0
 48
10.0
100
AcDbLine
 10
480.4570147583254
 20
355.6808852780923
 30
0.0
 11
479.8570147583254
 21
355.3344751165786
 31
0.0
  0
LINE
  5
14F6
330
2
100
AcDbEntity
  8
0
 48
10.0
100
AcDbLine
 10
480.4570147583254
 20
355.6808852780923
 30
0.0
 11
480.8070147583253
 21
355.6808852780923
 31
0.0
  0
ARC
  5
14F7
330
2
100
AcDbEntity
  8
0
100
AcDbCircle
 10
504.3070147583253
 20
384.1808852780923
 30
0.0
 40
10.0
100
AcDbArc
 50
180.0
 51
256.3997148099195
1001
ACAD
1000
ASC_BOUNDS
1002
{
1070
    19
1002
}
  0
ARC
  5
14F8
330
2
100
AcDbEntity
  8
0
100
AcDbCircle
 10
499.6040757374994
 20
364.7416886751871
 30
0.0
 40
10.0
100
AcDbArc
 50
44.99999999999539
 51
76.39971480991949
1001
ACAD
1000
ASC_BOUNDS
1002
{
1070
    19
1002
}
  0
LINE
  5
14F9
330
2
100
AcDbEntity
  8
0
100
AcDbLine
 10
506.6751435493651
 20
371.8127564870524
 30
0.0
 11
508.8780825701905
 21
369.6098174662265
 31
0.0
1001
ACAD
1000
ASC_BOUNDS
1002
{
1070
    19
1002
}
  0
LINE
  5
14FA
330
2
100
AcDbEntity
  8
LINIE
  6
GESTRICHELT
 48
10.0
100
AcDbLine
 10
480.8070147583253
 20
395.6808852780923
 30
0.0
 11
485.6070147583254
 21
395.6808852780923
 31
0.0
  0
ARC
  5
14FB
330
2
100
AcDbEntity
  8
LINIE
  6
GESTRICHELT
 48
10.0
100
AcDbCircle
 10
485.6070147583254
 20
395.480885278092
 30
0.0
 40
0.2
100
AcDbArc
 50
0.0
 51
90.0
  0
LINE
  5
14FC
330
2
100
AcDbEntity
  8
0
100
AcDbLine
 10
480.8070147583253
 20
423.1808852780923
 30
0.0
 11
492.3070147583253
 21
423.1808852780923
 31
0.0
  0
LINE
  5
14FD
330
2
100
AcDbEntity
  8
0
100
AcDbLine
 10
494.3070147583252
 20
421.1808852780923
 30
0.0
 11
492.3070147583253
 21
423.1808852780923
 31
0.0
  0
LINE
  5
14FE
330
2
100
AcDbEntity
  8
0
100
AcDbLine
 10
644.2070147583254
 20
378.6245360919883
 30
0.0
 11
644.2070147583254
 21
362.6245360919883
 31
0.0
1001
ACAD
1000
ASC_BOUNDS
1002
{
1070
    19
1005
0
1005
0
1002
}
  0
ARC
  5
1500
330
2
100
AcDbEntity
  8
0
100
AcDbCircle
 10
526.3070147583253
 20
369.1808852780923
 30
0.0
 40
2.5
100
AcDbArc
 50
270.0
 51
0.0
  0
ARC
  5
1501
330
2
100
AcDbEntity
  8
0
100
AcDbCircle
 10
544.3070147583252
 20
376.6808852780923
 30
0.0
 40
10.0
100
AcDbArc
 50
270.0
 51
0.0
1001
ACAD
1000
ASC_BOUNDS
1002
{
1070
    19
1002
}
  0
LINE
  5
1502
330
2
100
AcDbEntity
  8
0
 48
10.0
100
AcDbLine
 10
554.3070147583253
 20
382.1808852780923
 30
0.0
 11
554.3070147583253
 21
289.6476420182084
 31
0.0
  0
LINE
  5
1503
330
2
100
AcDbEntity
  8
MITTE
 48
20.0
100
AcDbLine
 10
644.1760958510058
 20
333.1808852780923
 30
0.0
 11
528.3887203321214
 21
333.1808852780923
 31
0.0
  0
ARC
  5
1504
330
2
100
AcDbEntity
  8
0
100
AcDbCircle
 10
529.3070147583253
 20
289.6808852780923
 30
0.0
 40
10.0
100
AcDbArc
 50
0.0
 51
90.0
1001
ACAD
1000
ASC_BOUNDS
1002
{
1070
    19
1002
}
  0
ARC
  5
1505
330
2
100
AcDbEntity
  8
0
 48
10.0
100
AcDbCircle
 10
544.3070147583252
 20
348.1808852780923
 30
0.0
 40
10.0
100
AcDbArc
 50
270.0
 51
0.0
  0
ARC
  5
1506
330
2
100
AcDbEntity
  8
0
 48
10.0
100
AcDbCircle
 10
544.3070147583252
 20
318.1808852780923
 30
0.0
 40
10.0
100
AcDbArc
 50
0.0
 51
90.0
  0
ARC
  5
1507
330
2
100
AcDbEntity
  8
0
100
AcDbCircle
 10
700.5467607204809
 20
307.6245360919883
 30
0.0
 40
10.0
100
AcDbArc
 50
48.59037789073025
 51
90.0
  0
LINE
  5
1508
330
2
100
AcDbEntity
  8
MITTE
 48
10.0
100
AcDbLine
 10
628.6671737041443
 20
312.6245360919883
 30
0.0
 11
658.9053147295621
 21
312.6245360919883
 31
0.0
  0
LINE
  5
1509
330
2
100
AcDbEntity
  8
0
100
AcDbLine
 10
684.2070147583253
 20
317.6245360919883
 30
0.0
 11
700.5467607204809
 21
317.6245360919883
 31
0.0
  0
LINE
  5
150A
330
2
100
AcDbEntity
  8
0
100
AcDbLine
 10
611.3070147583252
 20
389.1808852780923
 30
0.0
 11
644.2070147583254
 21
389.1808852780923
 31
0.0
1001
ACAD
1000
ASC_BOUNDS
1002
{
1070
    19
1002
}
  0
LINE
  5
150B
330
2
100
AcDbEntity
  8
0
100
AcDbLine
 10
560.3070147583252
 20
388.1808852780923
 30
0.0
 11
609.3070147583253
 21
388.1808852780923
 31
0.0
1001
ACAD
1000
ASC_BOUNDS
1002
{
1070
    19
1002
}
  0
LINE
  5
150C
330
2
100
AcDbEntity
  8
0
100
AcDbLine
 10
544.8070147583252
 20
370.1808852780923
 30
0.0
 11
528.8070147583253
 21
370.1808852780923
 31
0.0
  0
LINE
  5
150D
330
2
100
AcDbEntity
  8
0
100
AcDbLine
 10
528.8070147583253
 20
370.1808852780923
 30
0.0
 11
528.8070147583253
 21
369.1808852780923
 31
0.0
1001
ACAD
1000
ASC_BOUNDS
1002
{
1070
    19
1005
0
1002
}
  0
LINE
  5
150E
330
2
100
AcDbEntity
  8
0
100
AcDbLine
 10
540.8070147583252
 20
372.1808852780923
 30
0.0
 11
530.8070147583253
 21
372.1808852780923
 31
0.0
  0
LINE
  5
150F
330
2
100
AcDbEntity
  8
0
100
AcDbLine
 10
539.8070147583252
 20
373.1808852780923
 30
0.0
 11
531.8070147583252
 21
373.1808852780923
 31
0.0
  0
LINE
  5
1510
330
2
100
AcDbEntity
  8
0
100
AcDbLine
 10
531.8070147583252
 20
373.1808852780923
 30
0.0
 11
530.8070147583253
 21
372.1808852780923
 31
0.0
  0
LINE
  5
1511
330
2
100
AcDbEntity
  8
0
100
AcDbLine
 10
530.8070147583253
 20
372.1808852780923
 30
0.0
 11
530.8070147583253
 21
370.1808852780923
 31
0.0
1001
ACAD
1000
ASC_BOUNDS
1002
{
1070
    19
1002
}
  0
LINE
  5
1512
330
2
100
AcDbEntity
  8
0
100
AcDbLine
 10
540.8070147583252
 20
372.1808852780923
 30
0.0
 11
539.8070147583252
 21
373.1808852780923
 31
0.0
  0
LINE
  5
1513
330
2
100
AcDbEntity
  8
0
100
AcDbLine
 10
540.8070147583252
 20
372.1808852780923
 30
0.0
 11
540.8070147583252
 21
370.1808852780923
 31
0.0
1001
ACAD
1000
ASC_BOUNDS
1002
{
1070
    19
1002
}
  0
ARC
  5
1514
330
2
100
AcDbEntity
  8
0
100
AcDbCircle
 10
547.3070147583253
 20
369.1808852780923
 30
0.0
 40
2.5
100
AcDbArc
 50
180.0
 51
246.6828661559621
  0
LINE
  5
1515
330
2
100
AcDbEntity
  8
0
100
AcDbLine
 10
544.8070147583252
 20
370.1808852780923
 30
0.0
 11
544.8070147583252
 21
369.1808852780923
 31
0.0
1001
ACAD
1000
ASC_BOUNDS
1002
{
1070
    19
1005
0
1002
}
  0
ARC
  5
1516
330
2
100
AcDbEntity
  8
0
100
AcDbCircle
 10
560.3070147583252
 20
382.1808852780923
 30
0.0
 40
6.0
100
AcDbArc
 50
119.2107476043139
 51
180.0
1001
ACAD
1000
ASC_BOUNDS
1002
{
1070
    19
1002
}
  0
ARC
  5
1517
330
2
100
AcDbEntity
  8
0
100
AcDbCircle
 10
560.3070147583252
 20
382.1808852780923
 30
0.0
 40
6.0
100
AcDbArc
 50
90.0
 51
119.2107476043139
1001
ACAD
1000
ASC_BOUNDS
1002
{
1070
    19
1002
}
  0
ARC
  5
1518
330
2
100
AcDbEntity
  8
0
100
AcDbCircle
 10
556.1588159074349
 20
389.5999449417877
 30
0.0
 40
2.5
100
AcDbArc
 50
248.5783165533354
 51
299.2107476043138
  0
ARC
  5
1519
330
2
100
AcDbEntity
  8
0
100
AcDbCircle
 10
609.3070147583253
 20
390.6808852780923
 30
0.0
 40
2.5
100
AcDbArc
 50
270.0
 51
323.1301023541481
1001
ACAD
1000
ASC_BOUNDS
1002
{
1070
    19
1002
}
  0
LINE
  5
151A
330
2
100
AcDbEntity
  8
0
100
AcDbLine
 10
644.2070147583254
 20
378.6245360919888
 30
0.0
 11
697.546760720481
 21
378.6245360919883
 31
0.0
1001
ACAD
1000
ASC_BOUNDS
1002
{
1070
    19
1002
}
  0
LINE
  5
151B
330
2
100
AcDbEntity
  8
LINIE
 48
10.0
100
AcDbLine
 10
703.7521952067295
 20
373.6245360919884
 30
0.0
 11
685.6202620866938
 21
373.6245360919884
 31
0.0
  0
LINE
  5
151C
330
2
100
AcDbEntity
  8
LINIE
 48
10.0
100
AcDbLine
 10
685.5800355498622
 20
373.6245360919884
 30
0.0
 11
708.5350709764789
 21
373.6245360919884
 31
0.0
  0
ARC
  5
151D
330
2
100
AcDbEntity
  8
0
100
AcDbCircle
 10
697.546760720481
 20
368.6245360919883
 30
0.0
 40
10.0
100
AcDbArc
 50
48.59037789073025
 51
90.0
1001
ACAD
1000
ASC_BOUNDS
1002
{
1070
    19
1002
}
  0
ARC
  5
151E
330
2
100
AcDbEntity
  8
0
100
AcDbCircle
 10
710.7755172758039
 20
383.6245360919883
 30
0.0
 40
10.0
100
AcDbArc
 50
228.5903778907302
 51
270.0
1001
ACAD
1000
ASC_BOUNDS
1002
{
1070
    19
1002
}
  0
LINE
  5
151F
330
2
100
AcDbEntity
  8
0
100
AcDbLine
 10
856.2070147583254
 20
373.6245360919884
 30
0.0
 11
856.2070147583254
 21
251.6245360919883
 31
0.0
  0
LINE
  5
1521
330
2
100
AcDbEntity
  8
0
100
AcDbLine
 10
932.7070147583254
 20
373.6245360919884
 30
0.0
 11
932.7070147583254
 21
251.6245360919883
 31
0.0
1001
ACAD
1000
ASC_BOUNDS
1002
{
1070
    19
1002
}
  0
LINE
  5
1522
330
2
100
AcDbEntity
  8
0
100
AcDbLine
 10
913.7070147583253
 20
373.6245360919884
 30
0.0
 11
913.7070147583253
 21
251.6245360919883
 31
0.0
1001
ACAD
1000
ASC_BOUNDS
1002
{
1070
    19
1002
}
  0
LINE
  5
1523
330
2
100
AcDbEntity
  8
0
100
AcDbLine
 10
968.7070147583254
 20
360.1245360919883
 30
0.0
 11
968.7070147583254
 21
265.1245360919883
 31
0.0
  0
LINE
  5
1524
330
2
100
AcDbEntity
  8
0
100
AcDbLine
 10
959.7070147583254
 20
251.6245360919883
 30
0.0
 11
959.7070147583254
 21
372.6245360919883
 31
0.0
  0
LINE
  5
1525
330
2
100
AcDbEntity
  8
0
100
AcDbLine
 10
970.7070147583253
 20
358.1245360919883
 30
0.0
 11
970.7070147583253
 21
267.1245360919883
 31
0.0
1001
ACAD
1000
ASC_BOUNDS
1002
{
1070
    19
1002
}
  0
LINE
  5
152A
330
2
100
AcDbEntity
  8
0
 48
10.0
100
AcDbLine
 10
854.2070147583254
 20
243.6245360919883
 30
0.0
 11
854.2070147583254
 21
372.6245360919883
 31
0.0
  0
LINE
  5
152B
330
2
100
AcDbEntity
  8
0
100
AcDbLine
 10
1207.860732490182
 20
295.9420726397829
 30
0.0
 11
1214.730798957622
 21
258.3374982916939
 31
0.0
  0
ARC
  5
152C
330
2
100
AcDbEntity
  8
0
100
AcDbCircle
 10
1125.926180356855
 20
303.1808852780923
 30
0.0
 40
73.0
100
AcDbArc
 50
205.2880282852026
 51
270.0
  0
ARC
  5
152D
330
2
100
AcDbEntity
  8
0
100
AcDbCircle
 10
1125.926180356855
 20
333.1808852780923
 30
0.0
 40
90.0
100
AcDbArc
 50
218.3212863366541
 51
346.796880321176
  0
LINE
  5
152E
330
2
100
AcDbEntity
  8
0
100
AcDbLine
 10
784.2070147583253
 20
309.6918582133448
 30
0.0
 11
784.2070147583253
 21
246.1245360919883
 31
0.0
1001
ACAD
1000
ASC_BOUNDS
1002
{
1070
    19
1002
}
  0
LINE
  5
1530
330
2
100
AcDbEntity
  8
MITTE
 48
20.0
100
AcDbLine
 10
1125.926180356855
 20
434.8202476573415
 30
0.0
 11
1125.926180356855
 21
197.6141129921907
 31
0.0
  0
ARC
  5
1531
330
2
100
AcDbEntity
  8
0
100
AcDbCircle
 10
1125.926180356855
 20
333.1808852780923
 30
0.0
 40
90.0
100
AcDbArc
 50
346.796880321176
 51
218.3212863366541
  0
LINE
  5
1532
330
2
100
AcDbEntity
  8
0
100
AcDbLine
 10
856.2070147583254
 20
251.6245360919883
 30
0.0
 11
959.7070147583254
 21
251.6245360919883
 31
0.0
1001
ACAD
1000
ASC_BOUNDS
1002
{
1070
    19
1002
}
  0
LINE
  5
153B
330
2
100
AcDbEntity
  8
0
100
AcDbLine
 10
806.0615147583252
 20
233.1035360919881
 30
0.0
 11
836.3525147583255
 21
233.1035360919881
 31
0.0
1001
ACAD
1000
ASC_BOUNDS
1002
{
1070
    19
1002
}
  0
LINE
  5
153C
330
2
100
AcDbEntity
  8
0
100
AcDbLine
 10
796.7575250155423
 20
231.6245360919883
 30
0.0
 11
841.6565045011084
 21
231.6245360919883
 31
0.0
1001
ACAD
1000
ASC_BOUNDS
1002
{
1070
    19
1005
0
1002
}
  0
SPLINE
  5
153D
330
2
100
AcDbEntity
  8
LINIE
 48
10.0
100
AcDbSpline
210
0.0
220
0.0
230
1.0
 70
     8
 71
     3
 72
    12
 73
     8
 74
     6
 42
0.0000000001
 43
0.0000000001
 44
0.0000000001
 40
0.0
 40
0.0
 40
0.0
 40
0.0
 40
4.851711911382057
 40
18.01859907913494
 40
32.66528729343489
 40
43.80667159575153
 40
46.09696782555228
 40
46.09696782555228
 40
46.09696782555228
 40
46.09696782555228
 10
796.7070147583251
 20
239.63190270523
 30
0.0
 10
798.1912185886766
 20
240.2738283467092
 30
0.0
 10
803.7033500299683
 20
242.6578529927924
 30
0.0
 10
814.8238925733464
 20
244.3160947977388
 30
0.0
 10
827.5535966063022
 20
240.6827121072722
 30
0.0
 10
837.0491667456123
 20
242.7435335660709
 30
0.0
 10
841.430247166688
 20
241.7529621885597
 30
0.0
 10
842.1772848844817
 20
241.5840554098556
 30
0.0
 11
796.7070147583251
 21
239.63190270523
 31
0.0
 11
801.2047299005189
 21
241.4511517180721
 31
0.0
 11
814.2349708655888
 21
243.3431712952833
 31
0.0
 11
828.7939018191828
 21
241.7422324659096
 31
0.0
 11
839.9314831117703
 21
242.0333117041091
 31
0.0
 11
842.1772848844817
 21
241.5840554098556
 31
0.0
  0
HATCH
  5
153E
330
2
100
AcDbEntity
  8
LINIE
 48
10.0
100
AcDbHatch
 10
0.0
 20
0.0
 30
0.0
210
0.0
220
0.0
230
1.0
  2
ANSI31
 70
     0
 71
     0
 91
        4
 92
        5
 93
        6
 72
     1
 10
837.8315147583251
 20
231.6245360919883
 11
841.6565045011083
 21
231.6245360919883
 72
     2
 10
839.207014758325
 20
232.1245360919883
 40
2.499999999999964
 50
348.4630409671818
 51
360.0
 73
     1
 72
     1
 10
841.7070147583251
 20
232.1245360919883
 11
841.7070147583251
 21
240.1245360919882
 72
     2
 10
844.2070147583251
 20
240.1245360919881
 40
2.499999999999997
 50
180.0000000000025
 51
215.7188059857725
 73
     0
 72
     4
 94
        3
 73
     0
 74
     0
 95
        9
 96
        5
 40
41.68509778057289
 40
41.68509778057289
 40
41.68509778057289
 40
41.68509778057289
 40
43.97539401037365
 40
46.09696782555251
 40
46.09696782555251
 40
46.09696782555251
 40
46.09696782555251
 10
842.1772848844817
 20
241.5840554098556
 10
841.4302471666882
 20
241.7529621885596
 10
839.9912047901091
 20
242.0783326570881
 10
838.5347641029031
 20
242.1904682307374
 10
837.8315147583245
 20
242.2100115466132
 72
     1
 10
837.8315147583252
 20
242.210011546613
 11
837.8315147583251
 21
231.6245360919882
 97
        0
 92
        5
 93
        4
 72
     4
 94
        3
 73
     0
 74
     0
 95
        8
 96
        4
 40
40.20165906937299
 40
40.20165906937299
 40
40.20165906937299
 40
40.20165906937299
 40
41.68509778057289
 40
41.68509778057289
 40
41.68509778057289
 40
41.68509778057289
 10
837.8315147583244
 20
242.2100115466132
 10
837.3397914471157
 20
242.2236765490315
 10
836.8466609692809
 20
242.2205329209425
 10
836.3525147583249
 20
242.2056841457824
 72
     1
 10
836.3525147583253
 20
242.2056841457824
 11
836.3525147583249
 21
233.1035360919885
 72
     1
 10
836.3525147583249
 20
233.1035360919884
 11
837.8315147583251
 21
231.6245360919882
 72
     1
 10
837.8315147583252
 20
231.6245360919883
 11
837.8315147583254
 21
242.2100115466132
 97
        0
 92
        5
 93
        4
 72
     1
 10
804.5825147583251
 20
231.6245360919883
 11
806.061514758325
 21
233.1035360919882
 72
     1
 10
806.0615147583252
 20
233.1035360919881
 11
806.0615147583252
 21
242.7623247763467
 72
     4
 94
        3
 73
     0
 74
     0
 95
        8
 96
        4
 40
8.357331474458167
 40
8.357331474458167
 40
8.357331474458167
 40
8.357331474458167
 40
9.859576091809659
 40
9.859576091809659
 40
9.859576091809659
 40
9.859576091809659
 10
806.0615147583282
 20
242.7623247763474
 10
805.5660501488219
 20
242.6665092310904
 10
805.0728435482383
 20
242.559920123844
 10
804.5825147583295
 20
242.4427256006087
 72
     1
 10
804.5825147583252
 20
242.4427256006076
 11
804.5825147583251
 21
231.6245360919882
 97
        0
 92
        5
 93
        5
 72
     4
 94
        3
 73
     0
 74
     0
 95
        9
 96
        5
 40
0.0
 40
0.0
 40
0.0
 40
0.0
 40
3.505619563075921
 40
8.357331474458169
 40
8.357331474458169
 40
8.357331474458169
 40
8.357331474458169
 10
804.5825147583295
 20
242.4427256006087
 10
803.4382895247089
 20
242.1692419025518
 10
800.7478385225203
 20
241.3795793611523
 10
798.1912185886767
 20
240.2738283467092
 10
796.7070147583251
 20
239.63190270523
 72
     1
 10
796.7070147583249
 20
239.63190270523
 11
796.7070147583251
 21
232.1245360919884
 72
     2
 10
799.2070147583254
 20
232.1245360919883
 40
2.500000000000019
 50
180.0000000000013
 51
191.5369590328181
 73
     1
 72
     1
 10
796.757525015542
 20
231.6245360919883
 11
804.5825147583251
 21
231.6245360919883
 72
     1
 10
804.5825147583251
 20
231.6245360919883
 11
804.5825147583251
 21
242.4427256006075
 97
        0
 75
     0
 76
     1
 52
0.0
 41
25.0
 77
     0
 78
     1
 53
45.0
 43
262.3822601760765
 44
-13.08517362976499
 45
-2.20970869120796
 46
2.209708691207961
 79
     0
 47
0.3395931865206437
 98
        4
 10
838.8516951907103
 20
235.4112446935078
 10
837.4928615224179
 20
236.0904305890658
 10
805.2205682355561
 20
236.7696179942608
 10
801.4837756477513
 20
236.0904305890658
  0
ARC
  5
153F
330
2
100
AcDbEntity
  8
0
100
AcDbCircle
 10
844.2070147583253
 20
240.1245360919883
 30
0.0
 40
2.5
100
AcDbArc
 50
90.0
 51
180.0
1001
ACAD
1000
ASC_BOUNDS
1002
{
1070
    19
1002
}
  0
LINE
  5
1540
330
2
100
AcDbEntity
  8
LINIE
 48
10.0
100
AcDbLine
 10
837.8315147583252
 20
242.2100115466223
 30
0.0
 11
837.8315147583252
 21
231.6245360919883
 31
0.0
1001
ACAD
1000
ASC_BOUNDS
1002
{
1070
    19
1002
}
  0
ARC
  5
1541
330
2
100
AcDbEntity
  8
0
100
AcDbCircle
 10
839.2070147583254
 20
232.1245360919883
 30
0.0
 40
2.5
100
AcDbArc
 50
348.4630409671818
 51
0.0
1001
ACAD
1000
ASC_BOUNDS
1002
{
1070
    19
1002
}
  0
LINE
  5
1542
330
2
100
AcDbEntity
  8
0
100
AcDbLine
 10
841.7070147583254
 20
240.1245360919883
 30
0.0
 11
841.7070147583254
 21
232.1245360919883
 31
0.0
1001
ACAD
1000
ASC_BOUNDS
1002
{
1070
    19
1002
}
  0
LINE
  5
1543
330
2
100
AcDbEntity
  8
0
100
AcDbLine
 10
836.3525147583249
 20
242.2056841457847
 30
0.0
 11
836.3525147583249
 21
233.1035360919881
 31
0.0
1001
ACAD
1000
ASC_BOUNDS
1002
{
1070
    19
1002
}
  0
LINE
  5
1544
330
2
100
AcDbEntity
  8
0
100
AcDbLine
 10
836.3525147583249
 20
233.1035360919881
 30
0.0
 11
837.8315147583252
 21
231.6245360919883
 31
0.0
1001
ACAD
1000
ASC_BOUNDS
1002
{
1070
    19
1002
}
  0
LINE
  5
1545
330
2
100
AcDbEntity
  8
LINIE
 48
10.0
100
AcDbLine
 10
804.5825147583254
 20
242.4427256006238
 30
0.0
 11
804.5825147583251
 21
231.6245360919883
 31
0.0
1001
ACAD
1000
ASC_BOUNDS
1002
{
1070
    19
1002
}
  0
LINE
  5
1546
330
2
100
AcDbEntity
  8
0
100
AcDbLine
 10
806.0615147583252
 20
233.1035360919881
 30
0.0
 11
804.5825147583251
 21
231.6245360919883
 31
0.0
1001
ACAD
1000
ASC_BOUNDS
1002
{
1070
    19
1002
}
  0
LINE
  5
1547
330
2
100
AcDbEntity
  8
0
100
AcDbLine
 10
806.0615147583252
 20
242.7623247763622
 30
0.0
 11
806.0615147583249
 21
233.1035360919881
 31
0.0
1001
ACAD
1000
ASC_BOUNDS
1002
{
1070
    19
1002
}
  0
LINE
  5
1548
330
2
100
AcDbEntity
  8
0
100
AcDbLine
 10
796.7070147583253
 20
240.1245360919883
 30
0.0
 11
796.7070147583253
 21
232.1245360919883
 31
0.0
1001
ACAD
1000
ASC_BOUNDS
1002
{
1070
    19
1002
}
  0
ARC
  5
1549
330
2
100
AcDbEntity
  8
0
100
AcDbCircle
 10
799.2070147583254
 20
232.1245360919883
 30
0.0
 40
2.5
100
AcDbArc
 50
180.0
 51
191.5369590328181
1001
ACAD
1000
ASC_BOUNDS
1002
{
1070
    19
1002
}
  0
LINE
  5
154A
330
2
100
AcDbEntity
  8
0
100
AcDbLine
 10
851.2070147583253
 20
242.6245360919883
 30
0.0
 11
820.3201623839159
 21
242.6245360919883
 31
0.0
1001
ACAD
1000
ASC_BOUNDS
1002
{
1070
    19
1002
}
  0
LINE
  5
154B
330
2
100
AcDbEntity
  8
0
100
AcDbLine
 10
770.7070147583253
 20
214.1334545565014
 30
0.0
 11
770.7070147583253
 21
232.2703181658543
 31
0.0
  0
LINE
  5
154C
330
2
100
AcDbEntity
  8
0
100
AcDbLine
 10
725.7070147583253
 20
214.1334545565014
 30
0.0
 11
725.7070147583253
 21
232.2703181658543
 31
0.0
  0
LINE
  5
154D
330
2
100
AcDbEntity
  8
0
100
AcDbLine
 10
757.480633253821
 20
213.8581046820722
 30
0.0
 11
757.480633253821
 21
232.545668040284
 31
0.0
  0
LINE
  5
154E
330
2
100
AcDbEntity
  8
0
100
AcDbLine
 10
761.3237262881584
 20
214.1334545565014
 30
0.0
 11
761.3237262881584
 21
232.2703181658543
 31
0.0
  0
LINE
  5
154F
330
2
100
AcDbEntity
  8
0
100
AcDbLine
 10
735.0903032284922
 20
214.1334545565014
 30
0.0
 11
735.0903032284922
 21
232.2703181658543
 31
0.0
  0
LINE
  5
1550
330
2
100
AcDbEntity
  8
0
100
AcDbLine
 10
738.9333962628297
 20
213.8581046820722
 30
0.0
 11
738.9333962628297
 21
232.545668040284
 31
0.0
  0
LINE
  5
1551
330
2
100
AcDbEntity
  8
MITTE
 48
8.0
100
AcDbLine
 10
748.2070147583254
 20
249.1505056882879
 30
0.0
 11
748.2070147583254
 21
209.4154019564212
 31
0.0
  0
LINE
  5
1552
330
2
100
AcDbEntity
  8
0
100
AcDbLine
 10
769.1980962938123
 20
212.6245360919883
 30
0.0
 11
727.2159332228384
 21
212.6245360919883
 31
0.0
  0
ARC
  5
1553
330
2
100
AcDbEntity
  8
0
100
AcDbCircle
 10
748.2070147583254
 20
248.0995360919882
 30
0.0
 40
35.475
100
AcDbArc
 50
254.8460917587445
 51
285.1539082412553
  0
ARC
  5
1554
330
2
100
AcDbEntity
  8
0
100
AcDbCircle
 10
730.3986589934088
 20
220.6728041503224
 30
0.0
 40
8.048268058334087
100
AcDbArc
 50
234.3425218101889
 51
305.6574781898111
  0
LINE
  5
1555
330
2
100
AcDbEntity
  8
0
100
AcDbLine
 10
725.7070147583253
 20
214.1334545565014
 30
0.0
 11
727.2159332228384
 21
212.6245360919883
 31
0.0
1001
ACAD
1000
ASC_BOUNDS
1002
{
1070
    19
1002
}
  0
LINE
  5
1556
330
2
100
AcDbEntity
  8
0
100
AcDbLine
 10
735.0903032284922
 20
214.1334545565014
 30
0.0
 11
738.9333962628297
 21
214.1334545565014
 31
0.0
  0
LINE
  5
1557
330
2
100
AcDbEntity
  8
0
100
AcDbLine
 10
761.3237262881584
 20
214.1334545565014
 30
0.0
 11
757.480633253821
 21
214.1334545565014
 31
0.0
  0
ARC
  5
1558
330
2
100
AcDbEntity
  8
0
100
AcDbCircle
 10
766.0153705232419
 20
220.6728041503224
 30
0.0
 40
8.048268058334087
100
AcDbArc
 50
234.3425218101889
 51
305.6574781898111
  0
LINE
  5
1559
330
2
100
AcDbEntity
  8
0
100
AcDbLine
 10
770.7070147583253
 20
214.1334545565014
 30
0.0
 11
769.1980962938123
 21
212.6245360919883
 31
0.0
1001
ACAD
1000
ASC_BOUNDS
1002
{
1070
    19
1002
}
  0
ARC
  5
155A
330
2
100
AcDbEntity
  8
0
100
AcDbCircle
 10
728.2070147583254
 20
246.6245360919883
 30
0.0
 40
4.0
100
AcDbArc
 50
180.0
 51
228.5903778907302
1001
ACAD
1000
ASC_BOUNDS
1002
{
1070
    19
1002
}
  0
LINE
  5
155B
330
2
100
AcDbEntity
  8
0
100
AcDbLine
 10
770.7070147583253
 20
233.7792366303674
 30
0.0
 11
725.7070147583253
 21
233.7792366303674
 31
0.0
  0
LINE
  5
155C
330
2
100
AcDbEntity
  8
0
100
AcDbLine
 10
770.7070147583253
 20
243.6245360919883
 30
0.0
 11
725.7070147583253
 21
243.6245360919883
 31
0.0
1001
ACAD
1000
ASC_BOUNDS
1002
{
1070
    19
1002
}
  0
ARC
  5
155D
330
2
100
AcDbEntity
  8
0
100
AcDbCircle
 10
748.2070147583254
 20
198.3042366303675
 30
0.0
 40
35.475
100
AcDbArc
 50
74.84609175874457
 51
105.1539082412554
  0
ARC
  5
155E
330
2
100
AcDbEntity
  8
0
100
AcDbCircle
 10
730.3986589934088
 20
225.7309685720338
 30
0.0
 40
8.048268058334087
100
AcDbArc
 50
54.34252181018887
 51
125.6574781898111
  0
LINE
  5
155F
330
2
100
AcDbEntity
  8
0
100
AcDbLine
 10
725.7070147583253
 20
233.7792366303674
 30
0.0
 11
725.7070147583253
 21
243.6245360919883
 31
0.0
1001
ACAD
1000
ASC_BOUNDS
1002
{
1070
    19
1002
}
  0
LINE
  5
1560
330
2
100
AcDbEntity
  8
0
100
AcDbLine
 10
725.7070147583253
 20
232.2703181658543
 30
0.0
 11
727.2159332228384
 21
233.7792366303674
 31
0.0
1001
ACAD
1000
ASC_BOUNDS
1002
{
1070
    19
1002
}
  0
LINE
  5
1561
330
2
100
AcDbEntity
  8
0
100
AcDbLine
 10
735.0903032284922
 20
232.2703181658543
 30
0.0
 11
738.9333962628297
 21
232.2703181658543
 31
0.0
  0
LINE
  5
1562
330
2
100
AcDbEntity
  8
0
100
AcDbLine
 10
761.3237262881584
 20
232.2703181658543
 30
0.0
 11
757.480633253821
 21
232.2703181658543
 31
0.0
  0
ARC
  5
1563
330
2
100
AcDbEntity
  8
0
100
AcDbCircle
 10
766.0153705232419
 20
225.7309685720338
 30
0.0
 40
8.048268058334087
100
AcDbArc
 50
54.34252181018887
 51
125.6574781898111
  0
LINE
  5
1564
330
2
100
AcDbEntity
  8
0
100
AcDbLine
 10
770.7070147583253
 20
233.7792366303674
 30
0.0
 11
770.7070147583253
 21
243.6245360919883
 31
0.0
1001
ACAD
1000
ASC_BOUNDS
1002
{
1070
    19
1002
}
  0
LINE
  5
1565
330
2
100
AcDbEntity
  8
0
100
AcDbLine
 10
770.7070147583253
 20
232.2703181658543
 30
0.0
 11
769.1980962938123
 21
233.7792366303674
 31
0.0
1001
ACAD
1000
ASC_BOUNDS
1002
{
1070
    19
1002
}
  0
LINE
  5
1566
330
2
100
AcDbEntity
  8
0
100
AcDbLine
 10
724.2070147583254
 20
246.6245360919883
 30
0.0
 11
724.2070147583254
 21
247.6245360919883
 31
0.0
1001
ACAD
1000
ASC_BOUNDS
1002
{
1070
    19
1002
}
  0
ARC
  5
1567
330
2
100
AcDbEntity
  8
0
100
AcDbCircle
 10
720.2070147583254
 20
247.6245360919883
 30
0.0
 40
4.0
100
AcDbArc
 50
0.0
 51
90.0
1001
ACAD
1000
ASC_BOUNDS
1002
{
1070
    19
1002
}
  0
ARC
  5
1568
330
2
100
AcDbEntity
  8
0
100
AcDbCircle
 10
781.7070147583254
 20
246.1245360919883
 30
0.0
 40
2.5
100
AcDbArc
 50
270.0
 51
0.0
1001
ACAD
1000
ASC_BOUNDS
1002
{
1070
    19
1002
}
  0
LINE
  5
1569
330
2
100
AcDbEntity
  8
MITTE
 48
10.0
100
AcDbLine
 10
821.2070147583254
 20
248.3258804190495
 30
0.0
 11
821.2070147583254
 21
227.5254053685398
 31
0.0
  0
LINE
  5
156A
330
2
100
AcDbEntity
  8
0
100
AcDbLine
 10
805.3851476075902
 20
242.6245360919883
 30
0.0
 11
791.2070147583249
 21
242.6245360919883
 31
0.0
1001
ACAD
1000
ASC_BOUNDS
1002
{
1070
    19
1002
}
  0
ARC
  5
156B
330
2
100
AcDbEntity
  8
0
100
AcDbCircle
 10
794.2070147583254
 20
240.1245360919883
 30
0.0
 40
2.5
100
AcDbArc
 50
0.0
 51
90.0
1001
ACAD
1000
ASC_BOUNDS
1002
{
1070
    19
1002
}
  0
LINE
  5
156C
330
2
100
AcDbEntity
  8
0
100
AcDbLine
 10
791.2070147583253
 20
243.6245360919883
 30
0.0
 11
791.2070147583249
 21
242.6245360919883
 31
0.0
1001
ACAD
1000
ASC_BOUNDS
1002
{
1070
    19
1002
}
  0
ARC
  5
156D
330
2
100
AcDbEntity
  8
0
100
AcDbCircle
 10
851.2070147583253
 20
247.6245360919883
 30
0.0
 40
5.0
100
AcDbArc
 50
270.0
 51
306.8698976458466
1001
ACAD
1000
ASC_BOUNDS
1002
{
1070
    19
1002
}
  0
LINE
  5
156E
330
2
100
AcDbEntity
  8
0
100
AcDbLine
 10
856.2070147583254
 20
251.6245360919883
 30
0.0
 11
854.2070147583254
 21
253.6245360919883
 31
0.0
1001
ACAD
1000
ASC_BOUNDS
1002
{
1070
    19
1002
}
  0
ARC
  5
1571
330
2
100
AcDbEntity
  8
0
100
AcDbCircle
 10
961.7070147583254
 20
263.1245360919883
 30
0.0
 40
2.0
100
AcDbArc
 50
90.0
 51
180.0
1001
ACAD
1000
ASC_BOUNDS
1002
{
1070
    19
1002
}
  0
LINE
  5
1572
330
2
100
AcDbEntity
  8
0
100
AcDbLine
 10
970.7070147583253
 20
267.1245360919883
 30
0.0
 11
968.7070147583254
 21
265.1245360919883
 31
0.0
1001
ACAD
1000
ASC_BOUNDS
1002
{
1070
    19
1002
}
  0
LINE
  5
1573
330
2
100
AcDbEntity
  8
0
100
AcDbLine
 10
961.7070147583254
 20
265.1245360919883
 30
0.0
 11
968.7070147583254
 21
265.1245360919883
 31
0.0
1001
ACAD
1000
ASC_BOUNDS
1002
{
1070
    19
1002
}
  0
ARC
  5
1574
330
2
100
AcDbEntity
  8
0
100
AcDbCircle
 10
1202.926180356855
 20
256.1808852780923
 30
0.0
 40
12.0
100
AcDbArc
 50
288.0261308132893
 51
10.35332004393006
  0
LINE
  5
1575
330
2
100
AcDbEntity
  8
0
100
AcDbLine
 10
1111.480111993585
 20
231.6245360919874
 30
0.0
 11
1103.476690614072
 21
231.6245360919874
 31
0.0
  0
LINE
  5
1576
330
2
100
AcDbEntity
  8
0
100
AcDbLine
 10
1085.707369558959
 20
214.0299300042197
 30
0.0
 11
1085.707369558959
 21
232.3738427181365
 31
0.0
  0
LINE
  5
1577
330
2
100
AcDbEntity
  8
0
100
AcDbLine
 10
1090.14499115475
 20
214.0299300042197
 30
0.0
 11
1090.14499115475
 21
232.3738427181365
 31
0.0
  0
LINE
  5
1578
330
2
100
AcDbEntity
  8
MITTE
 48
7.0
100
AcDbLine
 10
1087.926180356855
 20
209.566775484382
 30
0.0
 11
1087.926180356855
 21
245.9578103224789
 31
0.0
  0
LINE
  5
1579
330
2
100
AcDbEntity
  8
0
100
AcDbLine
 10
1106.207369558959
 20
214.0299300042197
 30
0.0
 11
1106.207369558959
 21
231.6245360919874
 31
0.0
  0
LINE
  5
157A
330
2
100
AcDbEntity
  8
0
100
AcDbLine
 10
1069.64499115475
 20
214.0299300042197
 30
0.0
 11
1069.64499115475
 21
232.3738427181365
 31
0.0
  0
LINE
  5
157B
330
2
100
AcDbEntity
  8
0
100
AcDbLine
 10
1067.426180356855
 20
213.6245360919883
 30
0.0
 11
1067.426180356855
 21
232.6245360919883
 31
0.0
1001
ACAD
1000
ASC_BOUNDS
1002
{
1070
    19
1002
}
  0
LINE
  5
157C
330
2
100
AcDbEntity
  8
0
100
AcDbLine
 10
1108.426180356855
 20
213.6245360919883
 30
0.0
 11
1108.426180356855
 21
231.6245360919874
 31
0.0
1001
ACAD
1000
ASC_BOUNDS
1002
{
1070
    19
1002
}
  0
LINE
  5
157D
330
2
100
AcDbEntity
  8
0
100
AcDbLine
 10
1068.426180356855
 20
212.6245360919883
 30
0.0
 11
1107.426180356855
 21
212.6245360919883
 31
0.0
1001
ACAD
1000
ASC_BOUNDS
1002
{
1070
    19
1005
0
1002
}
  0
ARC
  5
157E
330
2
100
AcDbEntity
  8
0
100
AcDbCircle
 10
1077.676180356855
 20
236.2745360919884
 30
0.0
 40
23.65
100
AcDbArc
 50
250.1483977684166
 51
289.8516022315833
  0
LINE
  5
157F
330
2
100
AcDbEntity
  8
0
100
AcDbLine
 10
1069.64499115475
 20
214.0299300042197
 30
0.0
 11
1067.426180356855
 21
213.6245360919883
 31
0.0
  0
LINE
  5
1580
330
2
100
AcDbEntity
  8
0
100
AcDbLine
 10
1067.426180356855
 20
213.6245360919883
 30
0.0
 11
1068.426180356855
 21
212.6245360919883
 31
0.0
1001
ACAD
1000
ASC_BOUNDS
1002
{
1070
    19
1002
}
  0
ARC
  5
1581
330
2
100
AcDbEntity
  8
0
100
AcDbCircle
 10
1098.176180356855
 20
236.2745360919884
 30
0.0
 40
23.65
100
AcDbArc
 50
250.1483977684166
 51
289.8516022315833
  0
LINE
  5
1582
330
2
100
AcDbEntity
  8
0
100
AcDbLine
 10
1090.14499115475
 20
214.0299300042197
 30
0.0
 11
1085.707369558959
 21
214.0299300042197
 31
0.0
  0
LINE
  5
1583
330
2
100
AcDbEntity
  8
0
100
AcDbLine
 10
1108.426180356855
 20
213.6245360919883
 30
0.0
 11
1107.426180356855
 21
212.6245360919883
 31
0.0
1001
ACAD
1000
ASC_BOUNDS
1002
{
1070
    19
1002
}
  0
LINE
  5
1584
330
2
100
AcDbEntity
  8
0
100
AcDbLine
 10
1108.426180356855
 20
213.6245360919883
 30
0.0
 11
1106.207369558959
 21
214.0299300042197
 31
0.0
  0
ARC
  5
1585
330
2
100
AcDbEntity
  8
0
100
AcDbCircle
 10
1067.426180356855
 20
245.1245360919883
 30
0.0
 40
2.5
100
AcDbArc
 50
180.0
 51
270.0
  0
ARC
  5
1586
330
2
100
AcDbEntity
  8
0
100
AcDbCircle
 10
1067.426180356855
 20
245.1245360919883
 30
0.0
 40
2.5
100
AcDbArc
 50
180.0
 51
270.0
  0
LINE
  5
1587
330
2
100
AcDbEntity
  8
0
100
AcDbLine
 10
1103.426180356855
 20
233.7792366303679
 30
0.0
 11
1065.426180356855
 21
233.7792366303674
 31
0.0
  0
ARC
  5
1588
330
2
100
AcDbEntity
  8
0
100
AcDbCircle
 10
1077.676180356855
 20
210.1292366303677
 30
0.0
 40
23.65
100
AcDbArc
 50
70.14839776841663
 51
109.8516022315833
  0
LINE
  5
1589
330
2
100
AcDbEntity
  8
0
100
AcDbLine
 10
1085.159422167729
 20
242.6245360919883
 30
0.0
 11
1067.426180356855
 21
242.6245360919883
 31
0.0
1001
ACAD
1000
ASC_BOUNDS
1002
{
1070
    19
1005
0
1002
}
  0
LINE
  5
158A
330
2
100
AcDbEntity
  8
0
100
AcDbLine
 10
1065.426180356855
 20
242.6245360919883
 30
0.0
 11
1085.159422167729
 21
242.6245360919883
 31
0.0
1001
ACAD
1000
ASC_BOUNDS
1002
{
1070
    19
1002
}
  0
LINE
  5
158B
330
2
100
AcDbEntity
  8
0
100
AcDbLine
 10
1067.426180356855
 20
232.6245360919883
 30
0.0
 11
1069.64499115475
 21
232.3738427181365
 31
0.0
  0
LINE
  5
158C
330
2
100
AcDbEntity
  8
0
100
AcDbLine
 10
1067.426180356855
 20
232.6245360919883
 30
0.0
 11
1065.426180356855
 21
233.7792366303674
 31
0.0
1001
ACAD
1000
ASC_BOUNDS
1002
{
1070
    19
1002
}
  0
LINE
  5
158D
330
2
100
AcDbEntity
  8
0
100
AcDbLine
 10
1065.426180356855
 20
233.7792366303674
 30
0.0
 11
1065.426180356855
 21
242.6245360919883
 31
0.0
1001
ACAD
1000
ASC_BOUNDS
1002
{
1070
    19
1002
}
  0
ARC
  5
158E
330
2
100
AcDbEntity
  8
0
100
AcDbCircle
 10
1105.926180356855
 20
232.1245360919883
 30
0.0
 40
2.5
100
AcDbArc
 50
180.0
 51
191.5369590328449
  0
ARC
  5
158F
330
2
100
AcDbEntity
  8
0
100
AcDbCircle
 10
1098.176180356855
 20
210.1292366303677
 30
0.0
 40
23.65
100
AcDbArc
 50
77.17421556953915
 51
109.8516022315833
  0
LINE
  5
1590
330
2
100
AcDbEntity
  8
0
100
AcDbLine
 10
1090.14499115475
 20
232.3738427181365
 30
0.0
 11
1085.707369558959
 21
232.3738427181365
 31
0.0
  0
LINE
  5
1591
330
2
100
AcDbEntity
  8
0
100
AcDbLine
 10
1103.426180356855
 20
233.7348630737928
 30
0.0
 11
1103.426180356855
 21
232.1245360919883
 31
0.0
  0
LINE
  5
1592
330
2
100
AcDbEntity
  8
0
100
AcDbLine
 10
1064.926180356855
 20
263.081009966565
 30
0.0
 11
1064.926180356855
 21
245.1245360919883
 31
0.0
  0
LINE
  5
1593
330
2
100
AcDbEntity
  8
0
100
AcDbLine
 10
1064.926180356855
 20
263.081009966565
 30
0.0
 11
1064.926180356855
 21
245.1245360919883
 31
0.0
  0
LINE
  5
1594
330
2
100
AcDbEntity
  8
0
100
AcDbLine
 10
1182.207369558959
 20
214.0299300042197
 30
0.0
 11
1182.207369558959
 21
232.3738427181365
 31
0.0
  0
LINE
  5
1595
330
2
100
AcDbEntity
  8
0
100
AcDbLine
 10
1184.426180356855
 20
213.6245360919883
 30
0.0
 11
1184.426180356855
 21
232.6245360919883
 31
0.0
1001
ACAD
1000
ASC_BOUNDS
1002
{
1070
    19
1002
}
  0
LINE
  5
1596
330
2
100
AcDbEntity
  8
0
100
AcDbLine
 10
1143.426180356855
 20
213.6245360919883
 30
0.0
 11
1143.426180356855
 21
230.1808852780923
 31
0.0
1001
ACAD
1000
ASC_BOUNDS
1002
{
1070
    19
1002
}
  0
LINE
  5
1597
330
2
100
AcDbEntity
  8
0
100
AcDbLine
 10
1145.64499115475
 20
214.0299300042197
 30
0.0
 11
1145.64499115475
 21
230.1808852780923
 31
0.0
  0
LINE
  5
1598
330
2
100
AcDbEntity
  8
0
100
AcDbLine
 10
1161.707369558959
 20
214.0299300042197
 30
0.0
 11
1161.707369558959
 21
230.8736460033205
 31
0.0
  0
LINE
  5
1599
330
2
100
AcDbEntity
  8
0
100
AcDbLine
 10
1166.14499115475
 20
214.0299300042197
 30
0.0
 11
1166.14499115475
 21
231.7633969026678
 31
0.0
  0
LINE
  5
159A
330
2
100
AcDbEntity
  8
MITTE
 48
7.0
100
AcDbLine
 10
1163.926180356855
 20
209.566775484382
 30
0.0
 11
1163.926180356855
 21
245.9578103224789
 31
0.0
  0
ARC
  5
159B
330
2
100
AcDbEntity
  8
0
100
AcDbCircle
 10
1153.676180356855
 20
236.2745360919884
 30
0.0
 40
23.65
100
AcDbArc
 50
250.1483977684166
 51
289.8516022315833
  0
LINE
  5
159C
330
2
100
AcDbEntity
  8
0
100
AcDbLine
 10
1144.426180356855
 20
212.6245360919883
 30
0.0
 11
1183.426180356855
 21
212.6245360919883
 31
0.0
1001
ACAD
1000
ASC_BOUNDS
1002
{
1070
    19
1005
0
1002
}
  0
LINE
  5
159D
330
2
100
AcDbEntity
  8
0
100
AcDbLine
 10
1143.426180356855
 20
213.6245360919883
 30
0.0
 11
1144.426180356855
 21
212.6245360919883
 31
0.0
1001
ACAD
1000
ASC_BOUNDS
1002
{
1070
    19
1002
}
  0
LINE
  5
159E
330
2
100
AcDbEntity
  8
0
100
AcDbLine
 10
1145.64499115475
 20
214.0299300042197
 30
0.0
 11
1143.426180356855
 21
213.6245360919883
 31
0.0
  0
ARC
  5
159F
330
2
100
AcDbEntity
  8
0
100
AcDbCircle
 10
1174.176180356855
 20
236.2745360919884
 30
0.0
 40
23.65
100
AcDbArc
 50
250.1483977684166
 51
289.8516022315833
  0
LINE
  5
15A0
330
2
100
AcDbEntity
  8
0
100
AcDbLine
 10
1166.14499115475
 20
214.0299300042197
 30
0.0
 11
1161.707369558959
 21
214.0299300042197
 31
0.0
  0
LINE
  5
15A1
330
2
100
AcDbEntity
  8
0
100
AcDbLine
 10
1184.426180356855
 20
213.6245360919883
 30
0.0
 11
1182.207369558959
 21
214.0299300042197
 31
0.0
  0
LINE
  5
15A2
330
2
100
AcDbEntity
  8
0
100
AcDbLine
 10
1184.426180356855
 20
213.6245360919883
 30
0.0
 11
1183.426180356855
 21
212.6245360919883
 31
0.0
1001
ACAD
1000
ASC_BOUNDS
1002
{
1070
    19
1002
}
  0
ARC
  5
15A3
330
2
100
AcDbEntity
  8
0
100
AcDbCircle
 10
1152.926180356855
 20
286.1808852780923
 30
0.0
 40
56.0
100
AcDbArc
 50
270.0
 51
288.0261308132893
  0
LINE
  5
15A4
330
2
100
AcDbEntity
  8
0
100
AcDbLine
 10
1125.926180356855
 20
230.1808852780923
 30
0.0
 11
1152.926180356855
 21
230.1808852780923
 31
0.0
  0
LINE
  5
15A5
330
2
100
AcDbEntity
  8
0
100
AcDbLine
 10
1170.255420080907
 20
232.9296181515128
 30
0.0
 11
1206.639588869152
 21
244.7698994652537
 31
0.0
  0
LINE
  5
15A6
330
2
100
AcDbEntity
  8
0
100
AcDbLine
 10
1184.426180356855
 20
232.6245360919883
 30
0.0
 11
1186.426180356855
 21
233.7792366303679
 31
0.0
1001
ACAD
1000
ASC_BOUNDS
1002
{
1070
    19
1002
}
  0
LINE
  5
15A7
330
2
100
AcDbEntity
  8
0
100
AcDbLine
 10
1186.426180356855
 20
233.7792366303679
 30
0.0
 11
1172.866224784035
 21
233.7792366303679
 31
0.0
  0
ARC
  5
15A8
330
2
100
AcDbEntity
  8
0
100
AcDbCircle
 10
1174.176180356855
 20
210.1292366303677
 30
0.0
 40
23.65
100
AcDbArc
 50
70.14839776841663
 51
93.50511215251323
  0
LINE
  5
15A9
330
2
100
AcDbEntity
  8
0
100
AcDbLine
 10
1184.426180356855
 20
232.6245360919883
 30
0.0
 11
1182.207369558959
 21
232.3738427181365
 31
0.0
  0
LINE
  5
15AA
330
2
100
AcDbEntity
  8
0
100
AcDbLine
 10
1186.426180356855
 20
233.7792366303679
 30
0.0
 11
1186.426180356855
 21
238.1919714524392
 31
0.0
1001
ACAD
1000
ASC_BOUNDS
1002
{
1070
    19
1002
}
  0
LINE
  5
15AB
330
2
100
AcDbEntity
  8
MITTE
 48
10.0
100
AcDbLine
 10
1202.926180356855
 20
262.2268275209303
 30
0.0
 11
1202.926180356855
 21
250.483733774965
 31
0.0
  0
ARC
  5
15AC
330
2
100
AcDbEntity
  8
LINIE
 48
10.0
100
AcDbCircle
 10
1202.926180356855
 20
256.1808852780923
 30
0.0
 40
4.0
100
AcDbArc
 50
163.3492982195178
 51
98.85437576424353
  0
CIRCLE
  5
15AD
330
2
100
AcDbEntity
  8
0
100
AcDbCircle
 10
1202.926180356855
 20
256.1808852780923
 30
0.0
 40
3.3235
  0
LINE
  5
15AE
330
2
100
AcDbEntity
  8
MITTE
 48
10.0
100
AcDbLine
 10
1198.189237455296
 20
256.1808852780923
 30
0.0
 11
1209.041500863647
 21
256.1808852780923
 31
0.0
  0
LINE
  5
15B2
330
2
100
AcDbEntity
  8
0
100
AcDbLine
 10
913.7070147583253
 20
373.6245360919884
 30
0.0
 11
932.7070147583254
 21
373.6245360919884
 31
0.0
1001
ACAD
1000
ASC_BOUNDS
1002
{
1070
    19
1002
}
  0
ARC
  5
15B3
330
2
100
AcDbEntity
  8
0
100
AcDbCircle
 10
786.7070147583254
 20
309.6918582133448
 30
0.0
 40
2.5
100
AcDbArc
 50
90.0
 51
180.0
1001
ACAD
1000
ASC_BOUNDS
1002
{
1070
    19
1002
}
  0
LINE
  5
15B4
330
2
100
AcDbEntity
  8
0
100
AcDbLine
 10
856.2070147583254
 20
373.6245360919884
 30
0.0
 11
913.7070147583253
 21
373.6245360919884
 31
0.0
1001
ACAD
1000
ASC_BOUNDS
1002
{
1070
    19
1002
}
  0
ARC
  5
15B5
330
2
100
AcDbEntity
  8
0
100
AcDbCircle
 10
851.2070147583253
 20
368.6245360919883
 30
0.0
 40
5.0
100
AcDbArc
 50
53.13010235415337
 51
90.0
1001
ACAD
1000
ASC_BOUNDS
1002
{
1070
    19
1002
}
  0
LINE
  5
15B6
330
2
100
AcDbEntity
  8
0
100
AcDbLine
 10
856.2070147583254
 20
373.6245360919884
 30
0.0
 11
854.2070147583254
 21
371.6245360919883
 31
0.0
1001
ACAD
1000
ASC_BOUNDS
1002
{
1070
    19
1002
}
  0
LINE
  5
15B7
330
2
100
AcDbEntity
  8
0
100
AcDbLine
 10
913.7070147583253
 20
373.6245360919884
 30
0.0
 11
913.7070147583253
 21
370.6245360919883
 31
0.0
1001
ACAD
1000
ASC_BOUNDS
1002
{
1070
    19
1002
}
  0
LINE
  5
15B9
330
2
100
AcDbEntity
  8
0
100
AcDbLine
 10
965.7070147583253
 20
363.1245360919884
 30
0.0
 11
965.7070147583253
 21
372.1245360919883
 31
0.0
  0
LINE
  5
15BA
330
2
100
AcDbEntity
  8
0
100
AcDbLine
 10
959.7070147583254
 20
373.6245360919884
 30
0.0
 11
959.7070147583254
 21
362.1245360919883
 31
0.0
1001
ACAD
1000
ASC_BOUNDS
1002
{
1070
    19
1002
}
  0
ARC
  5
15BB
330
2
100
AcDbEntity
  8
0
100
AcDbCircle
 10
961.7070147583254
 20
362.1245360919883
 30
0.0
 40
2.0
100
AcDbArc
 50
180.0
 51
270.0
1001
ACAD
1000
ASC_BOUNDS
1002
{
1070
    19
1002
}
  0
LINE
  5
15BC
330
2
100
AcDbEntity
  8
0
100
AcDbLine
 10
959.7070147583254
 20
362.6245360919883
 30
0.0
 11
965.2070147583254
 21
362.6245360919883
 31
0.0
  0
LINE
  5
15BD
330
2
100
AcDbEntity
  8
0
100
AcDbLine
 10
968.7070147583254
 20
360.1245360919883
 30
0.0
 11
970.7070147583253
 21
358.1245360919883
 31
0.0
1001
ACAD
1000
ASC_BOUNDS
1002
{
1070
    19
1002
}
  0
LINE
  5
15BE
330
2
100
AcDbEntity
  8
0
100
AcDbLine
 10
961.7070147583254
 20
360.1245360919883
 30
0.0
 11
968.7070147583254
 21
360.1245360919883
 31
0.0
1001
ACAD
1000
ASC_BOUNDS
1002
{
1070
    19
1002
}
  0
ARC
  5
15BF
330
2
100
AcDbEntity
  8
0
100
AcDbCircle
 10
965.2070147583254
 20
363.1245360919884
 30
0.0
 40
0.5
100
AcDbArc
 50
270.0
 51
0.0
  0
LINE
  5
15C1
330
2
100
AcDbEntity
  8
0
100
AcDbLine
 10
932.7070147583254
 20
373.6245360919884
 30
0.0
 11
959.7070147583254
 21
373.6245360919884
 31
0.0
1001
ACAD
1000
ASC_BOUNDS
1002
{
1070
    19
1002
}
  0
LINE
  5
15C2
330
2
100
AcDbEntity
  8
0
100
AcDbLine
 10
932.7070147583254
 20
373.6245360919884
 30
0.0
 11
932.7070147583254
 21
370.6245360919883
 31
0.0
1001
ACAD
1000
ASC_BOUNDS
1002
{
1070
    19
1002
}
  0
LINE
  5
15C3
330
2
100
AcDbEntity
  8
0
100
AcDbLine
 10
959.7070147583254
 20
372.6245360919883
 30
0.0
 11
965.2070147583254
 21
372.6245360919883
 31
0.0
  0
ARC
  5
15C4
330
2
100
AcDbEntity
  8
0
100
AcDbCircle
 10
965.2070147583254
 20
372.1245360919883
 30
0.0
 40
0.5
100
AcDbArc
 50
0.0
 51
90.0
  0
LINE
  5
15C6
330
2
100
AcDbEntity
  8
MITTE
 48
20.0
100
AcDbLine
 10
1027.610481568381
 20
333.1808852780923
 30
0.0
 11
1224.403758405284
 21
333.1808852780923
 31
0.0
  0
ARC
  5
15C7
330
2
100
AcDbEntity
  8
MITTE
 48
15.0
100
AcDbCircle
 10
1125.926180356855
 20
333.1808852780923
 30
0.0
 40
72.5
100
AcDbArc
 50
13.38326018537863
 51
53.40688101119348
  0
LINE
  5
15C8
330
2
100
AcDbEntity
  8
MITTE
 48
10.0
100
AcDbLine
 10
1194.952683110711
 20
312.6245360919883
 30
0.0
 11
1058.407901588166
 21
312.6245360919883
 31
0.0
  0
ARC
  5
15C9
330
2
100
AcDbEntity
  8
MITTE
 48
15.0
100
AcDbCircle
 10
1125.926180356855
 20
333.1808852780923
 30
0.0
 40
72.5
100
AcDbArc
 50
187.4328260304683
 51
233.5117163400943
  0
CIRCLE
  5
15CA
330
2
100
AcDbEntity
  8
0
100
AcDbCircle
 10
1074.66093872083
 20
281.9156436420671
 30
0.0
 40
5.75
  0
LINE
  5
15CB
330
2
100
AcDbEntity
  8
MITTE
 48
10.0
100
AcDbLine
 10
1081.13985791817
 20
288.3945628394067
 30
0.0
 11
1068.261678401082
 21
275.5163833223191
 31
0.0
  0
CIRCLE
  5
15CC
330
2
100
AcDbEntity
  8
0
100
AcDbCircle
 10
1177.191421992879
 20
281.9156436420671
 30
0.0
 40
5.75
  0
ARC
  5
15CD
330
2
100
AcDbEntity
  8
MITTE
 48
15.0
100
AcDbCircle
 10
1125.926180356855
 20
333.1808852780923
 30
0.0
 40
72.5
100
AcDbArc
 50
306.5931189888065
 51
324.1811683713748
  0
LINE
  5
15CE
330
2
100
AcDbEntity
  8
MITTE
 48
10.0
100
AcDbLine
 10
1170.817868106868
 20
288.2891975280795
 30
0.0
 11
1184.801590903385
 21
274.3054747315623
 31
0.0
  0
LINE
  5
15D0
330
2
100
AcDbEntity
  8
MITTE
 48
10.0
100
AcDbLine
 10
1081.13985791817
 20
377.967207716777
 30
0.0
 11
1068.261678401082
 21
390.845387233865
 31
0.0
  0
ARC
  5
15D1
330
2
100
AcDbEntity
  8
MITTE
 48
15.0
100
AcDbCircle
 10
1125.926180356855
 20
333.1808852780923
 30
0.0
 40
72.5
100
AcDbArc
 50
126.4882836599056
 51
143.5766557743827
  0
CIRCLE
  5
15D2
330
2
100
AcDbEntity
  8
0
100
AcDbCircle
 10
1074.66093872083
 20
384.4461269141165
 30
0.0
 40
5.75
  0
LINE
  5
15D3
330
2
100
AcDbEntity
  8
MITTE
 48
10.0
100
AcDbLine
 10
1170.817868106868
 20
378.0725730281046
 30
0.0
 11
1184.801590903385
 21
392.0562958246219
 31
0.0
  0
CIRCLE
  5
15D4
330
2
100
AcDbEntity
  8
0
100
AcDbCircle
 10
1177.191421992879
 20
384.4461269141165
 30
0.0
 40
5.75
  0
SPLINE
  5
2983
330
2
100
AcDbEntity
  8
LINIE
 48
10.0
100
AcDbSpline
210
0.0
220
0.0
230
1.0
 70
     8
 71
     3
 72
    11
 73
     7
 74
     5
 42
0.0000000001
 43
0.0000000001
 44
0.0000000001
 40
0.0
 40
0.0
 40
0.0
 40
0.0
 40
2.62629010064643
 40
5.544780380777337
 40
8.310133457396172
 40
9.81545957471715
 40
9.81545957471715
 40
9.81545957471715
 40
9.81545957471715
 10
959.7070147583254
 20
286.4978015688018
 30
0.0
 10
960.4984629559211
 20
287.134971957469
 30
0.0
 10
962.1694156192807
 20
288.4802041043001
 30
0.0
 10
964.6476742773566
 20
285.279884537031
 30
0.0
 10
966.766617337179
 20
287.8025007826377
 30
0.0
 10
968.2013138874591
 20
287.4165905517041
 30
0.0
 10
968.7070147583256
 20
287.2805651741973
 30
0.0
 11
959.7070147583254
 21
286.4978015688018
 31
0.0
 11
962.0774599750875
 21
287.6284603002866
 31
0.0
 11
964.6881276476214
 21
286.3238531491469
 31
0.0
 11
967.2117727488876
 21
287.4545135938522
 31
0.0
 11
968.7070147583256
 21
287.2805651741973
 31
0.0
  0
LINE
  5
2984
330
2
100
AcDbEntity
  8
LINIE
 48
10.0
100
AcDbLine
 10
968.7070147583252
 20
271.3575360919883
 30
0.0
 11
968.7070147583252
 21
268.8915360919882
 31
0.0
  0
LINE
  5
2985
330
2
100
AcDbEntity
  8
LINIE
 48
10.0
100
AcDbLine
 10
960.7070147583252
 20
271.3575360919883
 30
0.0
 11
960.7070147583252
 21
268.8915360919882
 31
0.0
  0
LINE
  5
2986
330
2
100
AcDbEntity
  8
LINIE
 48
10.0
100
AcDbLine
 10
967.9400147583251
 20
272.1245360919883
 30
0.0
 11
967.9400147583251
 21
268.1245360919883
 31
0.0
  0
LINE
  5
2987
330
2
100
AcDbEntity
  8
LINIE
 48
10.0
100
AcDbLine
 10
961.4740147583251
 20
272.1245360919883
 30
0.0
 11
961.4740147583251
 21
268.1245360919883
 31
0.0
  0
LINE
  5
2988
330
2
100
AcDbEntity
  8
0
100
AcDbLine
 10
961.7070147583252
 20
265.1245360919883
 30
0.0
 11
968.7070147583254
 21
265.1245360919883
 31
0.0
1001
ACAD
1000
ASC_BOUNDS
1002
{
1070
    19
1002
}
  0
LINE
  5
2989
330
2
100
AcDbEntity
  8
LINIE
 48
10.0
100
AcDbLine
 10
968.7070147583252
 20
268.8915360919882
 30
0.0
 11
968.7070147583254
 21
265.1245360919883
 31
0.0
1001
ACAD
1000
ASC_BOUNDS
1002
{
1070
    19
1002
}
  0
LINE
  5
298A
330
2
100
AcDbEntity
  8
LINIE
 48
10.0
100
AcDbLine
 10
960.7070147583254
 20
268.8915360919879
 30
0.0
 11
960.7070147583254
 21
264.8565868995572
 31
0.0
1001
ACAD
1000
ASC_BOUNDS
1002
{
1070
    19
1002
}
  0
LINE
  5
298B
330
2
100
AcDbEntity
  8
LINIE
 48
10.0
100
AcDbLine
 10
961.4740147583251
 20
268.1245360919883
 30
0.0
 11
960.7070147583252
 21
268.8915360919882
 31
0.0
  0
LINE
  5
298C
330
2
100
AcDbEntity
  8
LINIE
 48
10.0
100
AcDbLine
 10
961.3835147583253
 20
265.8010360919884
 30
0.0
 11
960.7070147583254
 21
265.1245360919883
 31
0.0
1001
ACAD
1000
ASC_BOUNDS
1002
{
1070
    19
1002
}
  0
LINE
  5
298D
330
2
100
AcDbEntity
  8
LINIE
 48
10.0
100
AcDbLine
 10
961.3835147583253
 20
268.2150360919879
 30
0.0
 11
961.3835147583253
 21
265.8010360919884
 31
0.0
1001
ACAD
1000
ASC_BOUNDS
1002
{
1070
    19
1002
}
  0
LINE
  5
298E
330
2
100
AcDbEntity
  8
LINIE
 48
10.0
100
AcDbLine
 10
968.0305147583252
 20
268.2150360919881
 30
0.0
 11
968.0305147583252
 21
265.8010360919884
 31
0.0
1001
ACAD
1000
ASC_BOUNDS
1002
{
1070
    19
1002
}
  0
LINE
  5
298F
330
2
100
AcDbEntity
  8
LINIE
 48
10.0
100
AcDbLine
 10
961.3835147583253
 20
265.8010360919884
 30
0.0
 11
968.0305147583252
 21
265.8010360919884
 31
0.0
1001
ACAD
1000
ASC_BOUNDS
1002
{
1070
    19
1002
}
  0
LINE
  5
2990
330
2
100
AcDbEntity
  8
LINIE
 48
10.0
100
AcDbLine
 10
961.4740147583251
 20
268.1245360919883
 30
0.0
 11
967.9400147583251
 21
268.1245360919883
 31
0.0
  0
LINE
  5
2991
330
2
100
AcDbEntity
  8
0
 48
10.0
100
AcDbLine
 10
967.9400147583251
 20
268.1245360919883
 30
0.0
 11
968.7070147583252
 21
268.8915360919882
 31
0.0
  0
LINE
  5
2992
330
2
100
AcDbEntity
  8
LINIE
 48
10.0
100
AcDbLine
 10
968.0305147583252
 20
265.8010360919884
 30
0.0
 11
968.7070147583254
 21
265.1245360919883
 31
0.0
1001
ACAD
1000
ASC_BOUNDS
1002
{
1070
    19
1002
}
  0
LINE
  5
2993
330
2
100
AcDbEntity
  8
LINIE
 48
10.0
100
AcDbLine
 10
960.7070147583252
 20
268.8915360919882
 30
0.0
 11
968.7070147583252
 21
268.8915360919882
 31
0.0
  0
LINE
  5
2994
330
2
100
AcDbEntity
  8
LINIE
 48
10.0
100
AcDbLine
 10
960.7070147583254
 20
265.1245360919883
 30
0.0
 11
968.7070147583254
 21
265.1245360919883
 31
0.0
1001
ACAD
1000
ASC_BOUNDS
1002
{
1070
    19
1002
}
  0
LINE
  5
2995
330
2
100
AcDbEntity
  8
LINIE
 48
10.0
100
AcDbLine
 10
961.7070147583254
 20
265.1245360919883
 30
0.0
 11
968.7070147583256
 21
265.1245360919883
 31
0.0
1001
ACAD
1000
ASC_BOUNDS
1002
{
1070
    19
1002
}
  0
LINE
  5
2996
330
2
100
AcDbEntity
  8
0
100
AcDbLine
 10
961.7070147583254
 20
265.1245360919883
 30
0.0
 11
968.7070147583254
 21
265.1245360919883
 31
0.0
1001
ACAD
1000
ASC_BOUNDS
1002
{
1070
    19
1002
}
  0
LINE
  5
2997
330
2
100
AcDbEntity
  8
LINIE
 48
10.0
100
AcDbLine
 10
962.7070147583252
 20
284.1245360919883
 30
0.0
 11
961.4740147583251
 21
272.1245360919883
 31
0.0
1001
ACAD
1000
ASC_BOUNDS
1002
{
1070
    19
1002
}
  0
LINE
  5
2998
330
2
100
AcDbEntity
  8
LINIE
 48
10.0
100
AcDbLine
 10
966.7070147583251
 20
284.1245360919883
 30
0.0
 11
967.9400147583251
 21
272.1245360919883
 31
0.0
1001
ACAD
1000
ASC_BOUNDS
1002
{
1070
    19
1002
}
  0
INSERT
  5
2999
330
2
100
AcDbEntity
  8
SCHRAFF
 48
10.0
100
AcDbBlockReference
  2
*X29
 10
863.980024023465
 20
110.7373677128896
 30
0.0
1001
ACAD
1000
HATCH
1002
{
1070
    19
1000
AR-CONC
1040
0.2
1040
0.0
1002
}
  0
LINE
  5
299A
330
2
100
AcDbEntity
  8
0
 48
10.0
100
AcDbLine
 10
961.4740147583251
 20
272.1245360919883
 30
0.0
 11
967.9400147583251
 21
272.1245360919883
 31
0.0
1001
ACAD
1000
ASC_BOUNDS
1002
{
1070
    19
1002
}
  0
LINE
  5
299B
330
2
100
AcDbEntity
  8
LINIE
 48
10.0
100
AcDbLine
 10
960.7070147583254
 20
272.1245360919883
 30
0.0
 11
968.7070147583254
 21
272.1245360919883
 31
0.0
1001
ACAD
1000
ASC_BOUNDS
1002
{
1070
    19
1002
}
  0
LINE
  5
299C
330
2
100
AcDbEntity
  8
LINIE
 48
10.0
100
AcDbLine
 10
960.7070147583252
 20
271.3575360919883
 30
0.0
 11
968.7070147583252
 21
271.3575360919883
 31
0.0
  0
LINE
  5
299D
330
2
100
AcDbEntity
  8
LINIE
 48
10.0
100
AcDbLine
 10
960.7070147583254
 20
272.1245360919883
 30
0.0
 11
960.7070147583252
 21
271.3575360919883
 31
0.0
  0
LINE
  5
299E
330
2
100
AcDbEntity
  8
LINIE
 48
10.0
100
AcDbLine
 10
968.7070147583254
 20
272.1245360919883
 30
0.0
 11
968.7070147583252
 21
271.3575360919883
 31
0.0
  0
LINE
  5
299F
330
2
100
AcDbEntity
  8
0
 48
10.0
100
AcDbLine
 10
967.9400147583251
 20
272.1245360919883
 30
0.0
 11
968.7070147583252
 21
271.3575360919883
 31
0.0
  0
LINE
  5
29A0
330
2
100
AcDbEntity
  8
LINIE
 48
10.0
100
AcDbLine
 10
961.4740147583251
 20
272.1245360919883
 30
0.0
 11
960.7070147583252
 21
271.3575360919883
 31
0.0
  0
LINE
  5
29A1
330
2
100
AcDbEntity
  8
LINIE
 48
10.0
100
AcDbLine
 10
962.7070147583252
 20
284.1245360919883
 30
0.0
 11
966.7070147583251
 21
284.1245360919883
 31
0.0
1001
ACAD
1000
ASC_BOUNDS
1002
{
1070
    19
1002
}
  0
HATCH
  5
29A2
330
2
100
AcDbEntity
  8
SCHRAFF
 48
10.0
100
AcDbHatch
 10
0.0
 20
0.0
 30
0.0
210
0.0
220
0.0
230
1.0
  2
ANSI31
 70
     0
 71
     0
 91
        6
 92
        5
 93
       18
 72
     4
 94
        3
 73
     0
 74
     0
 95
       12
 96
        8
 40
0.0
 40
0.0
 40
0.0
 40
0.0
 40
2.10100499939131
 40
6.848593476966641
 40
10.75763666958752
 40
15.92791960920187
 40
20.51338574724711
 40
20.51338574724711
 40
20.51338574724711
 40
20.51338574724711
 10
932.7070147583254
 20
277.3655446579423
 10
932.0829466462788
 20
277.6565538866584
 10
930.0486874214861
 20
278.6051493950462
 10
926.881072275437
 20
281.4919012105742
 10
922.4816390598075
 20
278.2600339715181
 10
917.707445088191
 20
280.9455117375293
 10
914.9861140214841
 20
278.6876993623104
 10
913.7070147583253
 20
277.6264664308143
 72
     1
 10
913.7070147583253
 20
277.6264664308143
 11
913.7070147583253
 21
251.6245360919883
 72
     1
 10
913.7070147583253
 20
251.6245360919883
 11
915.7070147583251
 21
251.6245360919883
 72
     1
 10
915.7070147583253
 20
251.6245360919883
 11
915.7070147583256
 21
252.1617147510569
 72
     1
 10
915.7070147583253
 20
252.1617147510569
 11
918.3420147583252
 21
252.1617147510569
 72
     1
 10
918.3420147583253
 20
252.1617147510569
 11
918.3420147583255
 21
267.6245360919883
 72
     1
 10
918.3420147583255
 20
267.6245360919883
 11
918.9220147583254
 21
267.6245360919883
 72
     1
 10
918.9220147583254
 20
267.6245360919883
 11
918.9220147583254
 21
271.6245360919883
 72
     1
 10
918.9220147583254
 20
271.6245360919883
 11
921.7070147583227
 21
273.2324565916795
 72
     1
 10
921.7070147583227
 20
273.2324565916794
 11
924.7070147583249
 21
273.2324565916817
 72
     1
 10
924.7070147583249
 20
273.2324565916817
 11
927.4920147583252
 21
271.6245360919882
 72
     1
 10
927.4920147583255
 20
271.6245360919883
 11
927.4920147583255
 21
267.6245360919883
 72
     1
 10
927.4920147583255
 20
267.6245360919883
 11
928.0720147583256
 21
267.6245360919882
 72
     1
 10
928.0720147583256
 20
267.6245360919881
 11
928.0720147583256
 21
252.1617147510569
 72
     1
 10
928.0720147583254
 20
252.1617147510569
 11
930.7070147583253
 21
252.1617147510569
 72
     1
 10
930.7070147583253
 20
252.1617147510569
 11
930.7070147583253
 21
251.6245360919882
 72
     1
 10
930.7070147583253
 20
251.6245360919883
 11
932.7070147583254
 21
251.6245360919882
 72
     1
 10
932.7070147583254
 20
251.6245360919881
 11
932.7070147583254
 21
277.3655446579423
 97
        0
 92
       22
 72
     0
 73
     1
 93
        4
 10
928.0720147583256
 20
267.6245360919881
 10
927.4920147583252
 20
267.6245360919881
 10
927.4920147583257
 20
252.7417147510571
 10
928.0720147583254
 20
252.1617147510571
 97
        0
 92
       22
 72
     0
 73
     1
 93
        4
 10
918.9220147583254
 20
267.6245360919883
 10
918.3420147583255
 20
267.6245360919881
 10
918.3420147583253
 20
252.1617147510571
 10
918.9220147583254
 20
252.7417147510568
 97
        0
 92
        5
 93
       12
 72
     1
 10
962.7070147583252
 20
284.1245360919883
 11
966.7070147583254
 21
284.1245360919883
 72
     1
 10
966.7070147583254
 20
284.1245360919883
 11
967.9400147583253
 21
272.1245360919883
 72
     1
 10
967.9400147583251
 20
272.1245360919883
 11
968.7070147583254
 21
272.1245360919883
 72
     1
 10
968.7070147583256
 20
272.1245360919883
 11
968.7070147583256
 21
287.2805651741974
 72
     4
 94
        3
 73
     0
 74
     0
 95
       11
 96
        7
 40
0.0
 40
0.0
 40
0.0
 40
0.0
 40
1.505326117320977
 40
4.270679193939812
 40
7.18916947407072
 40
9.81545957471715
 40
9.81545957471715
 40
9.81545957471715
 40
9.81545957471715
 10
968.7070147583256
 20
287.2805651741973
 10
968.2013138874591
 20
287.416590551704
 10
966.7666173371788
 20
287.8025007826379
 10
964.6476742773568
 20
285.2798845370312
 10
962.1694156192807
 20
288.4802041043001
 10
960.4984629559211
 20
287.1349719574689
 10
959.7070147583254
 20
286.4978015688018
 72
     1
 10
959.7070147583254
 20
286.4978015688018
 11
959.7070147583254
 21
263.1245360919882
 72
     2
 10
961.7070147583254
 20
263.1245360919881
 40
2.0
 50
180.0000000000032
 51
240.000000000001
 73
     0
 72
     1
 10
960.7070147583254
 20
264.8565868995572
 11
960.7070147583254
 21
268.891536091988
 72
     1
 10
960.7070147583254
 20
268.8915360919879
 11
960.7070147583252
 21
271.3575360919882
 72
     1
 10
960.7070147583252
 20
271.3575360919883
 11
960.7070147583254
 21
272.1245360919883
 72
     1
 10
960.7070147583254
 20
272.1245360919883
 11
961.4740147583251
 21
272.1245360919883
 72
     1
 10
961.4740147583251
 20
272.1245360919883
 11
962.7070147583252
 21
284.1245360919883
 97
        0
 92
       22
 72
     0
 73
     1
 93
        4
 10
960.7070147583254
 20
265.1245360919883
 10
961.3835147583253
 20
265.8010360919884
 10
961.3835147583253
 20
268.2150360919879
 10
960.7070147583254
 20
268.8915360919879
 97
        0
 92
       23
 72
     0
 73
     1
 93
        4
 10
968.0305147583252
 20
265.8010360919884
 10
968.7070147583254
 20
265.1245360919883
 10
968.7070147583254
 20
268.8915360919882
 10
968.0305147583251
 20
268.2150360919883
 97
        0
 75
     0
 76
     1
 52
0.0
 41
20.0
 77
     0
 78
     1
 53
45.0
 43
298.7749779565179
 44
-43.85551373039788
 45
-1.767766952966368
 46
1.767766952966368
 79
     0
 47
0.086973862025384
 98
        6
 10
926.0502511423837
 20
277.3655446579423
 10
927.8777188286735
 20
265.5370983783661
 10
918.6533609811199
 20
265.1022298990596
 10
961.8163954164488
 20
285.1931927044415
 10
960.9461728589376
 20
266.8417072427262
 10
968.3430630202014
 20
266.5807854698541
  0
SPLINE
  5
29A3
330
2
100
AcDbEntity
  8
LINIE
 48
10.0
100
AcDbSpline
210
0.0
220
0.0
230
1.0
 70
     8
 71
     3
 72
    12
 73
     8
 74
     6
 42
0.0000000001
 43
0.0000000001
 44
0.0000000001
 40
0.0
 40
0.0
 40
0.0
 40
0.0
 40
4.585466138045345
 40
9.755749077659697
 40
13.66479227028057
 40
18.4123807478559
 40
20.51338574724711
 40
20.51338574724711
 40
20.51338574724711
 40
20.51338574724711
 10
913.7070147583253
 20
277.6264664308143
 30
0.0
 10
914.986114021484
 20
278.6876993623105
 30
0.0
 10
917.7074450881907
 20
280.9455117375293
 30
0.0
 10
922.4816390598077
 20
278.260033971518
 30
0.0
 10
926.8810722754365
 20
281.4919012105742
 30
0.0
 10
930.0486874214861
 20
278.6051493950462
 30
0.0
 10
932.0829466462784
 20
277.6565538866585
 30
0.0
 10
932.7070147583254
 20
277.3655446579423
 30
0.0
 11
913.7070147583253
 21
277.6264664308143
 31
0.0
 11
917.6961158523409
 21
279.887787320225
 31
0.0
 11
922.8304286261408
 21
279.2789704212637
 31
0.0
 11
926.5723834148248
 21
280.4096308659691
 31
0.0
 11
930.8364736311137
 21
278.3222566829929
 31
0.0
 11
932.7070147583254
 21
277.3655446579423
 31
0.0
  0
LINE
  5
29A4
330
2
100
AcDbEntity
  8
0
100
AcDbLine
 10
927.4920147583255
 20
271.6245360919883
 30
0.0
 11
927.4920147583255
 21
252.7417147510568
 31
0.0
1001
ACAD
1000
ASC_BOUNDS
1002
{
1070
    19
1002
}
  0
LINE
  5
29A5
330
2
100
AcDbEntity
  8
0
100
AcDbLine
 10
918.9220147583254
 20
271.6245360919883
 30
0.0
 11
918.9220147583254
 21
252.7417147510571
 31
0.0
1001
ACAD
1000
ASC_BOUNDS
1002
{
1070
    19
1002
}
  0
LINE
  5
29A6
330
2
100
AcDbEntity
  8
MITTE
 48
15.0
100
AcDbLine
 10
923.2070147583254
 20
250.1547038476628
 30
0.0
 11
923.2070147583254
 21
283.4558284587349
 31
0.0
  0
LINE
  5
29A7
330
2
100
AcDbEntity
  8
0
100
AcDbLine
 10
928.0720147583254
 20
252.1617147510569
 30
0.0
 11
927.4920147583255
 21
252.7417147510571
 31
0.0
1001
ACAD
1000
ASC_BOUNDS
1002
{
1070
    19
1002
}
  0
LINE
  5
29A8
330
2
100
AcDbEntity
  8
0
100
AcDbLine
 10
930.7070147583253
 20
252.1617147510569
 30
0.0
 11
915.7070147583253
 21
252.1617147510569
 31
0.0
1001
ACAD
1000
ASC_BOUNDS
1002
{
1070
    19
1002
}
  0
ARC
  5
29A9
330
2
100
AcDbEntity
  8
0
100
AcDbCircle
 10
923.2070147583252
 20
191.0873574329143
 30
0.0
 40
61.00000000000532
100
AcDbArc
 50
82.93756644623513
 51
97.06243355376486
  0
LINE
  5
29AA
330
2
100
AcDbEntity
  8
0
100
AcDbLine
 10
928.0720147583254
 20
267.6245360919883
 30
0.0
 11
918.3420147583255
 21
267.6245360919883
 31
0.0
  0
LINE
  5
29AB
330
2
100
AcDbEntity
  8
0
100
AcDbLine
 10
927.4920147583255
 20
252.7417147510571
 30
0.0
 11
918.9220147583252
 21
252.7417147510571
 31
0.0
  0
LINE
  5
29AC
330
2
100
AcDbEntity
  8
0
100
AcDbLine
 10
915.7070147583253
 20
252.1617147510569
 30
0.0
 11
915.7070147583253
 21
251.6245360919883
 31
0.0
1001
ACAD
1000
ASC_BOUNDS
1002
{
1070
    19
1002
}
  0
LINE
  5
29AD
330
2
100
AcDbEntity
  8
0
100
AcDbLine
 10
918.3420147583253
 20
252.1617147510569
 30
0.0
 11
918.9220147583254
 21
252.7417147510571
 31
0.0
1001
ACAD
1000
ASC_BOUNDS
1002
{
1070
    19
1002
}
  0
LINE
  5
29AE
330
2
100
AcDbEntity
  8
LINIE
 48
10.0
100
AcDbLine
 10
918.3420147583255
 20
267.6245360919883
 30
0.0
 11
918.3420147583253
 21
252.1617147510569
 31
0.0
  0
LINE
  5
29AF
330
2
100
AcDbEntity
  8
0
100
AcDbLine
 10
930.7070147583253
 20
252.1617147510569
 30
0.0
 11
930.7070147583253
 21
251.6245360919883
 31
0.0
1001
ACAD
1000
ASC_BOUNDS
1002
{
1070
    19
1002
}
  0
LINE
  5
29B0
330
2
100
AcDbEntity
  8
LINIE
 48
10.0
100
AcDbLine
 10
928.0720147583254
 20
267.6245360919883
 30
0.0
 11
928.0720147583254
 21
252.1617147510569
 31
0.0
  0
LINE
  5
29B1
330
2
100
AcDbEntity
  8
0
100
AcDbLine
 10
924.7070147583249
 20
273.2324565916817
 30
0.0
 11
921.7070147583225
 21
273.2324565916794
 31
0.0
  0
LINE
  5
29B2
330
2
100
AcDbEntity
  8
0
100
AcDbLine
 10
918.9220147583254
 20
271.6245360919883
 30
0.0
 11
921.7070147583225
 21
273.2324565916794
 31
0.0
1001
ACAD
1000
ASC_BOUNDS
1002
{
1070
    19
1002
}
  0
LINE
  5
29B3
330
2
100
AcDbEntity
  8
0
100
AcDbLine
 10
927.4920147583255
 20
271.6245360919883
 30
0.0
 11
924.7070147583249
 21
273.2324565916817
 31
0.0
1001
ACAD
1000
ASC_BOUNDS
1002
{
1070
    19
1002
}
  0
LINE
  5
29B4
330
2
100
AcDbEntity
  8
0
100
AcDbLine
 10
927.4920147583255
 20
271.6245360919883
 30
0.0
 11
918.9220147583254
 21
271.6245360919883
 31
0.0
  0
ENDSEC
  0
SECTION
  2
OBJECTS
  0
DICTIONARY
  5
1A
330
0
100
AcDbDictionary
  3
ACAD_GROUP
350
18
  3
ACAD_LAYOUT
350
2D6
  3
ACAD_MLINESTYLE
350
19
  3
ACAD_PLOTSETTINGS
350
2D7
  3
ACAD_PLOTSTYLENAME
350
2D4
  3
ACDBVARIABLEDICTIONARY
350
26E
  3
ACMDICTIONARY
350
28C
  3
AMG
350
2E0
  3
AMGSNAPSETTINGS
350
33F
  3
DWGPROPS
350
2D8E
  3
ACDBHEADERROUNDTRIPXREC
350
2D9E
  0
DICTIONARY
  5
270
330
2
100
AcDbDictionary
280
     1
  3
ACAD_INDEX
360
2D90
  3
ACAD_LAYOUTSELFREF
360
2DBF
  0
DICTIONARY
  5
2DC0
330
7
100
AcDbDictionary
280
     1
  3
ACAD_LAYOUTSELFREF
360
2DC1
  0
DICTIONARY
  5
18
102
{ACAD_REACTORS
330
1A
102
}
330
1A
100
AcDbDictionary
  0
DICTIONARY
  5
2D6
102
{ACAD_REACTORS
330
1A
102
}
330
1A
100
AcDbDictionary
  0
DICTIONARY
  5
19
102
{ACAD_REACTORS
330
1A
102
}
330
1A
100
AcDbDictionary
  3
STANDARD
350
1B
  0
DICTIONARY
  5
2D7
102
{ACAD_REACTORS
330
1A
102
}
330
1A
100
AcDbDictionary
  0
ACDBDICTIONARYWDFLT
  5
2D4
102
{ACAD_REACTORS
330
1A
102
}
330
1A
100
AcDbDictionary
281
     1
  3
Normal
350
2D5
100
AcDbDictionaryWithDefault
340
2D5
  0
DICTIONARY
  5
26E
102
{ACAD_REACTORS
330
1A
102
}
330
1A
100
AcDbDictionary
  3
INDEXCTL
350
26F
  0
DICTIONARY
  5
28C
102
{ACAD_REACTORS
330
1A
102
}
330
1A
100
AcDbDictionary
  3
ACMSTDDICTIONARY
350
28D
  0
DICTIONARY
  5
2E0
102
{ACAD_REACTORS
330
1A
102
}
330
1A
100
AcDbDictionary
  3
ACMGSETTINGS
350
2E1
  0
DICTIONARY
  5
33F
102
{ACAD_REACTORS
330
1A
102
}
330
1A
100
AcDbDictionary
  0
XRECORD
  5
2D8E
102
{ACAD_REACTORS
330
1A
102
}
330
1A
100
AcDbXrecord
  1
DWGPROPS COOKIE
  2

  3

  4

  6

  7

  8

  9

300
AmdtFileType=84
301
=
302
=
303
=
304
=
305
=
306
=
307
=
308
=
309
=
 40
1.760884907407407
 41
2450848.795139884
 42
2452067.611073854
  1

 90
        1
  0
DICTIONARY
  5
2D9E
102
{ACAD_REACTORS
330
1A
102
}
330
1A
100
AcDbDictionary
  3
TSTACKALIGN
350
2D9F
  3
TSTACKSIZE
350
2DA0
  3
HYPERLINKBASE
350
2DA1
  3
STYLESHEET
350
2DA2
  3
LAYOUTDICT
350
2DA3
  3
PLOTSETDICT
350
2DA4
  3
PLOTSTYLNAMDICT
350
2DA5
  3
LWETCUNION
350
2DA6
  3
INSUNITS
350
2DA7
  3
CEPSNTYPE
350
2DA8
  3
FINGERPRINTGUID
350
2DA9
  3
VERSIONGUID
350
2DAA
  3
PSVPSCALE
350
2DAB
  3
DIMSTYLEDATA
350
2DAC
  3
PUCSORTHOREF
350
2DAD
  3
PUCSORTHOVIEW
350
2DAE
  3
PUCSBASE
350
2DAF
  3
PUCSORGTOP
350
2DB0
  3
PUCSORGBOTTOM
350
2DB1
  3
PUCSORGLEFT
350
2DB2
  3
PUCSORGRIGHT
350
2DB3
  3
PUCSORGFRONT
350
2DB4
  3
PUCSORGBACK
350
2DB5
  3
UCSORTHOREF
350
2DB6
  3
UCSORTHOVIEW
350
2DB7
  3
UCSBASE
350
2DB8
  3
UCSORGTOP
350
2DB9
  3
UCSORGBOTTOM
350
2DBA
  3
UCSORGLEFT
350
2DBB
  3
UCSORGRIGHT
350
2DBC
  3
UCSORGFRONT
350
2DBD
  3
UCSORGBACK
350
2DBE
  0
DICTIONARY
  5
2D90
102
{ACAD_REACTORS
330
270
102
}
330
270
100
AcDbDictionary
  3
*A1
350
2D91
  0
XRECORD
  5
2DBF
102
{ACAD_REACTORS
330
270
102
}
330
270
100
AcDbXrecord
340
2
  0
XRECORD
  5
2DC1
102
{ACAD_REACTORS
330
2DC0
102
}
330
2DC0
100
AcDbXrecord
340
7
  0
MLINESTYLE
  5
1B
102
{ACAD_REACTORS
330
19
102
}
330
19
100
AcDbMlineStyle
  2
STANDARD
 70
     0
  3

 62
     0
 51
90.0
 52
90.0
 71
     2
 49
0.5
 62
   256
  6
BYLAYER
 49
-0.5
 62
   256
  6
BYLAYER
  0
ACDBPLACEHOLDER
  5
2D5
102
{ACAD_REACTORS
330
2D4
102
}
330
2D4
100
AcDbPlaceHolder
280
     0
  0
DICTIONARYVAR
  5
26F
102
{ACAD_REACTORS
330
26E
102
}
330
26E
100
DictionaryVariables
280
     0
  1
1
  0
DICTIONARY
  5
28D
102
{ACAD_REACTORS
330
28C
102
}
330
28C
100
AcDbDictionary
  0
DICTIONARY
  5
2E1
102
{ACAD_REACTORS
330
2E0
102
}
330
2E0
100
AcDbDictionary
  3
DWGSETTINGS
350
2E2
  0
XRECORD
  5
2D9F
102
{ACAD_REACTORS
330
2D9E
102
}
330
2D9E
100
AcDbXrecord
 90
        1
  0
XRECORD
  5
2DA0
102
{ACAD_REACTORS
330
2D9E
102
}
330
2D9E
100
AcDbXrecord
 90
       70
  0
XRECORD
  5
2DA1
102
{ACAD_REACTORS
330
2D9E
102
}
330
2D9E
100
AcDbXrecord
  1

  0
XRECORD
  5
2DA2
102
{ACAD_REACTORS
330
2D9E
102
}
330
2D9E
100
AcDbXrecord
  1
Test.ctb
  0
XRECORD
  5
2DA3
102
{ACAD_REACTORS
330
2D9E
102
}
330
2D9E
100
AcDbXrecord
340
2D6
  0
XRECORD
  5
2DA4
102
{ACAD_REACTORS
330
2D9E
102
}
330
2D9E
100
AcDbXrecord
340
2D7
  0
XRECORD
  5
2DA5
102
{ACAD_REACTORS
330
2D9E
102
}
330
2D9E
100
AcDbXrecord
340
2D4
  0
XRECORD
  5
2DA6
102
{ACAD_REACTORS
330
2D9E
102
}
330
2D9E
100
AcDbXrecord
 90
    14877
  0
XRECORD
  5
2DA7
102
{ACAD_REACTORS
330
2D9E
102
}
330
2D9E
100
AcDbXrecord
 90
        0
  0
XRECORD
  5
2DA8
102
{ACAD_REACTORS
330
2D9E
102
}
330
2D9E
100
AcDbXrecord
 90
        0
  0
XRECORD
  5
2DA9
102
{ACAD_REACTORS
330
2D9E
102
}
330
2D9E
100
AcDbXrecord
  1
{048B599B-FD96-11D4-B79D-0010B575C074}
  0
XRECORD
  5
2DAA
102
{ACAD_REACTORS
330
2D9E
102
}
330
2D9E
100
AcDbXrecord
  1
{9A33E780-5A76-11D5-B7FC-0010B575C074}
  0
XRECORD
  5
2DAB
102
{ACAD_REACTORS
330
2D9E
102
}
330
2D9E
100
AcDbXrecord
 40
0.0
  0
XRECORD
  5
2DAC
102
{ACAD_REACTORS
330
2D9E
102
}
330
2D9E
100
AcDbXrecord
1000
DSTYLE
1002
{
1070
   289
 70
     0
1002
}
  0
XRECORD
  5
2DAD
102
{ACAD_REACTORS
330
2D9E
102
}
330
2D9E
100
AcDbXrecord
340
0
  0
XRECORD
  5
2DAE
102
{ACAD_REACTORS
330
2D9E
102
}
330
2D9E
100
AcDbXrecord
 70
     0
  0
XRECORD
  5
2DAF
102
{ACAD_REACTORS
330
2D9E
102
}
330
2D9E
100
AcDbXrecord
340
0
  0
XRECORD
  5
2DB0
102
{ACAD_REACTORS
330
2D9E
102
}
330
2D9E
100
AcDbXrecord
 10
0.0
 20
0.0
 30
0.0
  0
XRECORD
  5
2DB1
102
{ACAD_REACTORS
330
2D9E
102
}
330
2D9E
100
AcDbXrecord
 10
0.0
 20
0.0
 30
0.0
  0
XRECORD
  5
2DB2
102
{ACAD_REACTORS
330
2D9E
102
}
330
2D9E
100
AcDbXrecord
 10
0.0
 20
0.0
 30
0.0
  0
XRECORD
  5
2DB3
102
{ACAD_REACTORS
330
2D9E
102
}
330
2D9E
100
AcDbXrecord
 10
0.0
 20
0.0
 30
0.0
  0
XRECORD
  5
2DB4
102
{ACAD_REACTORS
330
2D9E
102
}
330
2D9E
100
AcDbXrecord
 10
0.0
 20
0.0
 30
0.0
  0
XRECORD
  5
2DB5
102
{ACAD_REACTORS
330
2D9E
102
}
330
2D9E
100
AcDbXrecord
 10
0.0
 20
0.0
 30
0.0
  0
XRECORD
  5
2DB6
102
{ACAD_REACTORS
330
2D9E
102
}
330
2D9E
100
AcDbXrecord
340
0
  0
XRECORD
  5
2DB7
102
{ACAD_REACTORS
330
2D9E
102
}
330
2D9E
100
AcDbXrecord
 70
     0
  0
XRECORD
  5
2DB8
102
{ACAD_REACTORS
330
2D9E
102
}
330
2D9E
100
AcDbXrecord
340
0
  0
XRECORD
  5
2DB9
102
{ACAD_REACTORS
330
2D9E
102
}
330
2D9E
100
AcDbXrecord
 10
0.0
 20
0.0
 30
0.0
  0
XRECORD
  5
2DBA
102
{ACAD_REACTORS
330
2D9E
102
}
330
2D9E
100
AcDbXrecord
 10
0.0
 20
0.0
 30
0.0
  0
XRECORD
  5
2DBB
102
{ACAD_REACTORS
330
2D9E
102
}
330
2D9E
100
AcDbXrecord
 10
0.0
 20
0.0
 30
0.0
  0
XRECORD
  5
2DBC
102
{ACAD_REACTORS
330
2D9E
102
}
330
2D9E
100
AcDbXrecord
 10
0.0
 20
0.0
 30
0.0
  0
XRECORD
  5
2DBD
102
{ACAD_REACTORS
330
2D9E
102
}
330
2D9E
100
AcDbXrecord
 10
0.0
 20
0.0
 30
0.0
  0
XRECORD
  5
2DBE
102
{ACAD_REACTORS
330
2D9E
102
}
330
2D9E
100
AcDbXrecord
 10
0.0
 20
0.0
 30
0.0
  0
LAYER_INDEX
  5
2D91
102
{ACAD_REACTORS
330
2D90
102
}
330
2D90
100
AcDbIndex
 40
2452067.623101666
100
AcDbLayerIndex
  8
0
360
2D92
 90
      366
  8
BEM
360
2D93
 90
        3
  8
MITTE
360
2D94
 90
       42
  8
LINIE
360
2D95
 90
       48
  8
SCHRAFF
360
2D97
 90
        2
  0
XRECORD
  5
2E2
102
{ACAD_REACTORS
330
2E1
102
}
330
2E1
100
AcDbXrecord
  1
VERSION
140
15.0
  1
PRODUCT
  2
AutoCAD Mechanical 2000
  0
IDBUFFER
  5
2D92
330
0
100
AcDbIdBuffer
330
1550
330
1552
330
1553
330
1554
330
1555
330
1556
330
1557
330
1558
330
1559
330
155A
330
155B
330
155C
330
155D
330
155E
330
155F
330
1560
330
1561
330
1562
330
1563
330
1564
330
1565
330
1566
330
1567
330
1568
330
156A
330
156B
330
156C
330
156D
330
156E
330
1571
330
1572
330
1573
330
1574
330
1575
330
1576
330
1577
330
1579
330
157A
330
157B
330
157C
330
157D
330
157E
330
157F
330
1580
330
1581
330
1582
330
1583
330
1584
330
1585
330
1586
330
1587
330
1588
330
1589
330
158A
330
158B
330
158C
330
158D
330
158E
330
158F
330
1590
330
1591
330
1592
330
1593
330
1594
330
1595
330
1596
330
1597
330
1598
330
1599
330
159B
330
159C
330
159D
330
159E
330
159F
330
15A0
330
15A1
330
15A2
330
15A3
330
15A4
330
15A5
330
15A6
330
15A7
330
15A8
330
15A9
330
15AA
330
15AD
330
15B2
330
15B3
330
15B4
330
15B5
330
15B6
330
15B7
330
15B9
330
15BA
330
15BB
330
15BC
330
15BD
330
15BE
330
15BF
330
15C1
330
15C2
330
15C3
330
15C4
330
15CA
330
15CC
330
15D2
330
15D4
330
2988
330
2991
330
2996
330
299A
330
299F
330
29A4
330
29A5
330
29A7
330
29A8
330
29A9
330
29AA
330
29AB
330
29AC
330
29AD
330
29AF
330
29B1
330
29B2
330
29B3
330
29B4
330
140A
330
140C
330
140D
330
1415
330
1417
330
1418
330
141A
330
141B
330
141C
330
141E
330
141F
330
1421
330
1422
330
1423
330
1424
330
1425
330
1426
330
1427
330
1428
330
1429
330
142A
330
142D
330
142F
330
1434
330
1435
330
1436
330
1437
330
1438
330
1439
330
143B
330
143C
330
143D
330
143E
330
143F
330
1440
330
1441
330
1442
330
1444
330
1445
330
1446
330
1447
330
1448
330
144E
330
144F
330
1450
330
1451
330
1452
330
1454
330
1455
330
1456
330
1457
330
1459
330
145A
330
145B
330
145C
330
145E
330
145F
330
1460
330
1461
330
1462
330
1463
330
1464
330
1465
330
1466
330
1467
330
1468
330
1469
330
146A
330
146B
330
146C
330
146D
330
146E
330
146F
330
1470
330
1471
330
1472
330
1473
330
1474
330
1475
330
1476
330
1477
330
1478
330
1479
330
147A
330
147B
330
147C
330
147D
330
147E
330
147F
330
1480
330
1481
330
1483
330
1484
330
1485
330
1486
330
1487
330
1488
330
1489
330
148A
330
148B
330
148C
330
148D
330
148E
330
148F
330
1490
330
1492
330
1493
330
1494
330
1499
330
149A
330
149F
330
14A0
330
14A2
330
14A4
330
14A5
330
14A6
330
14A7
330
14A9
330
14AC
330
14AD
330
14AF
330
14B0
330
14B1
330
14B2
330
14B3
330
14B5
330
14B6
330
14B7
330
14B8
330
14B9
330
14BA
330
14BB
330
14BD
330
14BF
330
14C0
330
14C1
330
14C2
330
14C3
330
14C6
330
14C7
330
14C8
330
14C9
330
14CA
330
14CB
330
14CC
330
14CD
330
14CE
330
14CF
330
14D2
330
14D3
330
14D4
330
14D5
330
14D6
330
14DA
330
14DB
330
14DC
330
14DE
330
14DF
330
14E1
330
14E2
330
14E3
330
14E4
330
14E6
330
14E7
330
14EA
330
14EB
330
14EC
330
14ED
330
14EE
330
14EF
330
14F0
330
14F1
330
14F2
330
14F3
330
14F4
330
14F5
330
14F6
330
14F7
330
14F8
330
14F9
330
14FC
330
14FD
330
14FE
330
1500
330
1501
330
1502
330
1504
330
1505
330
1506
330
1507
330
1509
330
150A
330
150B
330
150C
330
150D
330
150E
330
150F
330
1510
330
1511
330
1512
330
1513
330
1514
330
1515
330
1516
330
1517
330
1518
330
1519
330
151A
330
151D
330
151E
330
151F
330
1521
330
1522
330
1523
330
1524
330
1525
330
152A
330
152B
330
152C
330
152D
330
152E
330
1531
330
1532
330
153B
330
153C
330
153F
330
1541
330
1542
330
1543
330
1544
330
1546
330
1547
330
1548
330
1549
330
154A
330
154B
330
154C
330
154D
330
154E
330
154F
  0
IDBUFFER
  5
2D93
330
0
100
AcDbIdBuffer
330
1C2
330
1F2
330
D23
  0
IDBUFFER
  5
2D94
330
0
100
AcDbIdBuffer
330
14B4
330
14BC
330
14C4
330
14C5
330
14D7
330
14D8
330
1503
330
1508
330
1530
330
1551
330
1569
330
1578
330
159A
330
15AB
330
15AE
330
15C6
330
15C7
330
15C8
330
15C9
330
15CB
330
15CD
330
15CE
330
15D0
330
15D1
330
15D3
330
29A6
330
140B
330
1419
330
1420
330
1443
330
144A
330
1453
330
1458
330
1498
330
149B
330
149C
330
149D
330
149E
330
14A1
330
14A3
330
14A8
330
14AA
  0
IDBUFFER
  5
2D95
330
0
100
AcDbIdBuffer
330
29A3
330
29AE
330
29B0
330
1416
330
141D
330
142C
330
1430
330
1449
330
1491
330
14AB
330
151B
330
14BE
330
14D9
330
14FB
330
14E8
330
14E9
330
14FA
330
151C
330
153D
330
153E
330
1540
330
1545
330
15AC
330
29A1
330
2983
330
2984
330
2985
330
2986
330
2987
330
2989
330
298A
330
298B
330
298C
330
298D
330
298E
330
298F
330
2990
330
2992
330
2993
330
2994
330
2995
330
2997
330
2998
330
299B
330
299C
330
299D
330
299E
330
29A0
  0
IDBUFFER
  5
2D97
330
0
100
AcDbIdBuffer
330
2999
330
29A2
  0
ENDSEC
  0
EOF
