  0
SECTION
  2
HEADER
  9
$ACADVER
  1
AC1018
  9
$ACADMAINTVER
 70
   104
  9
$DWGCODEPAGE
  3
ANSI_1252
  9
$LASTSAVEDBY
  1
ibasyouni
  9
$CUSTOMPROPERTYTAG
  1
AmdtFileType
  9
$CUSTOMPROPERTY
  1
84
  9
$INSBASE
 10
0.0
 20
0.0
 30
0.0
  9
$EXTMIN
 10
104.742782636046
 20
211.9307527404494
 30
0.0
  9
$EXTMAX
 10
1175.490938902935
 20
449.1368874056002
 30
0.0
  9
$LIMMIN
 10
0.0
 20
0.0
  9
$LIMMAX
 10
1300.0
 20
600.0
  9
$ORTHOMODE
 70
     1
  9
$REGENMODE
 70
     1
  9
$FILLMODE
 70
     1
  9
$QTEXTMODE
 70
     0
  9
$MIRRTEXT
 70
     1
  9
$LTSCALE
 40
1.0
  9
$ATTMODE
 70
     1
  9
$TEXTSIZE
 40
10.0
  9
$TRACEWID
 40
1.0
  9
$TEXTSTYLE
  7
STANDARD
  9
$CLAYER
  8
0
  9
$CELTYPE
  6
BYLAYER
  9
$CECOLOR
 62
   256
  9
$CELTSCALE
 40
10.0
  9
$DISPSILH
 70
     0
  9
$DIMSCALE
 40
1.0
  9
$DIMASZ
 40
7.0
  9
$DIMEXO
 40
0.0
  9
$DIMDLI
 40
7.0
  9
$DIMRND
 40
0.0
  9
$DIMDLE
 40
0.0
  9
$DIMEXE
 40
1.25
  9
$DIMTP
 40
0.0
  9
$DIMTM
 40
0.0
  9
$DIMTXT
 40
10.0
  9
$DIMCEN
 40
0.0
  9
$DIMTSZ
 40
0.0
  9
$DIMTOL
 70
     0
  9
$DIMLIM
 70
     0
  9
$DIMTIH
 70
     0
  9
$DIMTOH
 70
     0
  9
$DIMSE1
 70
     0
  9
$DIMSE2
 70
     0
  9
$DIMTAD
 70
     1
  9
$DIMZIN
 70
     8
  9
$DIMBLK
  1

  9
$DIMASO
 70
     1
  9
$DIMSHO
 70
     1
  9
$DIMPOST
  1

  9
$DIMAPOST
  1

  9
$DIMALT
 70
     0
  9
$DIMALTD
 70
     2
  9
$DIMALTF
 40
25.4
  9
$DIMLFAC
 40
1.0
  9
$DIMTOFL
 70
     1
  9
$DIMTVP
 40
0.0
  9
$DIMTIX
 70
     0
  9
$DIMSOXD
 70
     0
  9
$DIMSAH
 70
     0
  9
$DIMBLK1
  1

  9
$DIMBLK2
  1

  9
$DIMSTYLE
  2
ISO-25
  9
$DIMCLRD
 70
   256
  9
$DIMCLRE
 70
   256
  9
$DIMCLRT
 70
   256
  9
$DIMTFAC
 40
1.0
  9
$DIMGAP
 40
4.0
  9
$DIMJUST
 70
     0
  9
$DIMSD1
 70
     0
  9
$DIMSD2
 70
     0
  9
$DIMTOLJ
 70
     1
  9
$DIMTZIN
 70
     8
  9
$DIMALTZ
 70
     0
  9
$DIMALTTZ
 70
     0
  9
$DIMUPT
 70
     1
  9
$DIMDEC
 70
     4
  9
$DIMTDEC
 70
     4
  9
$DIMALTU
 70
     2
  9
$DIMALTTD
 70
     2
  9
$DIMTXSTY
  7
STANDARD
  9
$DIMAUNIT
 70
     0
  9
$DIMADEC
 70
     0
  9
$DIMALTRND
 40
0.0
  9
$DIMAZIN
 70
     2
  9
$DIMDSEP
 70
    46
  9
$DIMATFIT
 70
     3
  9
$DIMFRAC
 70
     0
  9
$DIMLDRBLK
  1

  9
$DIMLUNIT
 70
     2
  9
$DIMLWD
 70
    -2
  9
$DIMLWE
 70
    -2
  9
$DIMTMOVE
 70
     0
  9
$LUNITS
 70
     2
  9
$LUPREC
 70
     4
  9
$SKETCHINC
 40
1.0
  9
$FILLETRAD
 40
2.5
  9
$AUNITS
 70
     0
  9
$AUPREC
 70
     0
  9
$MENU
  1
.
  9
$ELEVATION
 40
0.0
  9
$PELEVATION
 40
0.0
  9
$THICKNESS
 40
0.0
  9
$LIMCHECK
 70
     0
  9
$CHAMFERA
 40
2.0
  9
$CHAMFERB
 40
2.0
  9
$CHAMFERC
 40
0.0
  9
$CHAMFERD
 40
0.0
  9
$SKPOLY
 70
     0
  9
$TDCREATE
 40
2450848.753473218
  9
$TDUCREATE
 40
2450848.670139884
  9
$TDUPDATE
 40
2455860.694011922
  9
$TDUUPDATE
 40
2455860.610678588
  9
$TDINDWG
 40
1.8845841667
  9
$TDUSRTIMER
 40
1.8845841667
  9
$USRTIMER
 70
     1
  9
$ANGBASE
 50
0.0
  9
$ANGDIR
 70
     0
  9
$PDMODE
 70
     0
  9
$PDSIZE
 40
0.0
  9
$PLINEWID
 40
0.5
  9
$SPLFRAME
 70
     0
  9
$SPLINETYPE
 70
     6
  9
$SPLINESEGS
 70
     8
  9
$HANDSEED
  5
18A5
  9
$SURFTAB1
 70
     6
  9
$SURFTAB2
 70
     6
  9
$SURFTYPE
 70
     6
  9
$SURFU
 70
     6
  9
$SURFV
 70
     6
  9
$UCSBASE
  2

  9
$UCSNAME
  2

  9
$UCSORG
 10
0.0
 20
0.0
 30
0.0
  9
$UCSXDIR
 10
1.0
 20
0.0
 30
0.0
  9
$UCSYDIR
 10
0.0
 20
1.0
 30
0.0
  9
$UCSORTHOREF
  2

  9
$UCSORTHOVIEW
 70
     0
  9
$UCSORGTOP
 10
0.0
 20
0.0
 30
0.0
  9
$UCSORGBOTTOM
 10
0.0
 20
0.0
 30
0.0
  9
$UCSORGLEFT
 10
0.0
 20
0.0
 30
0.0
  9
$UCSORGRIGHT
 10
0.0
 20
0.0
 30
0.0
  9
$UCSORGFRONT
 10
0.0
 20
0.0
 30
0.0
  9
$UCSORGBACK
 10
0.0
 20
0.0
 30
0.0
  9
$PUCSBASE
  2

  9
$PUCSNAME
  2

  9
$PUCSORG
 10
0.0
 20
0.0
 30
0.0
  9
$PUCSXDIR
 10
1.0
 20
0.0
 30
0.0
  9
$PUCSYDIR
 10
0.0
 20
1.0
 30
0.0
  9
$PUCSORTHOREF
  2

  9
$PUCSORTHOVIEW
 70
     0
  9
$PUCSORGTOP
 10
0.0
 20
0.0
 30
0.0
  9
$PUCSORGBOTTOM
 10
0.0
 20
0.0
 30
0.0
  9
$PUCSORGLEFT
 10
0.0
 20
0.0
 30
0.0
  9
$PUCSORGRIGHT
 10
0.0
 20
0.0
 30
0.0
  9
$PUCSORGFRONT
 10
0.0
 20
0.0
 30
0.0
  9
$PUCSORGBACK
 10
0.0
 20
0.0
 30
0.0
  9
$USERI1
 70
     0
  9
$USERI2
 70
     0
  9
$USERI3
 70
     0
  9
$USERI4
 70
     0
  9
$USERI5
 70
     0
  9
$USERR1
 40
0.0
  9
$USERR2
 40
0.0
  9
$USERR3
 40
0.0
  9
$USERR4
 40
0.0
  9
$USERR5
 40
0.0
  9
$WORLDVIEW
 70
     1
  9
$SHADEDGE
 70
     3
  9
$SHADEDIF
 70
    70
  9
$TILEMODE
 70
     1
  9
$MAXACTVP
 70
    16
  9
$PINSBASE
 10
0.0
 20
0.0
 30
0.0
  9
$PLIMCHECK
 70
     0
  9
$PEXTMIN
 10
1.000000000000000E+20
 20
1.000000000000000E+20
 30
1.000000000000000E+20
  9
$PEXTMAX
 10
-1.000000000000000E+20
 20
-1.000000000000000E+20
 30
-1.000000000000000E+20
  9
$PLIMMIN
 10
0.0
 20
0.0
  9
$PLIMMAX
 10
420.0
 20
297.0
  9
$UNITMODE
 70
     0
  9
$VISRETAIN
 70
     0
  9
$PLINEGEN
 70
     0
  9
$PSLTSCALE
 70
     0
  9
$TREEDEPTH
 70
  3020
  9
$CMLSTYLE
  2
STANDARD
  9
$CMLJUST
 70
     0
  9
$CMLSCALE
 40
1.0
  9
$PROXYGRAPHICS
 70
     1
  9
$MEASUREMENT
 70
     0
  9
$CELWEIGHT
370
    -1
  9
$ENDCAPS
280
     0
  9
$JOINSTYLE
280
     0
  9
$LWDISPLAY
290
     0
  9
$INSUNITS
 70
     0
  9
$HYPERLINKBASE
  1

  9
$STYLESHEET
  1

  9
$XEDIT
290
     1
  9
$CEPSNTYPE
380
     0
  9
$PSTYLEMODE
290
     1
  9
$FINGERPRINTGUID
  2
{FE30E913-5A72-11D5-B7FB-0010B575C074}
  9
$VERSIONGUID
  2
{ECCCD221-8FE5-4993-A31B-6E08E425E159}
  9
$EXTNAMES
290
     1
  9
$PSVPSCALE
 40
0.0
  9
$OLESTARTUP
290
     0
  9
$SORTENTS
280
   127
  9
$INDEXCTL
280
     0
  9
$HIDETEXT
280
     0
  9
$XCLIPFRAME
290
     0
  9
$HALOGAP
280
     0
  9
$OBSCOLOR
 70
   257
  9
$OBSLTYPE
280
     0
  9
$INTERSECTIONDISPLAY
280
     0
  9
$INTERSECTIONCOLOR
 70
   257
  9
$DIMASSOC
280
     1
  9
$PROJECTNAME
  1

  0
ENDSEC
  0
SECTION
  2
CLASSES
  0
CLASS
  1
IDBUFFER
  2
AcDbIdBuffer
  3
ObjectDBX Classes
 90
        0
 91
        6
280
     0
281
     0
  0
CLASS
  1
DICTIONARYVAR
  2
AcDbDictionaryVar
  3
ObjectDBX Classes
 90
        0
 91
        4
280
     0
281
     0
  0
CLASS
  1
ACMESTATEMGR
  2
AcMeStateMgr
  3
AcMeServices
 90
     1024
 91
        1
280
     0
281
     0
  0
CLASS
  1
ACMESCOPE
  2
AcMeScope
  3
AcMeServices
 90
     1024
 91
        1
280
     0
281
     0
  0
CLASS
  1
ACMECOMMANDHISTORY
  2
AcMeCommandHistory
  3
AcMeServices
 90
     1024
 91
        1
280
     0
281
     0
  0
CLASS
  1
ACRFINSADJUSTERMGR
  2
AcRfInsAdjusterMgr
  3
AcMeServices
 90
     1024
 91
        1
280
     0
281
     0
  0
CLASS
  1
ACMEDRAWINGMAN
  2
AcMeDrawingMan
  3
AcMeServices
 90
     1024
 91
        1
280
     0
281
     0
  0
CLASS
  1
AMATTR
  2
AcMeAttribute
  3
AcMeServices
 90
     1024
 91
        0
280
     0
281
     0
  0
CLASS
  1
ACMEBOMCOLUMN
  2
AcMeBOMColumn
  3
AcMeServices
 90
     1024
 91
        0
280
     0
281
     0
  0
CLASS
  1
ACMEBOMCONF
  2
AcMeBOMConf
  3
AcMeServices
 90
     1024
 91
        0
280
     0
281
     0
  0
CLASS
  1
ACMEBOMTABLE
  2
AcMeBOMTable
  3
AcMeServices
 90
     1024
 91
        0
280
     0
281
     0
  0
CLASS
  1
ACMEBOMENTRY
  2
AcMeBOMEntry
  3
AcMeServices
 90
     1024
 91
        0
280
     0
281
     0
  0
CLASS
  1
ACMEVIEW
  2
AcMeView
  3
AcMeServices
 90
     1024
 91
        0
280
     0
281
     0
  0
CLASS
  1
LAYER_INDEX
  2
AcDbLayerIndex
  3
ObjectDBX Classes
 90
        0
 91
        1
280
     0
281
     0
  0
CLASS
  1
ACIMSYSVARMAN
  2
AcImSysVarManager
  3
AcMeServices
 90
     1024
 91
        5
280
     0
281
     0
  0
CLASS
  1
ACIMINTSYSVAR
  2
AcImIntSysVar
  3
AcMeServices
 90
     1024
 91
       27
280
     0
281
     0
  0
CLASS
  1
ACIMSTRSYSVAR
  2
AcImStrSysVar
  3
AcMeServices
 90
     1024
 91
        5
280
     0
281
     0
  0
CLASS
  1
ACMSTANDARDJIS
  2
AcmStandardJIS
  3
"Amdt_StdImp|Product Description: AutoCAD Mechanical|Company: Autodesk, Inc."
 90
     1024
 91
        1
280
     0
281
     0
  0
CLASS
  1
ACMSTANDARDANSI
  2
AcmStandardANSI
  3
"Amdt_StdImp|Product Description: AutoCAD Mechanical|Company: Autodesk, Inc."
 90
     1024
 91
        1
280
     0
281
     0
  0
CLASS
  1
ACMSTANDARDBSI
  2
AcmStandardBSI
  3
"Amdt_StdImp|Product Description: AutoCAD Mechanical|Company: Autodesk, Inc."
 90
     1024
 91
        1
280
     0
281
     0
  0
CLASS
  1
ACMSTANDARDDIN
  2
AcmStandardDIN
  3
"Amdt_StdImp|Product Description: AutoCAD Mechanical|Company: Autodesk, Inc."
 90
     1024
 91
        1
280
     0
281
     0
  0
CLASS
  1
ACMSTANDARDISO
  2
AcmStandardISO
  3
"Amdt_StdImp|Product Description: AutoCAD Mechanical|Company: Autodesk, Inc."
 90
     1024
 91
        1
280
     0
281
     0
  0
CLASS
  1
ACDBDICTIONARYWDFLT
  2
AcDbDictionaryWithDefault
  3
ObjectDBX Classes
 90
        0
 91
        1
280
     0
281
     0
  0
CLASS
  1
ACME_DOCUMENT
  2
AcMeDbDoc
  3
AcMeServices
 90
     1024
 91
        2
280
     0
281
     0
  0
CLASS
  1
AMGSETTINGSOBJ
  2
AmgSettingsObj
  3
"AcadM|Product Description: AutoCAD Mechanical|Company: Autodesk, Inc."
 90
     1024
 91
        2
280
     0
281
     0
  0
CLASS
  1
ACIMREALSYSVAR
  2
AcImRealSysVar
  3
AcMeServices
 90
     1024
 91
        3
280
     0
281
     0
  0
CLASS
  1
ACDBENTITYCACHE
  2
AcMeEntityCache
  3
AcMeServices
 90
     1024
 91
        1
280
     0
281
     0
  0
CLASS
  1
GSMANAGER
  2
AcMeGSManager
  3
AcMeServices
 90
     1024
 91
        1
280
     0
281
     0
  0
CLASS
  1
AMDTINTERNALREACTOR
  2
AmdtInternalReactor
  3
AcMeServices
 90
     1024
 91
        2
280
     0
281
     0
  0
CLASS
  1
ACME_DATABASE
  2
AcMeDbDatabase
  3
AcMeServices
 90
     1024
 91
        1
280
     0
281
     0
  0
CLASS
  1
ACMDATADICTIONARY
  2
AcmDataDictionary
  3
"AcmSymBB|Product Description: AutoCAD Mechanical|Company: Autodesk, Inc."
 90
     1024
 91
        1
280
     0
281
     0
  0
CLASS
  1
ACMDATAENTRYBLOCK
  2
AcmDataEntryBlock
  3
AcmSymBB|Product Description: AutoCAD Mechanical|Company: Autodesk, Inc.
 90
     1024
 91
        1
280
     0
281
     0
  0
CLASS
  1
ACMSURFSTANDARDJIS
  2
AcmSurfTextStdJIS
  3
"Amdt_StdImp|Product Description: AutoCAD Mechanical|Company: Autodesk, Inc."
 90
     1024
 91
        2
280
     0
281
     0
  0
CLASS
  1
ACMFCFSTANDARDJIS
  2
AcmFCFStdJIS
  3
"Amdt_StdImp|Product Description: AutoCAD Mechanical|Company: Autodesk, Inc."
 90
     1024
 91
        2
280
     0
281
     0
  0
CLASS
  1
ACMWELDSTANDARDJIS
  2
AcmWeldingStdJIS
  3
"Amdt_StdImp|Product Description: AutoCAD Mechanical|Company: Autodesk, Inc."
 90
     1024
 91
        2
280
     0
281
     0
  0
CLASS
  1
ACMIDSTANDARDJIS
  2
AcmIdStdJIS
  3
"Amdt_StdImp|Product Description: AutoCAD Mechanical|Company: Autodesk, Inc."
 90
     1024
 91
        2
280
     0
281
     0
  0
CLASS
  1
ACMDATUMSTANDARDJIS
  2
AcmDatumStdJIS
  3
"Amdt_StdImp|Product Description: AutoCAD Mechanical|Company: Autodesk, Inc."
 90
     1024
 91
        2
280
     0
281
     0
  0
CLASS
  1
ACMBOMSTANDARDJIS
  2
AcmBOMStdJIS
  3
"Amdt_StdImp|Product Description: AutoCAD Mechanical|Company: Autodesk, Inc."
 90
     1024
 91
        2
280
     0
281
     0
  0
CLASS
  1
AMGOBJPROPCFG
  2
AmgObjPropCfg
  3
"AmgLay|Product Description: AutoCAD Mechanical|Company: Autodesk, Inc."
 90
     1025
 91
        1
280
     0
281
     0
  0
CLASS
  1
ACMSURFSTANDARDANSI
  2
AcmSurfTextStdANSI
  3
"Amdt_StdImp|Product Description: AutoCAD Mechanical|Company: Autodesk, Inc."
 90
     1024
 91
        2
280
     0
281
     0
  0
CLASS
  1
ACMFCFSTANDARDANSI
  2
AcmFCFStdANSI
  3
"Amdt_StdImp|Product Description: AutoCAD Mechanical|Company: Autodesk, Inc."
 90
     1024
 91
        2
280
     0
281
     0
  0
CLASS
  1
ACMWELDSTANDARDANSI
  2
AcmWeldingStdANSI
  3
"Amdt_StdImp|Product Description: AutoCAD Mechanical|Company: Autodesk, Inc."
 90
     1024
 91
        2
280
     0
281
     0
  0
CLASS
  1
ACMIDSTANDARDANSI
  2
AcmIdStdANSI
  3
"Amdt_StdImp|Product Description: AutoCAD Mechanical|Company: Autodesk, Inc."
 90
     1024
 91
        2
280
     0
281
     0
  0
CLASS
  1
ACMDATUMSTANDARDANSI
  2
AcmDatumStdANSI
  3
"Amdt_StdImp|Product Description: AutoCAD Mechanical|Company: Autodesk, Inc."
 90
     1024
 91
        2
280
     0
281
     0
  0
CLASS
  1
ACMBOMSTANDARDANSI
  2
AcmBOMStdANSI
  3
"Amdt_StdImp|Product Description: AutoCAD Mechanical|Company: Autodesk, Inc."
 90
     1024
 91
        2
280
     0
281
     0
  0
CLASS
  1
ACMSURFSTANDARDBSI
  2
AcmSurfTextStdBSI
  3
"Amdt_StdImp|Product Description: AutoCAD Mechanical|Company: Autodesk, Inc."
 90
     1024
 91
        2
280
     0
281
     0
  0
CLASS
  1
ACMFCFSTANDARDBSI
  2
AcmFCFStdBSI
  3
"Amdt_StdImp|Product Description: AutoCAD Mechanical|Company: Autodesk, Inc."
 90
     1024
 91
        2
280
     0
281
     0
  0
CLASS
  1
ACMWELDSTANDARDBSI
  2
AcmWeldingStdBSI
  3
"Amdt_StdImp|Product Description: AutoCAD Mechanical|Company: Autodesk, Inc."
 90
     1024
 91
        2
280
     0
281
     0
  0
CLASS
  1
ACMIDSTANDARDBSI
  2
AcmIdStdBSI
  3
"Amdt_StdImp|Product Description: AutoCAD Mechanical|Company: Autodesk, Inc."
 90
     1024
 91
        2
280
     0
281
     0
  0
CLASS
  1
ACMDATUMSTANDARDBSI
  2
AcmDatumStdBSI
  3
"Amdt_StdImp|Product Description: AutoCAD Mechanical|Company: Autodesk, Inc."
 90
     1024
 91
        2
280
     0
281
     0
  0
CLASS
  1
ACMBOMSTANDARDBSI
  2
AcmBOMStdBSI
  3
"Amdt_StdImp|Product Description: AutoCAD Mechanical|Company: Autodesk, Inc."
 90
     1024
 91
        2
280
     0
281
     0
  0
CLASS
  1
AMDTEDGESTANDARDDIN
  2
AmdtEdgeStdDIN
  3
"Amdt_StdImp|Product Description: AutoCAD Mechanical|Company: Autodesk, Inc."
 90
     1024
 91
        2
280
     0
281
     0
  0
CLASS
  1
ACMSURFSTANDARDDIN
  2
AcmSurfTextStdDIN
  3
"Amdt_StdImp|Product Description: AutoCAD Mechanical|Company: Autodesk, Inc."
 90
     1024
 91
        2
280
     0
281
     0
  0
CLASS
  1
ACMFCFSTANDARDDIN
  2
AcmFCFStdDIN
  3
"Amdt_StdImp|Product Description: AutoCAD Mechanical|Company: Autodesk, Inc."
 90
     1024
 91
        2
280
     0
281
     0
  0
CLASS
  1
ACMWELDSTANDARDDIN
  2
AcmWeldingStdDIN
  3
"Amdt_StdImp|Product Description: AutoCAD Mechanical|Company: Autodesk, Inc."
 90
     1024
 91
        2
280
     0
281
     0
  0
CLASS
  1
ACMIDSTANDARDDIN
  2
AcmIdStdDIN
  3
"Amdt_StdImp|Product Description: AutoCAD Mechanical|Company: Autodesk, Inc."
 90
     1024
 91
        2
280
     0
281
     0
  0
CLASS
  1
ACMDATUMSTANDARDDIN
  2
AcmDatumStdDIN
  3
"Amdt_StdImp|Product Description: AutoCAD Mechanical|Company: Autodesk, Inc."
 90
     1024
 91
        2
280
     0
281
     0
  0
CLASS
  1
ACMBOMSTANDARDDIN
  2
AcmBOMStdDIN
  3
"Amdt_StdImp|Product Description: AutoCAD Mechanical|Company: Autodesk, Inc."
 90
     1024
 91
        2
280
     0
281
     0
  0
CLASS
  1
AMDTEDGESTANDARDISO
  2
AmdtEdgeStdISO
  3
"Amdt_StdImp|Product Description: AutoCAD Mechanical|Company: Autodesk, Inc."
 90
     1024
 91
        2
280
     0
281
     0
  0
CLASS
  1
ACMSURFSTANDARDISO
  2
AcmSurfTextStdISO
  3
"Amdt_StdImp|Product Description: AutoCAD Mechanical|Company: Autodesk, Inc."
 90
     1024
 91
        2
280
     0
281
     0
  0
CLASS
  1
ACMFCFSTANDARDISO
  2
AcmFCFStdISO
  3
"Amdt_StdImp|Product Description: AutoCAD Mechanical|Company: Autodesk, Inc."
 90
     1024
 91
        2
280
     0
281
     0
  0
CLASS
  1
ACMWELDSTANDARDISO
  2
AcmWeldingStdISO
  3
"Amdt_StdImp|Product Description: AutoCAD Mechanical|Company: Autodesk, Inc."
 90
     1024
 91
        2
280
     0
281
     0
  0
CLASS
  1
ACMIDSTANDARDISO
  2
AcmIdStdISO
  3
"Amdt_StdImp|Product Description: AutoCAD Mechanical|Company: Autodesk, Inc."
 90
     1024
 91
        2
280
     0
281
     0
  0
CLASS
  1
ACMDATUMSTANDARDISO
  2
AcmDatumStdISO
  3
"Amdt_StdImp|Product Description: AutoCAD Mechanical|Company: Autodesk, Inc."
 90
     1024
 91
        2
280
     0
281
     0
  0
CLASS
  1
ACMBOMSTANDARDISO
  2
AcmBOMStdISO
  3
"Amdt_StdImp|Product Description: AutoCAD Mechanical|Company: Autodesk, Inc."
 90
     1024
 91
        2
280
     0
281
     0
  0
CLASS
  1
ACMDIMBREAKPERSREACTOR
  2
AcmDimBreakPersReactor
  3
AmgDim|Product Description: AutoCAD Mechanical|Company: Autodesk, Inc.
 90
     4095
 91
        0
280
     0
281
     0
  0
CLASS
  1
ACAMGFILTERDAT
  2
AcAmgFilterDat
  3
"AcadM|Product Description: AutoCAD Mechanical|Company: Autodesk, Inc."
 90
     1024
 91
        5
280
     0
281
     0
  0
CLASS
  1
MATERIAL
  2
AcDbMaterial
  3
ObjectDBX Classes
 90
     1153
 91
        3
280
     0
281
     0
  0
CLASS
  1
VISUALSTYLE
  2
AcDbVisualStyle
  3
ObjectDBX Classes
 90
     4095
 91
       16
280
     0
281
     0
  0
CLASS
  1
TABLESTYLE
  2
AcDbTableStyle
  3
ObjectDBX Classes
 90
     4095
 91
        1
280
     0
281
     0
  0
CLASS
  1
SCALE
  2
AcDbScale
  3
ObjectDBX Classes
 90
     1153
 91
       33
280
     0
281
     0
  0
CLASS
  1
MLEADERSTYLE
  2
AcDbMLeaderStyle
  3
ACDB_MLEADERSTYLE_CLASS
 90
     4095
 91
        1
280
     0
281
     0
  0
CLASS
  1
ACGREFMASTER
  2
AcGrefMaster
  3
AcAttribServices
 90
     1024
 91
        1
280
     0
281
     0
  0
CLASS
  1
AM_DRAWING_MGR
  2
AcDmDwgMgr
  3
AcMechDwgViewMgmt
 90
     1024
 91
        1
280
     0
281
     0
  0
CLASS
  1
AM_DWG_DOCUMENT
  2
AcDmDwgDocument
  3
AcMechDwgViewMgmt
 90
     1024
 91
        1
280
     0
281
     0
  0
CLASS
  1
AM_DWG_SHEET
  2
AcDmSheet
  3
AcMechDwgViewMgmt
 90
     1024
 91
        1
280
     0
281
     0
  0
CLASS
  1
AM_VIEWDIMPARMAP
  2
AcDmViewDimParMap
  3
AcMechDwgViewMgmt
 90
     1024
 91
        1
280
     0
281
     0
  0
CLASS
  1
AM_DWGMGR_NAME
  2
AcDmDwgMgrName
  3
AcMechDwgViewMgmt
 90
     1024
 91
        1
280
     0
281
     0
  0
CLASS
  1
ACGREFACADMASTER
  2
AcGrefacadMaster
  3
AcGrefServices
 90
     1024
 91
        1
280
     0
281
     0
  0
CLASS
  1
AMDTMENUSTATEMGR
  2
AmdtMenuStateMgr
  3
McadcomServices
 90
     1024
 91
        1
280
     0
281
     0
  0
CLASS
  1
AMDTMCOMMENUSTATE
  2
AmdtMcomMenuState
  3
McadcomServices
 90
     1024
 91
        1
280
     0
281
     0
  0
CLASS
  1
AMIMASTER
  2
AmiMaster
  3
AmiServices
 90
     1024
 91
        1
280
     0
281
     0
  0
CLASS
  1
MAPIAMMOUDLE
  2
MApiAmModule
  3
MApiAmServices
 90
     1024
 91
        1
280
     0
281
     0
  0
CLASS
  1
AMDTADMENUSTATE
  2
AmdtAdMenuState
  3
DesignerServices
 90
     1024
 91
        1
280
     0
281
     0
  0
CLASS
  1
ADAPPL
  2
AcAdAppl
  3
DesignerServices
 90
     1024
 91
        1
280
     0
281
     0
  0
CLASS
  1
DEPMGR
  2
AcAdDepMgr
  3
DesignerServices
 90
     1024
 91
        1
280
     0
281
     0
  0
CLASS
  1
PARAMMGR
  2
AcAdParamMgr
  3
DesignerServices
 90
     1024
 91
        1
280
     0
281
     0
  0
CLASS
  1
PARAMSCOPE
  2
AcAdParamScope
  3
DesignerServices
 90
     1024
 91
        1
280
     0
281
     0
  0
CLASS
  1
NAMEDAPPL
  2
AcAdNamedAppl
  3
DesignerServices
 90
     1024
 91
        1
280
     0
281
     0
  0
CLASS
  1
AMDTDMMENUSTATE
  2
AmdtDmMenuState
  3
AcMechDwgViewMgmt
 90
     1024
 91
        1
280
     0
281
     0
  0
CLASS
  1
AMDTAMMENUSTATE
  2
AmdtAmMenuState
  3
DesignerAssemblies
 90
     1024
 91
        1
280
     0
281
     0
  0
CLASS
  1
ACAMPROJECT
  2
AcAmProject
  3
DesignerAssemblies
 90
     1024
 91
        1
280
     0
281
     0
  0
CLASS
  1
ACAMGRCOMPDEF
  2
AcAmGrCompDef
  3
DesignerAssemblies
 90
     1024
 91
        1
280
     0
281
     0
  0
CLASS
  1
ACCMCONTEXT
  2
AcCmContext
  3
DesignerAssemblies
 90
     1024
 91
        1
280
     0
281
     0
  0
CLASS
  1
ACAMCOMPDEF
  2
AcAmCompDef
  3
DesignerAssemblies
 90
     1024
 91
        1
280
     0
281
     0
  0
CLASS
  1
ACAMCOMPDEFMGR
  2
AcAmCompDefMgr
  3
DesignerAssemblies
 90
     1024
 91
        1
280
     0
281
     0
  0
CLASS
  1
AMCONTEXTMGR
  2
AcAmContextMgr
  3
DesignerAssemblies
 90
     1024
 91
        1
280
     0
281
     0
  0
CLASS
  1
ACAMCONTEXTMODELER
  2
AcAmContextModeler
  3
DesignerAssemblies
 90
     1024
 91
        1
280
     0
281
     0
  0
CLASS
  1
ACRFATTGENMGR
  2
AcRfAttGeneralMgr
  3
AcAttribServices
 90
     1024
 91
        1
280
     0
281
     0
  0
CLASS
  1
ACRFOBJATTMGR
  2
AcRfObjAttGroupMgr
  3
AcAttribServices
 90
     1024
 91
        1
280
     0
281
     0
  0
CLASS
  1
ACRFMCADAPIATTHOLDER
  2
AcRfMCADAPIAttHolder
  3
AcAttribServices
 90
     1024
 91
        1
280
     0
281
     0
  0
CLASS
  1
AMDTSYSATTR
  2
AmdtSystemAttribute
  3
AcAttribServices
 90
     1024
 91
        1
280
     0
281
     0
  0
CLASS
  1
ACAMGTITLESTD
  2
AcAmgTitleStd
  3
"AmgTitle|Product Description: AutoCAD Mechanical|Company: Autodesk, Inc."
 90
     4095
 91
        5
280
     0
281
     0
  0
CLASS
  1
ACMDETAILSTANDARDJIS
  2
AmdtDetailSymStdJIS
  3
"Amdt_StdImp|Product Description: AutoCAD Mechanical|Company: Autodesk, Inc."
 90
     1024
 91
        1
280
     0
281
     0
  0
CLASS
  1
ACMSECTIONSTANDARDJIS
  2
AmdtSectionSymStdJIS
  3
"Amdt_StdImp|Product Description: AutoCAD Mechanical|Company: Autodesk, Inc."
 90
     1024
 91
        1
280
     0
281
     0
  0
CLASS
  1
ACMCENTERLINESTANDARDJIS
  2
AmdtCenterLineStdJIS
  3
"Amdt_StdImp|Product Description: AutoCAD Mechanical|Company: Autodesk, Inc."
 90
     1024
 91
        1
280
     0
281
     0
  0
CLASS
  1
ACMTHREADLINESTANDARDJIS
  2
AmdtThreadLineStdJIS
  3
"Amdt_StdImp|Product Description: AutoCAD Mechanical|Company: Autodesk, Inc."
 90
     1024
 91
        1
280
     0
281
     0
  0
CLASS
  1
ACMNOTESTANDARDJIS
  2
AmdtNoteStdJIS
  3
"Amdt_StdImp|Product Description: AutoCAD Mechanical|Company: Autodesk, Inc."
 90
     1024
 91
        1
280
     0
281
     0
  0
CLASS
  1
AMDTNOTETEMPLATEDB
  2
AmdtNoteTemplateDB
  3
AcmSymBB|Product Description: AutoCAD Mechanical|Company: Autodesk, Inc.
 90
     1024
 91
       30
280
     0
281
     0
  0
CLASS
  1
ACMTAPERSTANDARDJIS
  2
AcmTaperStdJIS
  3
"Amdt_StdImp|Product Description: AutoCAD Mechanical|Company: Autodesk, Inc."
 90
     1024
 91
        1
280
     0
281
     0
  0
CLASS
  1
ACMANOOTATIONVIEWSTANDARDJIS
  2
AmdtAnViewStdJIS
  3
"Amdt_StdImp|Product Description: AutoCAD Mechanical|Company: Autodesk, Inc."
 90
     1024
 91
        1
280
     0
281
     0
  0
CLASS
  1
ACMDETAILSTANDARDANSI
  2
AmdtDetailSymStdANSI
  3
"Amdt_StdImp|Product Description: AutoCAD Mechanical|Company: Autodesk, Inc."
 90
     1024
 91
        1
280
     0
281
     0
  0
CLASS
  1
ACMSECTIONSTANDARDANSI
  2
AmdtSectionSymStdANSI
  3
"Amdt_StdImp|Product Description: AutoCAD Mechanical|Company: Autodesk, Inc."
 90
     1024
 91
        1
280
     0
281
     0
  0
CLASS
  1
ACMCENTERLINESTANDARDANSI
  2
AmdtCenterLineStdANSI
  3
"Amdt_StdImp|Product Description: AutoCAD Mechanical|Company: Autodesk, Inc."
 90
     1024
 91
        1
280
     0
281
     0
  0
CLASS
  1
ACMTHREADLINESTANDARDANSI
  2
AmdtThreadLineStdANSI
  3
"Amdt_StdImp|Product Description: AutoCAD Mechanical|Company: Autodesk, Inc."
 90
     1024
 91
        1
280
     0
281
     0
  0
CLASS
  1
ACMNOTESTANDARDANSI
  2
AmdtNoteStdANSI
  3
"Amdt_StdImp|Product Description: AutoCAD Mechanical|Company: Autodesk, Inc."
 90
     1024
 91
        1
280
     0
281
     0
  0
CLASS
  1
ACMTAPERSTANDARDANSI
  2
AcmTaperStdANSI
  3
"Amdt_StdImp|Product Description: AutoCAD Mechanical|Company: Autodesk, Inc."
 90
     1024
 91
        1
280
     0
281
     0
  0
CLASS
  1
ACMANOOTATIONVIEWSTANDARDANSI
  2
AmdtAnViewStdANSI
  3
"Amdt_StdImp|Product Description: AutoCAD Mechanical|Company: Autodesk, Inc."
 90
     1024
 91
        1
280
     0
281
     0
  0
CLASS
  1
ACMDETAILSTANDARDBSI
  2
AmdtDetailSymStdBSI
  3
"Amdt_StdImp|Product Description: AutoCAD Mechanical|Company: Autodesk, Inc."
 90
     1024
 91
        1
280
     0
281
     0
  0
CLASS
  1
ACMSECTIONSTANDARDBSI2001
  2
AmdtSectionSymStdBSI2001
  3
"Amdt_StdImp|Product Description: AutoCAD Mechanical|Company: Autodesk, Inc."
 90
     1024
 91
        1
280
     0
281
     0
  0
CLASS
  1
ACMCENTERLINESTANDARDBSI
  2
AmdtCenterLineStdBSI
  3
"Amdt_StdImp|Product Description: AutoCAD Mechanical|Company: Autodesk, Inc."
 90
     1024
 91
        1
280
     0
281
     0
  0
CLASS
  1
ACMTHREADLINESTANDARDBSI
  2
AmdtThreadLineStdBSI
  3
"Amdt_StdImp|Product Description: AutoCAD Mechanical|Company: Autodesk, Inc."
 90
     1024
 91
        1
280
     0
281
     0
  0
CLASS
  1
ACMNOTESTANDARDBSI
  2
AmdtNoteStdBSI
  3
"Amdt_StdImp|Product Description: AutoCAD Mechanical|Company: Autodesk, Inc."
 90
     1024
 91
        1
280
     0
281
     0
  0
CLASS
  1
ACMTAPERSTANDARDBSI
  2
AcmTaperStdBSI
  3
"Amdt_StdImp|Product Description: AutoCAD Mechanical|Company: Autodesk, Inc."
 90
     1024
 91
        1
280
     0
281
     0
  0
CLASS
  1
ACMANOOTATIONVIEWSTANDARDBSI
  2
AmdtAnViewStdBSI
  3
"Amdt_StdImp|Product Description: AutoCAD Mechanical|Company: Autodesk, Inc."
 90
     1024
 91
        1
280
     0
281
     0
  0
CLASS
  1
ACMDETAILSTANDARDDIN
  2
AmdtDetailSymStdDIN
  3
"Amdt_StdImp|Product Description: AutoCAD Mechanical|Company: Autodesk, Inc."
 90
     1024
 91
        1
280
     0
281
     0
  0
CLASS
  1
ACMSECTIONSTANDARDDIN
  2
AmdtSectionSymStdDIN
  3
"Amdt_StdImp|Product Description: AutoCAD Mechanical|Company: Autodesk, Inc."
 90
     1024
 91
        1
280
     0
281
     0
  0
CLASS
  1
ACMCENTERLINESTANDARDDIN
  2
AmdtCenterLineStdDIN
  3
"Amdt_StdImp|Product Description: AutoCAD Mechanical|Company: Autodesk, Inc."
 90
     1024
 91
        1
280
     0
281
     0
  0
CLASS
  1
ACMTHREADLINESTANDARDDIN
  2
AmdtThreadLineStdDIN
  3
"Amdt_StdImp|Product Description: AutoCAD Mechanical|Company: Autodesk, Inc."
 90
     1024
 91
        1
280
     0
281
     0
  0
CLASS
  1
ACMNOTESTANDARDDIN
  2
AmdtNoteStdDIN
  3
"Amdt_StdImp|Product Description: AutoCAD Mechanical|Company: Autodesk, Inc."
 90
     1024
 91
        1
280
     0
281
     0
  0
CLASS
  1
ACMTAPERSTANDARDDIN
  2
AcmTaperStdDIN
  3
"Amdt_StdImp|Product Description: AutoCAD Mechanical|Company: Autodesk, Inc."
 90
     1024
 91
        1
280
     0
281
     0
  0
CLASS
  1
ACMANOOTATIONVIEWSTANDARDDIN
  2
AmdtAnViewStdDIN
  3
"Amdt_StdImp|Product Description: AutoCAD Mechanical|Company: Autodesk, Inc."
 90
     1024
 91
        1
280
     0
281
     0
  0
CLASS
  1
ACMDETAILSTANDARDISO
  2
AmdtDetailSymStdISO
  3
"Amdt_StdImp|Product Description: AutoCAD Mechanical|Company: Autodesk, Inc."
 90
     1024
 91
        1
280
     0
281
     0
  0
CLASS
  1
ACMSECTIONSTANDARDISO2001
  2
AmdtSectionSymStdISO2001
  3
"Amdt_StdImp|Product Description: AutoCAD Mechanical|Company: Autodesk, Inc."
 90
     1024
 91
        1
280
     0
281
     0
  0
CLASS
  1
ACMCENTERLINESTANDARDISO
  2
AmdtCenterLineStdISO
  3
"Amdt_StdImp|Product Description: AutoCAD Mechanical|Company: Autodesk, Inc."
 90
     1024
 91
        1
280
     0
281
     0
  0
CLASS
  1
ACMTHREADLINESTANDARDISO
  2
AmdtThreadLineStdISO
  3
"Amdt_StdImp|Product Description: AutoCAD Mechanical|Company: Autodesk, Inc."
 90
     1024
 91
        1
280
     0
281
     0
  0
CLASS
  1
ACMNOTESTANDARDISO
  2
AmdtNoteStdISO
  3
"Amdt_StdImp|Product Description: AutoCAD Mechanical|Company: Autodesk, Inc."
 90
     1024
 91
        1
280
     0
281
     0
  0
CLASS
  1
ACMTAPERSTANDARDISO
  2
AcmTaperStdISO
  3
"Amdt_StdImp|Product Description: AutoCAD Mechanical|Company: Autodesk, Inc."
 90
     1024
 91
        1
280
     0
281
     0
  0
CLASS
  1
ACMANOOTATIONVIEWSTANDARDISO
  2
AmdtAnViewStdISO
  3
"Amdt_StdImp|Product Description: AutoCAD Mechanical|Company: Autodesk, Inc."
 90
     1024
 91
        1
280
     0
281
     0
  0
CLASS
  1
ACAMGLAYSTD
  2
AcAmgLayStd
  3
"AmgLay|Product Description: AutoCAD Mechanical|Company: Autodesk, Inc."
 90
     1024
 91
        5
280
     0
281
     0
  0
CLASS
  1
ACAMGDIMSTD
  2
AcAmgDimStd
  3
"AmgDim|Product Description: AutoCAD Mechanical|Company: Autodesk, Inc."
 90
     1024
 91
        5
280
     0
281
     0
  0
CLASS
  1
ACAMGHOLECHARTSTDANSI
  2
AcAmgHoleChartStdANSI
  3
AmgDim|Product Description: AutoCAD Mechanical|Company: Autodesk, Inc.
 90
     1024
 91
        1
280
     0
281
     0
  0
CLASS
  1
ACAMGHOLECHARTSTDBSI
  2
AcAmgHoleChartStdBSI
  3
AmgDim|Product Description: AutoCAD Mechanical|Company: Autodesk, Inc.
 90
     1024
 91
        1
280
     0
281
     0
  0
CLASS
  1
ACAMGHOLECHARTSTDDIN
  2
AcAmgHoleChartStdDIN
  3
AmgDim|Product Description: AutoCAD Mechanical|Company: Autodesk, Inc.
 90
     1024
 91
        1
280
     0
281
     0
  0
CLASS
  1
ACAMGHOLECHARTSTDISO
  2
AcAmgHoleChartStdISO
  3
AmgDim|Product Description: AutoCAD Mechanical|Company: Autodesk, Inc.
 90
     1024
 91
        1
280
     0
281
     0
  0
CLASS
  1
ACAMGHOLECHARTSTDJIS
  2
AcAmgHoleChartStdJIS
  3
AmgDim|Product Description: AutoCAD Mechanical|Company: Autodesk, Inc.
 90
     1024
 91
        1
280
     0
281
     0
  0
CLASS
  1
CATALOGSTATE
  2
AcAmCatalogState
  3
DesignerAssemblies
 90
     1024
 91
        1
280
     0
281
     0
  0
CLASS
  1
ACAMGRCOMPDEFSET
  2
AcAmGrCompDefSet
  3
DesignerAssemblies
 90
     1024
 91
        1
280
     0
281
     0
  0
CLASS
  1
AMDTBROWSERDBTAB
  2
AmdtBrowserDbTab
  3
McadcomServices
 90
     1024
 91
        1
280
     0
281
     0
  0
CLASS
  1
CBROWSERAPPOBJECT
  2
CBrowserAppObject
  3
McadcomServices
 90
     1024
 91
        3
280
     0
281
     0
  0
CLASS
  1
DM_PLACEHOLDER
  2
AcDmSelsetPlaceholder
  3
AcMechDwgViewMgmt
 90
     1024
 91
        1
280
     0
281
     0
  0
CLASS
  1
CELLSTYLEMAP
  2
AcDbCellStyleMap
  3
ObjectDBX Classes
 90
     1152
 91
        1
280
     0
281
     0
  0
ENDSEC
  0
SECTION
  2
TABLES
  0
TABLE
  2
VPORT
  5
13
330
0
100
AcDbSymbolTable
 70
     1
  0
VPORT
  5
1750
330
13
100
AcDbSymbolTableRecord
100
AcDbViewportTableRecord
  2
*Active
 70
     0
 10
0.0
 20
0.0
 11
1.0
 21
1.0
 12
650.0
 22
300.0
 13
0.0
 23
0.0
 14
10.0
 24
10.0
 15
10.0
 25
10.0
 16
0.0
 26
0.0
 36
1.0
 17
0.0
 27
0.0
 37
0.0
 40
829.5157068062827
 41
1.567179487179487
 42
50.0
 43
0.0
 44
0.0
 50
0.0
 51
0.0
 71
     0
 72
   100
 73
     1
 74
     0
 75
     0
 76
     0
 77
     0
 78
     0
281
     0
 65
     1
110
0.0
120
0.0
130
0.0
111
1.0
121
0.0
131
0.0
112
0.0
122
1.0
132
0.0
 79
     0
146
0.0
  0
ENDTAB
  0
TABLE
  2
LTYPE
  5
E
330
0
100
AcDbSymbolTable
 70
    22
  0
LTYPE
  5
F
330
E
100
AcDbSymbolTableRecord
100
AcDbLinetypeTableRecord
  2
BYBLOCK
 70
     0
  3

 72
    65
 73
     0
 40
0.0
  0
LTYPE
  5
10
330
E
100
AcDbSymbolTableRecord
100
AcDbLinetypeTableRecord
  2
BYLAYER
 70
     0
  3

 72
    65
 73
     0
 40
0.0
  0
LTYPE
  5
6
330
E
100
AcDbSymbolTableRecord
100
AcDbLinetypeTableRecord
  2
CONTINUOUS
 70
     0
  3
Solid line
 72
    65
 73
     0
 40
0.0
  0
LTYPE
  5
42
330
E
100
AcDbSymbolTableRecord
100
AcDbLinetypeTableRecord
  2
MITTE
 70
     0
  3
____ _ ____ _ ____ _ ____ _ ____ _ ____ _ ____ 
 72
    65
 73
     4
 40
2.0
 49
1.25
 74
     0
 49
-0.25
 74
     0
 49
0.25
 74
     0
 49
-0.25
 74
     0
  0
LTYPE
  5
19A
330
E
100
AcDbSymbolTableRecord
100
AcDbLinetypeTableRecord
  2
GESTRICHELT
 70
     0
  3
__ __ __ __ __ __ __ __ __ __ __ __ __ __ __ __
 72
    65
 73
     2
 40
0.75
 49
0.5
 74
     0
 49
-0.25
 74
     0
  0
LTYPE
  5
383
330
E
100
AcDbSymbolTableRecord
100
AcDbLinetypeTableRecord
  2
ACJISTGB
 70
     0
  3
__ . . __ . .
 72
    65
 73
     6
 40
9.0
 49
4.0
 74
     0
 49
-1.0
 74
     0
 49
1.0
 74
     0
 49
-1.0
 74
     0
 49
1.0
 74
     0
 49
-1.0
 74
     0
  0
LTYPE
  5
384
330
E
100
AcDbSymbolTableRecord
100
AcDbLinetypeTableRecord
  2
ACJISTGL
 70
     0
  3
_ _ _ _ _
 72
    65
 73
     2
 40
3.0
 49
2.0
 74
     0
 49
-1.0
 74
     0
  0
LTYPE
  5
387
330
E
100
AcDbSymbolTableRecord
100
AcDbLinetypeTableRecord
  2
ACANSTGB
 70
     0
  3
__ . . __ . .
 72
    65
 73
     6
 40
0.35433070866
 49
0.15748031496
 74
     0
 49
-0.03937007874
 74
     0
 49
0.03937007874
 74
     0
 49
-0.03937007874
 74
     0
 49
0.03937007874
 74
     0
 49
-0.03937007874
 74
     0
  0
LTYPE
  5
388
330
E
100
AcDbSymbolTableRecord
100
AcDbLinetypeTableRecord
  2
ACANSTGL
 70
     0
  3
_ _ _ _ _
 72
    65
 73
     2
 40
0.11811023622
 49
0.07874015748
 74
     0
 49
-0.03937007874
 74
     0
  0
LTYPE
  5
38B
330
E
100
AcDbSymbolTableRecord
100
AcDbLinetypeTableRecord
  2
ACBSIWELD
 70
     0
  3
_ _ _ _ _
 72
    65
 73
     2
 40
2.0
 49
2.0
 74
     0
 49
-1.0
 74
     0
  0
LTYPE
  5
38C
330
E
100
AcDbSymbolTableRecord
100
AcDbLinetypeTableRecord
  2
ACBSITGB
 70
     0
  3
__ . . __ . .
 72
    65
 73
     6
 40
9.0
 49
4.0
 74
     0
 49
-1.0
 74
     0
 49
1.0
 74
     0
 49
-1.0
 74
     0
 49
1.0
 74
     0
 49
-1.0
 74
     0
  0
LTYPE
  5
38D
330
E
100
AcDbSymbolTableRecord
100
AcDbLinetypeTableRecord
  2
ACBSITGL
 70
     0
  3
_ _ _ _ _
 72
    65
 73
     2
 40
3.0
 49
2.0
 74
     0
 49
-1.0
 74
     0
  0
LTYPE
  5
390
330
E
100
AcDbSymbolTableRecord
100
AcDbLinetypeTableRecord
  2
ACDINWELD
 70
     0
  3
_ _ _ _ _
 72
    65
 73
     2
 40
2.0
 49
2.0
 74
     0
 49
-1.0
 74
     0
  0
LTYPE
  5
391
330
E
100
AcDbSymbolTableRecord
100
AcDbLinetypeTableRecord
  2
ACDINTGB
 70
     0
  3
__ . . __ . .
 72
    65
 73
     6
 40
9.0
 49
4.0
 74
     0
 49
-1.0
 74
     0
 49
1.0
 74
     0
 49
-1.0
 74
     0
 49
1.0
 74
     0
 49
-1.0
 74
     0
  0
LTYPE
  5
392
330
E
100
AcDbSymbolTableRecord
100
AcDbLinetypeTableRecord
  2
ACDINTGL
 70
     0
  3
_ _ _ _ _
 72
    65
 73
     2
 40
3.0
 49
2.0
 74
     0
 49
-1.0
 74
     0
  0
LTYPE
  5
395
330
E
100
AcDbSymbolTableRecord
100
AcDbLinetypeTableRecord
  2
ACISOWELD
 70
     0
  3
_ _ _ _ _
 72
    65
 73
     2
 40
2.0
 49
2.0
 74
     0
 49
-1.0
 74
     0
  0
LTYPE
  5
396
330
E
100
AcDbSymbolTableRecord
100
AcDbLinetypeTableRecord
  2
ACISOTGB
 70
     0
  3
__ . . __ . .
 72
    65
 73
     6
 40
9.0
 49
4.0
 74
     0
 49
-1.0
 74
     0
 49
1.0
 74
     0
 49
-1.0
 74
     0
 49
1.0
 74
     0
 49
-1.0
 74
     0
  0
LTYPE
  5
397
330
E
100
AcDbSymbolTableRecord
100
AcDbLinetypeTableRecord
  2
ACISOTGL
 70
     0
  3
_ _ _ _ _
 72
    65
 73
     2
 40
3.0
 49
2.0
 74
     0
 49
-1.0
 74
     0
  0
LTYPE
  5
3DB
330
E
100
AcDbSymbolTableRecord
100
AcDbLinetypeTableRecord
  2
Amconstr
 70
     0
  3
_______________________
 72
    65
 73
     2
 40
9999.0
 49
9999.0
 74
     0
 49
0.0
 74
     0
  0
LTYPE
  5
3E1
330
E
100
AcDbSymbolTableRecord
100
AcDbLinetypeTableRecord
  2
PHANTOM2
 70
     0
  3
Phantom (.5x) ___ _ _ ___ _ _ ___ _ _ ___ _ _
 72
    65
 73
     6
 40
1.25
 49
0.625
 74
     0
 49
-0.125
 74
     0
 49
0.125
 74
     0
 49
-0.125
 74
     0
 49
0.125
 74
     0
 49
-0.125
 74
     0
  0
LTYPE
  5
3E2
330
E
100
AcDbSymbolTableRecord
100
AcDbLinetypeTableRecord
  2
Amzigzag2
 70
     0
  3
/\/-/\/-/\/-/\/-/\/-/\/
 72
    65
 73
     2
 40
0.4401
 49
0.0001
 74
     4
 75
   135
340
3DF
 46
0.0016
 50
0.0
 44
0.0
 45
0.0
 49
-0.4400000000000001
 74
     0
  0
LTYPE
  5
17D0
330
E
100
AcDbSymbolTableRecord
100
AcDbLinetypeTableRecord
  2
HIDDEN
 70
     0
  3
Verdeckt
 72
    65
 73
     2
 40
0.375
 49
0.25
 74
     0
 49
-0.125
 74
     0
  0
LTYPE
  5
17D1
330
E
100
AcDbSymbolTableRecord
100
AcDbLinetypeTableRecord
  2
CENTER
 70
     0
  3
Mitte ____ _ ____ _ ____ _ ____ _ ____ _ ____
 72
    65
 73
     4
 40
2.0
 49
1.25
 74
     0
 49
-0.25
 74
     0
 49
0.25
 74
     0
 49
-0.25
 74
     0
  0
ENDTAB
  0
TABLE
  2
LAYER
  5
B
330
0
100
AcDbSymbolTable
 70
     6
  0
LAYER
  5
5
102
{ACAD_XDICTIONARY
360
188D
102
}
330
B
100
AcDbSymbolTableRecord
100
AcDbLayerTableRecord
  2
0
 70
     0
 62
     7
  6
CONTINUOUS
370
    -3
390
3AF
  0
LAYER
  5
41
102
{ACAD_XDICTIONARY
360
188F
102
}
330
B
100
AcDbSymbolTableRecord
100
AcDbLayerTableRecord
  2
MITTE
 70
     0
 62
     6
  6
MITTE
370
    -3
390
3AF
  0
LAYER
  5
6E
102
{ACAD_XDICTIONARY
360
1891
102
}
330
B
100
AcDbSymbolTableRecord
100
AcDbLayerTableRecord
  2
LINIE
 70
     0
 62
     6
  6
CONTINUOUS
370
    -3
390
3AF
  0
LAYER
  5
2A
330
B
100
AcDbSymbolTableRecord
100
AcDbLayerTableRecord
  2
Defpoints
 70
     0
 62
     7
  6
CONTINUOUS
290
     0
370
    -3
390
3AF
  0
LAYER
  5
7C2
102
{ACAD_XDICTIONARY
360
1893
102
}
330
B
100
AcDbSymbolTableRecord
100
AcDbLayerTableRecord
  2
SCHRAFF
 70
     0
 62
    62
  6
CONTINUOUS
370
    -3
390
3AF
  0
ENDTAB
  0
TABLE
  2
STYLE
  5
C
330
0
100
AcDbSymbolTable
 70
    12
  0
STYLE
  5
D
330
C
100
AcDbSymbolTableRecord
100
AcDbTextStyleTableRecord
  2
STANDARD
 70
     0
 40
0.0
 41
1.0
 50
0.0
 71
     0
 42
10.0
  3
romans.shx
  4

  0
STYLE
  5
381
330
C
100
AcDbSymbolTableRecord
100
AcDbTextStyleTableRecord
  2
ACJISTS
 70
     0
 40
1.0
 41
1.0
 50
0.0
 71
     0
 42
10.0
  3
isocp.shx
  4
bigfont.shx
  0
STYLE
  5
382
330
C
100
AcDbSymbolTableRecord
100
AcDbTextStyleTableRecord
  2
ACJISGDT
 70
     0
 40
0.0
 41
1.0
 50
0.0
 71
     0
 42
10.0
  3
amgdt.shx
  4

  0
STYLE
  5
385
330
C
100
AcDbSymbolTableRecord
100
AcDbTextStyleTableRecord
  2
ACANSTSB
 70
     0
 40
1.0
 41
1.0
 50
0.0
 71
     0
 42
10.0
  3
romans.shx
  4

  0
STYLE
  5
386
330
C
100
AcDbSymbolTableRecord
100
AcDbTextStyleTableRecord
  2
ACANSGDT
 70
     0
 40
0.0
 41
1.0
 50
0.0
 71
     0
 42
10.0
  3
amgdt.shx
  4

  0
STYLE
  5
389
330
C
100
AcDbSymbolTableRecord
100
AcDbTextStyleTableRecord
  2
ACBSITS
 70
     0
 40
1.0
 41
1.0
 50
0.0
 71
     0
 42
10.0
  3
isocp.shx
  4

  0
STYLE
  5
38A
330
C
100
AcDbSymbolTableRecord
100
AcDbTextStyleTableRecord
  2
ACBSIGDT
 70
     0
 40
0.0
 41
1.0
 50
0.0
 71
     0
 42
10.0
  3
amgdt.shx
  4

  0
STYLE
  5
38E
330
C
100
AcDbSymbolTableRecord
100
AcDbTextStyleTableRecord
  2
ACDINTS
 70
     0
 40
1.0
 41
1.0
 50
0.0
 71
     0
 42
10.0
  3
isocp.shx
  4

  0
STYLE
  5
38F
330
C
100
AcDbSymbolTableRecord
100
AcDbTextStyleTableRecord
  2
ACDINGDT
 70
     0
 40
0.0
 41
1.0
 50
0.0
 71
     0
 42
10.0
  3
amgdt.shx
  4

  0
STYLE
  5
393
330
C
100
AcDbSymbolTableRecord
100
AcDbTextStyleTableRecord
  2
ACISOTS
 70
     0
 40
1.0
 41
1.0
 50
0.0
 71
     0
 42
10.0
  3
isocp.shx
  4

  0
STYLE
  5
394
330
C
100
AcDbSymbolTableRecord
100
AcDbTextStyleTableRecord
  2
ACISOGDT
 70
     0
 40
0.0
 41
1.0
 50
0.0
 71
     0
 42
10.0
  3
amgdt.shx
  4

  0
STYLE
  5
3DF
330
C
100
AcDbSymbolTableRecord
100
AcDbTextStyleTableRecord
  2

 70
     1
 40
0.0
 41
1.0
 50
0.0
 71
     0
 42
10.0
  3
ltypeshp.shx
  4

  0
ENDTAB
  0
TABLE
  2
VIEW
  5
11
330
0
100
AcDbSymbolTable
 70
     0
  0
ENDTAB
  0
TABLE
  2
UCS
  5
12
330
0
100
AcDbSymbolTable
 70
     0
  0
ENDTAB
  0
TABLE
  2
APPID
  5
15
330
0
100
AcDbSymbolTable
 70
    13
  0
APPID
  5
16
330
15
100
AcDbSymbolTableRecord
100
AcDbRegAppTableRecord
  2
ACAD
 70
     0
  0
APPID
  5
35E
330
15
100
AcDbSymbolTableRecord
100
AcDbRegAppTableRecord
  2
MCAD_NO_VIS
 70
     0
  0
APPID
  5
3BF
330
15
100
AcDbSymbolTableRecord
100
AcDbRegAppTableRecord
  2
ACAD_TEMP_GRAPHIC
 70
     0
  0
APPID
  5
17A3
330
15
100
AcDbSymbolTableRecord
100
AcDbRegAppTableRecord
  2
ACAD_MLEADERVER
 70
     0
  0
APPID
  5
17D3
330
15
100
AcDbSymbolTableRecord
100
AcDbRegAppTableRecord
  2
AD_DRAW
 70
     0
  0
APPID
  5
17D6
330
15
100
AcDbSymbolTableRecord
100
AcDbRegAppTableRecord
  2
ACATTRIBSERVICES
 70
     0
  0
APPID
  5
17F7
330
15
100
AcDbSymbolTableRecord
100
AcDbRegAppTableRecord
  2
DESIGNERASSEMBLIES
 70
     0
  0
APPID
  5
1880
330
15
100
AcDbSymbolTableRecord
100
AcDbRegAppTableRecord
  2
ACADM_DIM_EDIT
 70
     0
  0
APPID
  5
1881
330
15
100
AcDbSymbolTableRecord
100
AcDbRegAppTableRecord
  2
AMDT_DM_ADJ
 70
     0
  0
APPID
  5
1887
330
15
100
AcDbSymbolTableRecord
100
AcDbRegAppTableRecord
  2
ACAD_EXEMPT_FROM_CAD_STANDARDS
 70
     0
  0
APPID
  5
1897
330
15
100
AcDbSymbolTableRecord
100
AcDbRegAppTableRecord
  2
DCO15
 70
     0
  0
APPID
  5
18A3
330
15
100
AcDbSymbolTableRecord
100
AcDbRegAppTableRecord
  2
ACAD_DSTYLE_DIMARC_LENGTH_SYMBOL
 70
     0
  0
APPID
  5
18A4
330
15
100
AcDbSymbolTableRecord
100
AcDbRegAppTableRecord
  2
ACAD_DSTYLE_DIMJOGGED_JOGANGLE_SYMBOL
 70
     0
  0
ENDTAB
  0
TABLE
  2
DIMSTYLE
  5
17
330
0
100
AcDbSymbolTable
 70
    36
100
AcDbDimStyleTable
 71
     1
340
1D
  0
DIMSTYLE
105
1D
330
17
100
AcDbSymbolTableRecord
100
AcDbDimStyleTableRecord
  2
ISO-25
 70
     0
 41
7.0
 42
0.0
 43
7.0
 44
1.25
 73
     0
 74
     0
 77
     1
 78
     8
 79
     2
140
10.0
141
0.0
147
4.0
172
     1
176
   256
177
   256
178
   256
284
     8
288
     1
340
D
  0
DIMSTYLE
105
1848
330
17
100
AcDbSymbolTableRecord
100
AcDbDimStyleTableRecord
  2
AM_ANSI
 70
     0
  4
mm
 41
0.1
 42
0.05
 43
0.5
 44
0.1
 47
0.1
 48
0.1
 78
     7
 79
     2
140
0.12
141
0.0
146
0.71
147
0.06
176
   256
177
   256
178
     2
274
     4
284
     7
340
D
371
    -1
372
    -1
1001
ACAD_DSTYLE_DIMARC_LENGTH_SYMBOL
1070
   379
1070
     1
  0
DIMSTYLE
105
1849
330
17
100
AcDbSymbolTableRecord
100
AcDbDimStyleTableRecord
  2
AM_ANSI$3
 70
     0
  4
mm
 41
0.1
 42
0.05
 43
0.5
 44
0.1
 47
0.1
 48
0.1
 78
     7
 79
     2
140
0.12
141
0.0
146
0.71
147
0.06
176
   256
177
   256
178
     2
274
     4
284
     7
288
     1
289
     0
340
D
371
    -1
372
    -1
1001
ACAD_DSTYLE_DIMARC_LENGTH_SYMBOL
1070
   379
1070
     1
  0
DIMSTYLE
105
184A
330
17
100
AcDbSymbolTableRecord
100
AcDbDimStyleTableRecord
  2
AM_ANSI$4
 70
     0
  4
mm
 41
0.1
 42
0.05
 43
0.5
 44
0.1
 47
0.1
 48
0.1
 78
     7
 79
     2
140
0.12
141
0.0
146
0.71
147
0.06
176
   256
177
   256
178
     2
274
     4
284
     7
288
     1
289
     0
340
D
371
    -1
372
    -1
1001
ACAD_DSTYLE_DIMARC_LENGTH_SYMBOL
1070
   379
1070
     1
  0
DIMSTYLE
105
184B
330
17
100
AcDbSymbolTableRecord
100
AcDbDimStyleTableRecord
  2
AM_ANSI$7
 70
     0
  4
mm
 41
0.1
 42
0.05
 43
0.5
 44
0.1
 47
0.1
 48
0.1
 78
     7
 79
     2
140
0.24
141
0.0
146
0.71
147
0.06
176
   256
177
   256
178
     2
274
     4
284
     7
340
D
371
    -1
372
    -1
1001
ACAD_DSTYLE_DIMARC_LENGTH_SYMBOL
1070
   379
1070
     1
  0
DIMSTYLE
105
184C
330
17
100
AcDbSymbolTableRecord
100
AcDbDimStyleTableRecord
  2
AM_ANSI$SF
 70
     0
  4
mm
 41
0.1
 42
0.05
 43
0.5
 44
0.1
 47
0.1
 48
0.1
 75
     1
 76
     1
 78
     7
 79
     2
140
0.12
141
0.0
146
0.71
147
0.06
176
   256
177
   256
178
     2
274
     4
284
     7
340
D
371
    -1
372
    -1
1001
ACAD_DSTYLE_DIMARC_LENGTH_SYMBOL
1070
   379
1070
     1
  0
DIMSTYLE
105
1851
330
17
100
AcDbSymbolTableRecord
100
AcDbDimStyleTableRecord
  2
AM_ANSI$SH
 70
     0
  4
mm
 41
0.1
 42
0.05
 43
0.5
 44
0.1
 47
0.1
 48
0.1
 75
     1
 76
     1
 78
     7
 79
     2
140
0.12
141
0.0
146
0.71
147
0.06
173
     1
176
   256
177
   256
178
     2
274
     4
284
     7
340
D
343
184D
371
    -1
372
    -1
1001
ACAD_DSTYLE_DIMARC_LENGTH_SYMBOL
1070
   379
1070
     1
  0
DIMSTYLE
105
1854
330
17
100
AcDbSymbolTableRecord
100
AcDbDimStyleTableRecord
  2
AM_BSI
 70
     0
  4
mm
 41
0.1574803149606299
 42
0.05
 43
0.5
 44
0.1
 47
0.1
 48
0.1
 73
     0
 74
     0
 77
     1
 78
     7
 79
     2
140
0.12
141
0.0
146
0.71
147
0.06
172
     1
176
   256
177
   256
178
     2
274
     4
283
     0
284
     7
340
D
371
    -1
372
    -1
1001
ACAD_DSTYLE_DIMARC_LENGTH_SYMBOL
1070
   379
1070
     1
  0
DIMSTYLE
105
1855
330
17
100
AcDbSymbolTableRecord
100
AcDbDimStyleTableRecord
  2
AM_BSI$3
 70
     0
  4
mm
 41
0.1574803149606299
 42
0.05
 43
0.5
 44
0.1
 47
0.1
 48
0.1
 73
     0
 77
     1
 78
     7
 79
     2
140
0.12
141
0.0
146
0.71
147
0.06
176
   256
177
   256
178
     2
274
     4
283
     0
284
     7
288
     1
289
     0
340
D
371
    -1
372
    -1
1001
ACAD_DSTYLE_DIMARC_LENGTH_SYMBOL
1070
   379
1070
     1
  0
DIMSTYLE
105
1856
330
17
100
AcDbSymbolTableRecord
100
AcDbDimStyleTableRecord
  2
AM_BSI$4
 70
     0
  4
mm
 41
0.1574803149606299
 42
0.05
 43
0.5
 44
0.1
 47
0.1
 48
0.1
 73
     0
 77
     1
 78
     7
 79
     2
140
0.12
141
0.0
146
0.71
147
0.06
176
   256
177
   256
178
     2
274
     4
283
     0
284
     7
288
     1
289
     0
340
D
371
    -1
372
    -1
1001
ACAD_DSTYLE_DIMARC_LENGTH_SYMBOL
1070
   379
1070
     1
  0
DIMSTYLE
105
1857
330
17
100
AcDbSymbolTableRecord
100
AcDbDimStyleTableRecord
  2
AM_BSI$6
 70
     0
  4
mm
 41
0.1574803149606299
 42
0.05
 43
0.5
 44
0.1
 47
0.1
 48
0.1
 73
     0
 74
     0
 78
     7
 79
     2
140
0.12
141
0.0
146
0.71
147
0.06
172
     1
176
   256
177
   256
178
     2
274
     4
283
     0
284
     7
340
D
371
    -1
372
    -1
1001
ACAD_DSTYLE_DIMARC_LENGTH_SYMBOL
1070
   379
1070
     1
  0
DIMSTYLE
105
1858
330
17
100
AcDbSymbolTableRecord
100
AcDbDimStyleTableRecord
  2
AM_BSI$7
 70
     0
  4
mm
 41
0.1
 42
0.05
 43
0.5
 44
0.1
 47
0.1
 48
0.1
 73
     0
 74
     0
 77
     1
 78
     7
 79
     2
140
0.24
141
0.0
146
0.71
147
0.06
172
     1
176
   256
177
   256
178
     2
274
     4
283
     0
284
     7
340
D
371
    -1
372
    -1
1001
ACAD_DSTYLE_DIMARC_LENGTH_SYMBOL
1070
   379
1070
     1
  0
DIMSTYLE
105
1859
330
17
100
AcDbSymbolTableRecord
100
AcDbDimStyleTableRecord
  2
AM_BSI$SF
 70
     0
  4
mm
 41
0.1574803149606299
 42
0.05
 43
0.5
 44
0.1
 47
0.1
 48
0.1
 73
     0
 74
     0
 75
     1
 76
     1
 77
     1
 78
     7
 79
     2
140
0.12
141
0.0
146
0.71
147
0.06
172
     1
176
   256
177
   256
178
     2
274
     4
283
     0
284
     7
340
D
371
    -1
372
    -1
1001
ACAD_DSTYLE_DIMARC_LENGTH_SYMBOL
1070
   379
1070
     1
  0
DIMSTYLE
105
185A
330
17
100
AcDbSymbolTableRecord
100
AcDbDimStyleTableRecord
  2
AM_BSI$SH
 70
     0
  4
mm
 41
0.1574803149606299
 42
0.05
 43
0.5
 44
0.1
 47
0.1
 48
0.1
 73
     0
 74
     0
 75
     1
 76
     1
 77
     1
 78
     7
 79
     2
140
0.12
141
0.0
144
2.0
146
0.71
147
0.06
172
     1
173
     1
176
   256
177
   256
178
     2
274
     4
283
     0
284
     7
340
D
343
184D
371
    -1
372
    -1
1001
ACAD_DSTYLE_DIMARC_LENGTH_SYMBOL
1070
   379
1070
     1
  0
DIMSTYLE
105
185D
330
17
100
AcDbSymbolTableRecord
100
AcDbDimStyleTableRecord
  2
AM_DIN
 70
     0
  4
mm
 41
0.1
 42
0.05
 43
0.5
 44
0.1
 47
0.1
 48
0.1
 73
     0
 74
     0
 77
     1
 78
     7
 79
     2
140
0.12
141
0.0
146
0.71
147
0.06
172
     1
176
   256
177
   256
178
     2
274
     4
283
     0
284
     7
340
D
371
    -1
372
    -1
1001
ACAD_DSTYLE_DIMJOGGED_JOGANGLE_SYMBOL
1070
   384
1040
1.570796326794896
  0
DIMSTYLE
105
185E
330
17
100
AcDbSymbolTableRecord
100
AcDbDimStyleTableRecord
  2
AM_DIN$3
 70
     0
  4
mm
 41
0.1
 42
0.05
 43
0.5
 44
0.1
 47
0.1
 48
0.1
 73
     0
 77
     1
 78
     7
 79
     2
140
0.12
141
0.0
146
0.71
147
0.06
176
   256
177
   256
178
     2
274
     4
283
     0
284
     7
288
     1
289
     0
340
D
371
    -1
372
    -1
1001
ACAD_DSTYLE_DIMJOGGED_JOGANGLE_SYMBOL
1070
   384
1040
1.570796326794896
  0
DIMSTYLE
105
185F
330
17
100
AcDbSymbolTableRecord
100
AcDbDimStyleTableRecord
  2
AM_DIN$4
 70
     0
  4
mm
 41
0.1
 42
0.05
 43
0.5
 44
0.1
 47
0.1
 48
0.1
 73
     0
 77
     1
 78
     7
 79
     2
140
0.12
141
0.0
146
0.71
147
0.06
176
   256
177
   256
178
     2
274
     4
283
     0
284
     7
288
     1
289
     0
340
D
371
    -1
372
    -1
1001
ACAD_DSTYLE_DIMJOGGED_JOGANGLE_SYMBOL
1070
   384
1040
1.570796326794896
  0
DIMSTYLE
105
1860
330
17
100
AcDbSymbolTableRecord
100
AcDbDimStyleTableRecord
  2
AM_DIN$6
 70
     0
  4
mm
 41
0.1
 42
0.05
 43
0.5
 44
0.1
 47
0.1
 48
0.1
 73
     0
 74
     0
 78
     7
 79
     2
140
0.12
141
0.0
146
0.71
147
0.06
172
     1
176
   256
177
   256
178
     2
274
     4
283
     0
284
     7
340
D
371
    -1
372
    -1
1001
ACAD_DSTYLE_DIMJOGGED_JOGANGLE_SYMBOL
1070
   384
1040
1.570796326794896
  0
DIMSTYLE
105
1861
330
17
100
AcDbSymbolTableRecord
100
AcDbDimStyleTableRecord
  2
AM_DIN$7
 70
     0
  4
mm
 41
0.1
 42
0.05
 43
0.5
 44
0.1
 47
0.1
 48
0.1
 73
     0
 74
     0
 77
     1
 78
     7
 79
     2
140
0.24
141
0.0
146
0.71
147
0.06
172
     1
176
   256
177
   256
178
     2
274
     4
283
     0
284
     7
340
D
371
    -1
372
    -1
1001
ACAD_DSTYLE_DIMJOGGED_JOGANGLE_SYMBOL
1070
   384
1040
1.570796326794896
  0
DIMSTYLE
105
1862
330
17
100
AcDbSymbolTableRecord
100
AcDbDimStyleTableRecord
  2
AM_DIN$SF
 70
     0
  4
mm
 41
0.1
 42
0.05
 43
0.5
 44
0.1
 47
0.1
 48
0.1
 73
     0
 74
     0
 75
     1
 76
     1
 77
     1
 78
     7
 79
     2
140
0.12
141
0.0
146
0.71
147
0.06
172
     1
176
   256
177
   256
178
     2
274
     4
283
     0
284
     7
340
D
371
    -1
372
    -1
1001
ACAD_DSTYLE_DIMJOGGED_JOGANGLE_SYMBOL
1070
   384
1040
1.570796326794896
  0
DIMSTYLE
105
1863
330
17
100
AcDbSymbolTableRecord
100
AcDbDimStyleTableRecord
  2
AM_DIN$SH
 70
     0
  4
mm
 41
0.1
 42
0.05
 43
0.5
 44
0.1
 47
0.1
 48
0.1
 73
     0
 74
     0
 75
     1
 76
     1
 77
     1
 78
     7
 79
     2
140
0.12
141
0.0
144
2.0
146
0.71
147
0.06
172
     1
173
     1
176
   256
177
   256
178
     2
274
     4
283
     0
284
     7
340
D
343
184D
371
    -1
372
    -1
1001
ACAD_DSTYLE_DIMJOGGED_JOGANGLE_SYMBOL
1070
   384
1040
1.570796326794896
  0
DIMSTYLE
105
1866
330
17
100
AcDbSymbolTableRecord
100
AcDbDimStyleTableRecord
  2
AM_ISO
 70
     0
  4
mm
 41
0.1
 42
0.05
 43
0.5
 44
0.1
 47
0.1
 48
0.1
 73
     0
 74
     0
 77
     1
 78
     7
 79
     2
140
0.12
141
0.0
146
0.71
147
0.06
172
     1
176
   256
177
   256
178
     2
274
     4
283
     0
284
     7
340
D
371
    -1
372
    -1
1001
ACAD_DSTYLE_DIMARC_LENGTH_SYMBOL
1070
   379
1070
     1
  0
DIMSTYLE
105
1867
330
17
100
AcDbSymbolTableRecord
100
AcDbDimStyleTableRecord
  2
AM_ISO$3
 70
     0
  4
mm
 41
0.1
 42
0.05
 43
0.5
 44
0.1
 47
0.1
 48
0.1
 73
     0
 77
     1
 78
     7
 79
     2
140
0.12
141
0.0
146
0.71
147
0.06
176
   256
177
   256
178
     2
274
     4
283
     0
284
     7
288
     1
289
     0
340
D
371
    -1
372
    -1
1001
ACAD_DSTYLE_DIMARC_LENGTH_SYMBOL
1070
   379
1070
     1
  0
DIMSTYLE
105
1868
330
17
100
AcDbSymbolTableRecord
100
AcDbDimStyleTableRecord
  2
AM_ISO$4
 70
     0
  4
mm
 41
0.1
 42
0.05
 43
0.5
 44
0.1
 47
0.1
 48
0.1
 73
     0
 77
     1
 78
     7
 79
     2
140
0.12
141
0.0
146
0.71
147
0.06
176
   256
177
   256
178
     2
274
     4
283
     0
284
     7
288
     1
289
     0
340
D
371
    -1
372
    -1
1001
ACAD_DSTYLE_DIMARC_LENGTH_SYMBOL
1070
   379
1070
     1
  0
DIMSTYLE
105
1869
330
17
100
AcDbSymbolTableRecord
100
AcDbDimStyleTableRecord
  2
AM_ISO$6
 70
     0
  4
mm
 41
0.1
 42
0.05
 43
0.5
 44
0.1
 47
0.1
 48
0.1
 73
     0
 74
     0
 78
     7
 79
     2
140
0.12
141
0.0
146
0.71
147
0.06
172
     1
176
   256
177
   256
178
     2
274
     4
283
     0
284
     7
340
D
371
    -1
372
    -1
1001
ACAD_DSTYLE_DIMARC_LENGTH_SYMBOL
1070
   379
1070
     1
  0
DIMSTYLE
105
186A
330
17
100
AcDbSymbolTableRecord
100
AcDbDimStyleTableRecord
  2
AM_ISO$7
 70
     0
  4
mm
 41
0.1
 42
0.05
 43
0.5
 44
0.1
 47
0.1
 48
0.1
 73
     0
 74
     0
 77
     1
 78
     7
 79
     2
140
0.24
141
0.0
146
0.71
147
0.06
172
     1
176
   256
177
   256
178
     2
274
     4
283
     0
284
     7
340
D
371
    -1
372
    -1
1001
ACAD_DSTYLE_DIMARC_LENGTH_SYMBOL
1070
   379
1070
     1
  0
DIMSTYLE
105
186B
330
17
100
AcDbSymbolTableRecord
100
AcDbDimStyleTableRecord
  2
AM_ISO$SF
 70
     0
  4
mm
 41
0.1
 42
0.05
 43
0.5
 44
0.1
 47
0.1
 48
0.1
 73
     0
 74
     0
 75
     1
 76
     1
 77
     1
 78
     7
 79
     2
140
0.12
141
0.0
146
0.71
147
0.06
172
     1
176
   256
177
   256
178
     2
274
     4
283
     0
284
     7
340
D
371
    -1
372
    -1
1001
ACAD_DSTYLE_DIMARC_LENGTH_SYMBOL
1070
   379
1070
     1
  0
DIMSTYLE
105
186C
330
17
100
AcDbSymbolTableRecord
100
AcDbDimStyleTableRecord
  2
AM_ISO$SH
 70
     0
  4
mm
 41
0.1
 42
0.05
 43
0.5
 44
0.1
 47
0.1
 48
0.1
 73
     0
 74
     0
 75
     1
 76
     1
 77
     1
 78
     7
 79
     2
140
0.12
141
0.0
144
2.0
146
0.71
147
0.06
172
     1
173
     1
176
   256
177
   256
178
     2
274
     4
283
     0
284
     7
340
D
343
184D
371
    -1
372
    -1
1001
ACAD_DSTYLE_DIMARC_LENGTH_SYMBOL
1070
   379
1070
     1
  0
DIMSTYLE
105
186F
330
17
100
AcDbSymbolTableRecord
100
AcDbDimStyleTableRecord
  2
AM_JIS
 70
     0
  4
mm
 41
0.1
 42
0.05
 43
0.5
 44
0.1
 47
0.1
 48
0.1
 73
     0
 74
     0
 77
     3
 78
     7
 79
     2
140
0.12
141
0.0
146
0.71
147
0.06
172
     1
176
   256
177
   256
178
     2
274
     4
283
     0
284
     7
340
D
341
1870
342
1870
343
1870
344
1870
371
    -1
372
    -1
1001
ACAD_DSTYLE_DIMARC_LENGTH_SYMBOL
1070
   379
1070
     1
  0
DIMSTYLE
105
1876
330
17
100
AcDbSymbolTableRecord
100
AcDbDimStyleTableRecord
  2
AM_JIS$3
 70
     0
  4
mm
 41
0.1
 42
0.05
 43
0.5
 44
0.1
 47
0.1
 48
0.1
 73
     0
 77
     3
 78
     7
 79
     2
140
0.12
141
0.0
146
0.71
147
0.06
176
   256
177
   256
178
     2
274
     4
283
     0
284
     7
288
     1
289
     0
340
D
341
1870
342
1870
343
1870
344
1870
371
    -1
372
    -1
1001
ACAD_DSTYLE_DIMARC_LENGTH_SYMBOL
1070
   379
1070
     1
  0
DIMSTYLE
105
1877
330
17
100
AcDbSymbolTableRecord
100
AcDbDimStyleTableRecord
  2
AM_JIS$4
 70
     0
  4
mm
 41
0.1
 42
0.05
 43
0.5
 44
0.1
 47
0.1
 48
0.1
 73
     0
 77
     3
 78
     7
 79
     2
140
0.12
141
0.0
146
0.71
147
0.06
176
   256
177
   256
178
     2
274
     4
283
     0
284
     7
288
     1
289
     0
340
D
341
1870
342
1870
343
1870
344
1870
371
    -1
372
    -1
1001
ACAD_DSTYLE_DIMARC_LENGTH_SYMBOL
1070
   379
1070
     1
  0
DIMSTYLE
105
1878
330
17
100
AcDbSymbolTableRecord
100
AcDbDimStyleTableRecord
  2
AM_JIS$6
 70
     0
  4
mm
 41
0.1
 42
0.05
 43
0.5
 44
0.1
 47
0.1
 48
0.1
 73
     0
 74
     0
 78
     7
 79
     2
140
0.12
141
0.0
146
0.71
147
0.06
172
     1
176
   256
177
   256
178
     2
274
     4
283
     0
284
     7
340
D
341
1870
342
1870
343
1870
344
1870
371
    -1
372
    -1
1001
ACAD_DSTYLE_DIMARC_LENGTH_SYMBOL
1070
   379
1070
     1
  0
DIMSTYLE
105
1879
330
17
100
AcDbSymbolTableRecord
100
AcDbDimStyleTableRecord
  2
AM_JIS$7
 70
     0
  4
mm
 41
0.1
 42
0.05
 43
0.5
 44
0.1
 47
0.1
 48
0.1
 73
     0
 74
     0
 77
     3
 78
     7
 79
     2
140
0.24
141
0.0
146
0.71
147
0.06
172
     1
176
   256
177
   256
178
     2
274
     4
283
     0
284
     7
340
D
341
1870
342
1870
343
1870
344
1870
371
    -1
372
    -1
1001
ACAD_DSTYLE_DIMARC_LENGTH_SYMBOL
1070
   379
1070
     1
  0
DIMSTYLE
105
187A
330
17
100
AcDbSymbolTableRecord
100
AcDbDimStyleTableRecord
  2
AM_JIS$SF
 70
     0
  4
mm
 41
0.1
 42
0.05
 43
0.5
 44
0.1
 47
0.1
 48
0.1
 73
     0
 74
     0
 75
     1
 76
     1
 77
     3
 78
     7
 79
     2
140
0.12
141
0.0
146
0.71
147
0.06
172
     1
176
   256
177
   256
178
     2
274
     4
283
     0
284
     7
340
D
341
1870
342
1870
343
1870
344
1870
371
    -1
372
    -1
1001
ACAD_DSTYLE_DIMARC_LENGTH_SYMBOL
1070
   379
1070
     1
  0
DIMSTYLE
105
187B
330
17
100
AcDbSymbolTableRecord
100
AcDbDimStyleTableRecord
  2
AM_JIS$SH
 70
     0
  4
mm
 41
0.1
 42
0.05
 43
0.5
 44
0.1
 47
0.1
 48
0.1
 73
     0
 74
     0
 75
     1
 76
     1
 77
     3
 78
     7
 79
     2
140
0.12
141
0.0
144
2.0
146
0.71
147
0.06
172
     1
173
     1
176
   256
177
   256
178
     2
274
     4
283
     0
284
     7
340
D
341
1870
342
1870
343
184D
344
1870
371
    -1
372
    -1
1001
ACAD_DSTYLE_DIMARC_LENGTH_SYMBOL
1070
   379
1070
     1
  0
ENDTAB
  0
TABLE
  2
BLOCK_RECORD
  5
1
330
0
100
AcDbSymbolTable
 70
     5
  0
BLOCK_RECORD
  5
2
102
{ACAD_XDICTIONARY
360
3
102
}
330
1
100
AcDbSymbolTableRecord
100
AcDbBlockTableRecord
  2
*MODEL_SPACE
340
3B2
  0
BLOCK_RECORD
  5
8
330
1
100
AcDbSymbolTableRecord
100
AcDbBlockTableRecord
  2
*PAPER_SPACE
340
3B3
  0
BLOCK_RECORD
  5
581
330
1
100
AcDbSymbolTableRecord
100
AcDbBlockTableRecord
  2
*X0
340
0
102
{BLKREFS
331
B99
102
}
  0
BLOCK_RECORD
  5
184D
330
1
100
AcDbSymbolTableRecord
100
AcDbBlockTableRecord
  2
GENAXEH
340
0
  0
BLOCK_RECORD
  5
1870
330
1
100
AcDbSymbolTableRecord
100
AcDbBlockTableRecord
  2
_Open30
340
0
  0
ENDTAB
  0
ENDSEC
  0
SECTION
  2
BLOCKS
  0
BLOCK
  5
4
330
2
100
AcDbEntity
  8
0
100
AcDbBlockBegin
  2
*MODEL_SPACE
 70
     0
 10
0.0
 20
0.0
 30
0.0
  3
*MODEL_SPACE
  1

  0
ENDBLK
  5
7
330
2
100
AcDbEntity
  8
0
100
AcDbBlockEnd
  0
BLOCK
  5
9
330
8
100
AcDbEntity
 67
     1
  8
0
100
AcDbBlockBegin
  2
*PAPER_SPACE
 70
     0
 10
0.0
 20
0.0
 30
0.0
  3
*PAPER_SPACE
  1

  0
ENDBLK
  5
A
330
8
100
AcDbEntity
 67
     1
  8
0
100
AcDbBlockEnd
  0
BLOCK
  5
7C0
330
581
100
AcDbEntity
  8
0
 48
10.0
100
AcDbBlockBegin
  2
*X0
 70
     1
 10
0.0
 20
0.0
 30
0.0
  3
*X0
  1

  0
LINE
  5
582
330
581
100
AcDbEntity
  8
0
 62
     0
 48
10.0
100
AcDbLine
 10
98.35104377251177
 20
163.0876864723724
 30
0.0
 11
98.44746191396474
 21
163.2025931388402
 31
0.0
  0
LINE
  5
583
330
581
100
AcDbEntity
  8
0
 62
     0
 48
10.0
100
AcDbLine
 10
99.50806146994754
 20
164.4665664699865
 30
0.0
 11
99.60447961140053
 21
164.5814731364543
 31
0.0
  0
LINE
  5
584
330
581
100
AcDbEntity
  8
0
 62
     0
 48
10.0
100
AcDbLine
 10
100.6650791673833
 20
165.8454464676007
 30
0.0
 11
100.72699073486
 21
165.9192298005642
 31
0.0
  0
LINE
  5
585
330
581
100
AcDbEntity
  8
0
 62
     0
 48
10.0
100
AcDbLine
 10
100.72699073486
 20
165.9192298005642
 30
0.0
 11
100.7614973088363
 21
165.9603531340685
 31
0.0
  0
LINE
  5
586
330
581
100
AcDbEntity
  8
0
 62
     0
 48
10.0
100
AcDbLine
 10
101.822096864819
 20
167.2243264652148
 30
0.0
 11
101.918515006272
 21
167.3392331316827
 31
0.0
  0
LINE
  5
587
330
581
100
AcDbEntity
  8
0
 62
     0
 48
10.0
100
AcDbLine
 10
102.9791145622548
 20
168.603206462829
 30
0.0
 11
103.0755327037078
 21
168.7181131292968
 31
0.0
  0
LINE
  5
588
330
581
100
AcDbEntity
  8
0
 62
     0
 48
10.0
100
AcDbLine
 10
98.62854644027748
 20
161.583302204793
 30
0.0
 11
98.72496458173047
 21
161.6982088712608
 31
0.0
  0
LINE
  5
589
330
581
100
AcDbEntity
  8
0
 62
     0
 48
10.0
100
AcDbLine
 10
99.78556413771327
 20
162.9621822024071
 30
0.0
 11
99.88198227916626
 21
163.077088868875
 31
0.0
  0
LINE
  5
58A
330
581
100
AcDbEntity
  8
0
 62
     0
 48
10.0
100
AcDbLine
 10
100.942581835149
 20
164.3410622000213
 30
0.0
 11
101.038999976602
 21
164.4559688664891
 31
0.0
  0
LINE
  5
58B
330
581
100
AcDbEntity
  8
0
 62
     0
 48
10.0
100
AcDbLine
 10
102.0995995325848
 20
165.7199421976355
 30
0.0
 11
102.1960176740378
 21
165.8348488641033
 31
0.0
  0
LINE
  5
58C
330
581
100
AcDbEntity
  8
0
 62
     0
 48
10.0
100
AcDbLine
 10
103.2566172300205
 20
167.0988221952496
 30
0.0
 11
103.3530353714736
 21
167.2137288617174
 31
0.0
  0
LINE
  5
58D
330
581
100
AcDbEntity
  8
0
 62
     0
 48
10.0
100
AcDbLine
 10
100.063066805479
 20
161.4577979348278
 30
0.0
 11
100.159484946932
 21
161.5727046012956
 31
0.0
  0
LINE
  5
58E
330
581
100
AcDbEntity
  8
0
 62
     0
 48
10.0
100
AcDbLine
 10
101.2200845029147
 20
162.836677932442
 30
0.0
 11
101.3165026443677
 21
162.9515845989098
 31
0.0
  0
LINE
  5
58F
330
581
100
AcDbEntity
  8
0
 62
     0
 48
10.0
100
AcDbLine
 10
102.3771022003505
 20
164.2155579300561
 30
0.0
 11
102.4735203418035
 21
164.3304645965239
 31
0.0
  0
LINE
  5
590
330
581
100
AcDbEntity
  8
0
 62
     0
 48
10.0
100
AcDbLine
 10
101.5436325231569
 20
161.3871683790986
 30
0.0
 11
101.5940053121335
 21
161.4472003313305
 31
0.0
  0
LINE
  5
591
330
581
100
AcDbEntity
  8
0
 62
     0
 48
10.0
100
AcDbLine
 10
102.6546048681163
 20
162.7111736624768
 30
0.0
 11
102.7510230095692
 21
162.8260803289446
 31
0.0
  0
LINE
  5
592
330
581
100
AcDbEntity
  8
0
 62
     0
 48
10.0
100
AcDbLine
 10
98.07354110474603
 20
164.5920707399517
 30
0.0
 11
98.16995924619902
 21
164.7069774064195
 31
0.0
  0
LINE
  5
593
330
581
100
AcDbEntity
  8
0
 62
     0
 48
10.0
100
AcDbLine
 10
99.2305588021818
 20
165.9709507375658
 30
0.0
 11
99.32697694363479
 21
166.0858574040337
 31
0.0
  0
LINE
  5
594
330
581
100
AcDbEntity
  8
0
 62
     0
 48
10.0
100
AcDbLine
 10
100.3875764996176
 20
167.34983073518
 30
0.0
 11
100.4839946410705
 21
167.4647374016478
 31
0.0
  0
LINE
  5
595
330
581
100
AcDbEntity
  8
0
 62
     0
 48
10.0
100
AcDbLine
 10
101.5445941970533
 20
168.7287107327942
 30
0.0
 11
101.6410123385063
 21
168.843617399262
 31
0.0
  0
LINE
  5
596
330
581
100
AcDbEntity
  8
0
 62
     0
 48
10.0
100
AcDbLine
 10
102.7016118944891
 20
170.1075907304083
 30
0.0
 11
102.7980300359421
 21
170.2224973968762
 31
0.0
  0
LINE
  5
597
330
581
100
AcDbEntity
  8
0
 62
     0
 48
10.0
100
AcDbLine
 10
98.95305613441607
 20
167.4753350051452
 30
0.0
 11
99.04947427586904
 21
167.5902416716131
 31
0.0
  0
LINE
  5
598
330
581
100
AcDbEntity
  8
0
 62
     0
 48
10.0
100
AcDbLine
 10
100.1100738318518
 20
168.8542150027594
 30
0.0
 11
100.2064919733048
 21
168.9691216692272
 31
0.0
  0
LINE
  5
599
330
581
100
AcDbEntity
  8
0
 62
     0
 48
10.0
100
AcDbLine
 10
101.2670915292876
 20
170.2330950003736
 30
0.0
 11
101.3635096707406
 21
170.3480016668414
 31
0.0
  0
LINE
  5
59A
330
581
100
AcDbEntity
  8
0
 62
     0
 48
10.0
100
AcDbLine
 10
102.4241092267234
 20
171.6119749979877
 30
0.0
 11
102.5205273681764
 21
171.7268816644555
 31
0.0
  0
LINE
  5
59B
330
581
100
AcDbEntity
  8
0
 62
     0
 48
10.0
100
AcDbLine
 10
98.67555346665033
 20
168.9797192727245
 30
0.0
 11
98.77197160810332
 21
169.0946259391924
 31
0.0
  0
LINE
  5
59C
330
581
100
AcDbEntity
  8
0
 62
     0
 48
10.0
100
AcDbLine
 10
99.8325711640861
 20
170.3585992703387
 30
0.0
 11
99.92898930553909
 21
170.4735059368065
 31
0.0
  0
LINE
  5
59D
330
581
100
AcDbEntity
  8
0
 62
     0
 48
10.0
100
AcDbLine
 10
100.9895888615218
 20
171.7374792679529
 30
0.0
 11
101.0860070029748
 21
171.8523859344207
 31
0.0
  0
LINE
  5
59E
330
581
100
AcDbEntity
  8
0
 62
     0
 48
10.0
100
AcDbLine
 10
102.1466065589576
 20
173.116359265567
 30
0.0
 11
102.2430247004106
 21
173.2312659320349
 31
0.0
  0
LINE
  5
59F
330
581
100
AcDbEntity
  8
0
 62
     0
 48
10.0
100
AcDbLine
 10
98.43297771752247
 20
170.5257278210688
 30
0.0
 11
98.49446894033755
 21
170.5990102067717
 31
0.0
  0
LINE
  5
5A0
330
581
100
AcDbEntity
  8
0
 62
     0
 48
10.0
100
AcDbLine
 10
99.55506849632035
 20
171.862983537918
 30
0.0
 11
99.65148663777334
 21
171.9778902043859
 31
0.0
  0
LINE
  5
5A1
330
581
100
AcDbEntity
  8
0
 62
     0
 48
10.0
100
AcDbLine
 10
100.7120861937561
 20
173.2418635355322
 30
0.0
 11
100.72699073486
 21
173.2596260759387
 31
0.0
  0
LINE
  5
5A2
330
581
100
AcDbEntity
  8
0
 62
     0
 48
10.0
100
AcDbLine
 10
100.72699073486
 20
173.2596260759388
 30
0.0
 11
100.8085043352091
 21
173.3567702020001
 31
0.0
  0
LINE
  5
5A3
330
581
100
AcDbEntity
  8
0
 62
     0
 48
10.0
100
AcDbLine
 10
99.2775658285546
 20
173.3673678054974
 30
0.0
 11
99.29418048256046
 21
173.3871683790986
 31
0.0
  0
LINE
  5
5A4
330
581
100
AcDbEntity
  8
0
 62
     0
 48
10.0
100
AcDbLine
 10
98.9530562033004
 20
167.4753350213931
 30
0.0
 11
99.07259956707141
 21
167.4648763322633
 31
0.0
  0
LINE
  5
5A5
330
581
100
AcDbEntity
  8
0
 62
     0
 48
10.0
100
AcDbLine
 10
100.3875765685525
 20
167.3498307518364
 30
0.0
 11
100.5071199323235
 21
167.3393720627067
 31
0.0
  0
LINE
  5
5A6
330
581
100
AcDbEntity
  8
0
 62
     0
 48
10.0
100
AcDbLine
 10
101.8220969338046
 20
167.2243264822798
 30
0.0
 11
101.9416402975756
 21
167.2138677931501
 31
0.0
  0
LINE
  5
5A7
330
581
100
AcDbEntity
  8
0
 62
     0
 48
10.0
100
AcDbLine
 10
103.2566172990567
 20
167.0988222127232
 30
0.0
 11
103.3741750844858
 21
167.0885372391889
 31
0.0
  0
LINE
  5
5A8
330
581
100
AcDbEntity
  8
0
 62
     0
 48
10.0
100
AcDbLine
 10
98.67555353607443
 20
168.9797192887931
 30
0.0
 11
98.79509689984544
 21
168.9692605996634
 31
0.0
  0
LINE
  5
5A9
330
581
100
AcDbEntity
  8
0
 62
     0
 48
10.0
100
AcDbLine
 10
100.1100739013265
 20
168.8542150192365
 30
0.0
 11
100.2296172650975
 21
168.8437563301067
 31
0.0
  0
LINE
  5
5AA
330
581
100
AcDbEntity
  8
0
 62
     0
 48
10.0
100
AcDbLine
 10
101.5445942665786
 20
168.7287107496798
 30
0.0
 11
101.6641376303496
 21
168.7182520605501
 31
0.0
  0
LINE
  5
5AB
330
581
100
AcDbEntity
  8
0
 62
     0
 48
10.0
100
AcDbLine
 10
102.9791146318307
 20
168.6032064801232
 30
0.0
 11
103.0986579956017
 21
168.5927477909935
 31
0.0
  0
LINE
  5
5AC
330
581
100
AcDbEntity
  8
0
 62
     0
 48
10.0
100
AcDbLine
 10
98.42842775252039
 20
170.4814459232385
 30
0.0
 11
98.51759423261938
 21
170.4736448670634
 31
0.0
  0
LINE
  5
5AD
330
581
100
AcDbEntity
  8
0
 62
     0
 48
10.0
100
AcDbLine
 10
99.8325712341005
 20
170.3585992866365
 30
0.0
 11
99.95211459787151
 21
170.3481405975067
 31
0.0
  0
LINE
  5
5AE
330
581
100
AcDbEntity
  8
0
 62
     0
 48
10.0
100
AcDbLine
 10
101.2670915993526
 20
170.2330950170798
 30
0.0
 11
101.3866349631236
 21
170.2226363279501
 31
0.0
  0
LINE
  5
5AF
330
581
100
AcDbEntity
  8
0
 62
     0
 48
10.0
100
AcDbLine
 10
102.7016119646047
 20
170.1075907475232
 30
0.0
 11
102.8211553283757
 21
170.0971320583935
 31
0.0
  0
LINE
  5
5B0
330
581
100
AcDbEntity
  8
0
 62
     0
 48
10.0
100
AcDbLine
 10
99.55506856687449
 20
171.8629835540365
 30
0.0
 11
99.67461193064551
 21
171.8525248649068
 31
0.0
  0
LINE
  5
5B1
330
581
100
AcDbEntity
  8
0
 62
     0
 48
10.0
100
AcDbLine
 10
100.9895889321266
 20
171.7374792844799
 30
0.0
 11
101.1091322958976
 21
171.7270205953502
 31
0.0
  0
LINE
  5
5B2
330
581
100
AcDbEntity
  8
0
 62
     0
 48
10.0
100
AcDbLine
 10
102.4241092973787
 20
171.6119750149232
 30
0.0
 11
102.5436526611497
 21
171.6015163257935
 31
0.0
  0
LINE
  5
5B3
330
581
100
AcDbEntity
  8
0
 62
     0
 48
10.0
100
AcDbLine
 10
99.27756589964852
 20
173.3673678214365
 30
0.0
 11
99.39710926341954
 21
173.3569091323068
 31
0.0
  0
LINE
  5
5B4
330
581
100
AcDbEntity
  8
0
 62
     0
 48
10.0
100
AcDbLine
 10
100.7120862649006
 20
173.2418635518799
 30
0.0
 11
100.72699073486
 21
173.2405595797226
 31
0.0
  0
LINE
  5
5B5
330
581
100
AcDbEntity
  8
0
 62
     0
 48
10.0
100
AcDbLine
 10
100.72699073486
 20
173.2405595797225
 30
0.0
 11
100.8316296286716
 21
173.2314048627501
 31
0.0
  0
LINE
  5
5B6
330
581
100
AcDbEntity
  8
0
 62
     0
 48
10.0
100
AcDbLine
 10
102.1466066301527
 20
173.1163592823232
 30
0.0
 11
102.2661499939237
 21
173.1059005931935
 31
0.0
  0
LINE
  5
5B7
330
581
100
AcDbEntity
  8
0
 62
     0
 48
10.0
100
AcDbLine
 10
99.2305588705264
 20
165.970950753993
 30
0.0
 11
99.35010223429742
 21
165.9604920648633
 31
0.0
  0
LINE
  5
5B8
330
581
100
AcDbEntity
  8
0
 62
     0
 48
10.0
100
AcDbLine
 10
100.6650792357785
 20
165.8454464844364
 30
0.0
 11
100.72699073486
 21
165.8400299301249
 31
0.0
  0
LINE
  5
5B9
330
581
100
AcDbEntity
  8
0
 62
     0
 48
10.0
100
AcDbLine
 10
100.72699073486
 20
165.8400299301248
 30
0.0
 11
100.7846225995495
 21
165.8349877953067
 31
0.0
  0
LINE
  5
5BA
330
581
100
AcDbEntity
  8
0
 62
     0
 48
10.0
100
AcDbLine
 10
102.0995996010306
 20
165.7199422148798
 30
0.0
 11
102.2191429648016
 21
165.7094835257501
 31
0.0
  0
LINE
  5
5BB
330
581
100
AcDbEntity
  8
0
 62
     0
 48
10.0
100
AcDbLine
 10
98.0735411725003
 20
164.5920707561496
 30
0.0
 11
98.19308453627131
 21
164.5816120670199
 31
0.0
  0
LINE
  5
5BC
330
581
100
AcDbEntity
  8
0
 62
     0
 48
10.0
100
AcDbLine
 10
99.50806153775243
 20
164.466566486593
 30
0.0
 11
99.62760490152344
 21
164.4561077974633
 31
0.0
  0
LINE
  5
5BD
330
581
100
AcDbEntity
  8
0
 62
     0
 48
10.0
100
AcDbLine
 10
100.9425819030045
 20
164.3410622170364
 30
0.0
 11
101.0621252667755
 21
164.3306035279066
 31
0.0
  0
LINE
  5
5BE
330
581
100
AcDbEntity
  8
0
 62
     0
 48
10.0
100
AcDbLine
 10
102.3771022682566
 20
164.2155579474797
 30
0.0
 11
102.4966456320276
 21
164.20509925835
 31
0.0
  0
LINE
  5
5BF
330
581
100
AcDbEntity
  8
0
 62
     0
 48
10.0
100
AcDbLine
 10
98.35104383972627
 20
163.0876864887496
 30
0.0
 11
98.47058720349728
 21
163.0772277996199
 31
0.0
  0
LINE
  5
5C0
330
581
100
AcDbEntity
  8
0
 62
     0
 48
10.0
100
AcDbLine
 10
99.7855642049784
 20
162.962182219193
 30
0.0
 11
99.90510756874941
 21
162.9517235300633
 31
0.0
  0
LINE
  5
5C1
330
581
100
AcDbEntity
  8
0
 62
     0
 48
10.0
100
AcDbLine
 10
101.2200845702305
 20
162.8366779496364
 30
0.0
 11
101.3396279340015
 21
162.8262192605067
 31
0.0
  0
LINE
  5
5C2
330
581
100
AcDbEntity
  8
0
 62
     0
 48
10.0
100
AcDbLine
 10
102.6546049354826
 20
162.7111736800798
 30
0.0
 11
102.7741482992536
 21
162.70071499095
 31
0.0
  0
LINE
  5
5C3
330
581
100
AcDbEntity
  8
0
 62
     0
 48
10.0
100
AcDbLine
 10
98.62854650695226
 20
161.5833022213496
 30
0.0
 11
98.74808987072327
 21
161.5728435322199
 31
0.0
  0
LINE
  5
5C4
330
581
100
AcDbEntity
  8
0
 62
     0
 48
10.0
100
AcDbLine
 10
100.0630668722044
 20
161.457797951793
 30
0.0
 11
100.1826102359754
 21
161.4473392626633
 31
0.0
  0
LINE
  5
5C5
330
581
100
AcDbEntity
  8
0
 62
     0
 48
10.0
100
AcDbLine
 10
101.6051892029216
 20
161.3871683790987
 30
0.0
 11
101.5941304023094
 21
161.4471200855588
 31
0.0
  0
LINE
  5
5C6
330
581
100
AcDbEntity
  8
0
 62
     0
 48
10.0
100
AcDbLine
 10
101.3397540336111
 20
162.82613919635
 30
0.0
 11
101.3166289099096
 21
162.9515045661246
 31
0.0
  0
LINE
  5
5C7
330
581
100
AcDbEntity
  8
0
 62
     0
 48
10.0
100
AcDbLine
 10
101.0622525412112
 20
164.3305236769157
 30
0.0
 11
101.0391274175097
 21
164.4558890466903
 31
0.0
  0
LINE
  5
5C8
330
581
100
AcDbEntity
  8
0
 62
     0
 48
10.0
100
AcDbLine
 10
100.7847510488114
 20
165.8349081574815
 30
0.0
 11
100.7616259251099
 21
165.9602735272561
 31
0.0
  0
LINE
  5
5C9
330
581
100
AcDbEntity
  8
0
 62
     0
 48
10.0
100
AcDbLine
 10
100.5072495564115
 20
167.3392926380472
 30
0.0
 11
100.48412443271
 21
167.4646580078218
 31
0.0
  0
LINE
  5
5CA
330
581
100
AcDbEntity
  8
0
 62
     0
 48
10.0
100
AcDbLine
 10
100.2297480640117
 20
168.843677118613
 30
0.0
 11
100.2066229403101
 21
168.9690424883876
 31
0.0
  0
LINE
  5
5CB
330
581
100
AcDbEntity
  8
0
 62
     0
 48
10.0
100
AcDbLine
 10
99.95224657161184
 20
170.3480615991787
 30
0.0
 11
99.92912144791032
 21
170.4734269689534
 31
0.0
  0
LINE
  5
5CC
330
581
100
AcDbEntity
  8
0
 62
     0
 48
10.0
100
AcDbLine
 10
99.67474507921197
 20
171.8524460797445
 30
0.0
 11
99.65161995551046
 21
171.9778114495191
 31
0.0
  0
LINE
  5
5CD
330
581
100
AcDbEntity
  8
0
 62
     0
 48
10.0
100
AcDbLine
 10
99.3972435868121
 20
173.3568305603102
 30
0.0
 11
99.39164741768202
 21
173.3871683790986
 31
0.0
  0
LINE
  5
5CE
330
581
100
AcDbEntity
  8
0
 62
     0
 48
10.0
100
AcDbLine
 10
102.774274289439
 20
162.7006337999061
 30
0.0
 11
102.7511491657375
 21
162.8259991696807
 31
0.0
  0
LINE
  5
5CF
330
581
100
AcDbEntity
  8
0
 62
     0
 48
10.0
100
AcDbLine
 10
102.4967727970392
 20
164.2050182804718
 30
0.0
 11
102.4736476733376
 21
164.3303836502465
 31
0.0
  0
LINE
  5
5D0
330
581
100
AcDbEntity
  8
0
 62
     0
 48
10.0
100
AcDbLine
 10
102.2192713046393
 20
165.7094027610376
 30
0.0
 11
102.1961461809378
 21
165.8347681308122
 31
0.0
  0
LINE
  5
5D1
330
581
100
AcDbEntity
  8
0
 62
     0
 48
10.0
100
AcDbLine
 10
101.9417698122394
 20
167.2137872416034
 30
0.0
 11
101.9186446885379
 21
167.339152611378
 31
0.0
  0
LINE
  5
5D2
330
581
100
AcDbEntity
  8
0
 62
     0
 48
10.0
100
AcDbLine
 10
101.6642683198396
 20
168.7181717221691
 30
0.0
 11
101.6411431961381
 21
168.8435370919437
 31
0.0
  0
LINE
  5
5D3
330
581
100
AcDbEntity
  8
0
 62
     0
 48
10.0
100
AcDbLine
 10
101.3867668274397
 20
170.2225562027349
 30
0.0
 11
101.3636417037382
 21
170.3479215725095
 31
0.0
  0
LINE
  5
5D4
330
581
100
AcDbEntity
  8
0
 62
     0
 48
10.0
100
AcDbLine
 10
101.1092653350398
 20
171.7269406833006
 30
0.0
 11
101.0861402113383
 21
171.8523060530753
 31
0.0
  0
LINE
  5
5D5
330
581
100
AcDbEntity
  8
0
 62
     0
 48
10.0
100
AcDbLine
 10
100.83176384264
 20
173.2313251638664
 30
0.0
 11
100.8086387189385
 21
173.356690533641
 31
0.0
  0
LINE
  5
5D6
330
581
100
AcDbEntity
  8
0
 62
     0
 48
10.0
100
AcDbLine
 10
103.3715748000164
 20
167.1138441440004
 30
0.0
 11
103.3531649443659
 21
167.2136472149342
 31
0.0
  0
LINE
  5
5D7
330
581
100
AcDbEntity
  8
0
 62
     0
 48
10.0
100
AcDbLine
 10
103.0987885756675
 20
168.5926663257253
 30
0.0
 11
103.075663451966
 21
168.7180316954999
 31
0.0
  0
LINE
  5
5D8
330
581
100
AcDbEntity
  8
0
 62
     0
 48
10.0
100
AcDbLine
 10
102.8212870832676
 20
170.097050806291
 30
0.0
 11
102.7981619595661
 21
170.2224161760657
 31
0.0
  0
LINE
  5
5D9
330
581
100
AcDbEntity
  8
0
 62
     0
 48
10.0
100
AcDbLine
 10
102.5437855908678
 20
171.6014352868568
 30
0.0
 11
102.5206604671663
 21
171.7268006566314
 31
0.0
  0
LINE
  5
5DA
330
581
100
AcDbEntity
  8
0
 62
     0
 48
10.0
100
AcDbLine
 10
102.2662840984679
 20
173.1058197674226
 30
0.0
 11
102.2431589747664
 21
173.2311851371972
 31
0.0
  0
LINE
  5
5DB
330
581
100
AcDbEntity
  8
0
 62
     0
 48
10.0
100
AcDbLine
 10
100.182735270183
 20
161.447260112228
 30
0.0
 11
100.1596101464815
 21
161.5726254820027
 31
0.0
  0
LINE
  5
5DC
330
581
100
AcDbEntity
  8
0
 62
     0
 48
10.0
100
AcDbLine
 10
99.90523377778322
 20
162.9516445927938
 30
0.0
 11
99.8821086540817
 21
163.0770099625684
 31
0.0
  0
LINE
  5
5DD
330
581
100
AcDbEntity
  8
0
 62
     0
 48
10.0
100
AcDbLine
 10
99.62773228538335
 20
164.4560290733595
 30
0.0
 11
99.60460716168183
 21
164.5813944431342
 31
0.0
  0
LINE
  5
5DE
330
581
100
AcDbEntity
  8
0
 62
     0
 48
10.0
100
AcDbLine
 10
99.35023079298348
 20
165.9604135539253
 30
0.0
 11
99.32710566928196
 21
166.0857789236999
 31
0.0
  0
LINE
  5
5DF
330
581
100
AcDbEntity
  8
0
 62
     0
 48
10.0
100
AcDbLine
 10
99.07272930058361
 20
167.4647980344911
 30
0.0
 11
99.0496041768821
 21
167.5901634042657
 31
0.0
  0
LINE
  5
5E0
330
581
100
AcDbEntity
  8
0
 62
     0
 48
10.0
100
AcDbLine
 10
98.79522780818376
 20
168.9691825150568
 30
0.0
 11
98.77210268448223
 21
169.0945478848315
 31
0.0
  0
LINE
  5
5E1
330
581
100
AcDbEntity
  8
0
 62
     0
 48
10.0
100
AcDbLine
 10
98.5177263157839
 20
170.4735669956226
 30
0.0
 11
98.49460119208238
 21
170.5989323653972
 31
0.0
  0
LINE
  5
5E2
330
581
100
AcDbEntity
  8
0
 62
     0
 48
10.0
100
AcDbLine
 10
98.74821501435516
 20
161.5727655086719
 30
0.0
 11
98.72508989065364
 21
161.6981308784465
 31
0.0
  0
LINE
  5
5E3
330
581
100
AcDbEntity
  8
0
 62
     0
 48
10.0
100
AcDbLine
 10
98.47071352195529
 20
163.0771499892376
 30
0.0
 11
98.44758839825377
 21
163.2025153590123
 31
0.0
  0
LINE
  5
5E4
330
581
100
AcDbEntity
  8
0
 62
     0
 48
10.0
100
AcDbLine
 10
98.19321202955542
 20
164.5815344698034
 30
0.0
 11
98.17008690585391
 21
164.706899839578
 31
0.0
  0
LINE
  5
5E5
330
581
100
AcDbEntity
  8
0
 62
     0
 48
10.0
100
AcDbLine
 10
98.31834089388953
 20
164.2038888008513
 30
0.0
 11
98.47411788475195
 21
164.366241900969
 31
0.0
  0
LINE
  5
5E6
330
581
100
AcDbEntity
  8
0
 62
     0
 48
10.0
100
AcDbLine
 10
100.1876647842385
 20
166.1521260022645
 30
0.0
 11
100.3434417751009
 21
166.3144791023823
 31
0.0
  0
LINE
  5
5E7
330
581
100
AcDbEntity
  8
0
 62
     0
 48
10.0
100
AcDbLine
 10
102.0569886745876
 20
168.1003632036778
 30
0.0
 11
102.21276566545
 21
168.2627163037955
 31
0.0
  0
LINE
  5
5E8
330
581
100
AcDbEntity
  8
0
 62
     0
 48
10.0
100
AcDbLine
 10
98.58349910079187
 20
161.92461357078
 30
0.0
 11
98.73927609165429
 21
162.0869666708978
 31
0.0
  0
LINE
  5
5E9
330
581
100
AcDbEntity
  8
0
 62
     0
 48
10.0
100
AcDbLine
 10
100.4528229911409
 20
163.8728507721933
 30
0.0
 11
100.6085999820033
 21
164.035203872311
 31
0.0
  0
LINE
  5
5EA
330
581
100
AcDbEntity
  8
0
 62
     0
 48
10.0
100
AcDbLine
 10
102.3221468814899
 20
165.8210879736065
 30
0.0
 11
102.4779238723523
 21
165.9834410737242
 31
0.0
  0
LINE
  5
5EB
330
581
100
AcDbEntity
  8
0
 62
     0
 48
10.0
100
AcDbLine
 10
100.7179811980431
 20
161.593575542122
 30
0.0
 11
100.72699073486
 21
161.6029654155863
 31
0.0
  0
LINE
  5
5EC
330
581
100
AcDbEntity
  8
0
 62
     0
 48
10.0
100
AcDbLine
 10
100.72699073486
 20
161.6029654155863
 30
0.0
 11
100.8737581889055
 21
161.7559286422397
 31
0.0
  0
LINE
  5
5ED
330
581
100
AcDbEntity
  8
0
 62
     0
 48
10.0
100
AcDbLine
 10
102.5873050883921
 20
163.5418127435352
 30
0.0
 11
102.7430820792545
 21
163.704165843653
 31
0.0
  0
LINE
  5
5EE
330
581
100
AcDbEntity
  8
0
 62
     0
 48
10.0
100
AcDbLine
 10
102.9720459900694
 20
161.3871683790986
 30
0.0
 11
103.0082402861568
 21
161.4248906135817
 31
0.0
  0
LINE
  5
5EF
330
581
100
AcDbEntity
  8
0
 62
     0
 48
10.0
100
AcDbLine
 10
98.05318268698727
 20
166.4831640309226
 30
0.0
 11
98.2089596778497
 21
166.6455171310403
 31
0.0
  0
LINE
  5
5F0
330
581
100
AcDbEntity
  8
0
 62
     0
 48
10.0
100
AcDbLine
 10
99.92250657733627
 20
168.4314012323358
 30
0.0
 11
100.0782835681987
 21
168.5937543324536
 31
0.0
  0
LINE
  5
5F1
330
581
100
AcDbEntity
  8
0
 62
     0
 48
10.0
100
AcDbLine
 10
101.7918304676853
 20
170.379638433749
 30
0.0
 11
101.9476074585477
 21
170.5419915338668
 31
0.0
  0
LINE
  5
5F2
330
581
100
AcDbEntity
  8
0
 62
     0
 48
10.0
100
AcDbLine
 10
99.65734837043399
 20
170.710676462407
 30
0.0
 11
99.81312536129641
 21
170.8730295625248
 31
0.0
  0
LINE
  5
5F3
330
581
100
AcDbEntity
  8
0
 62
     0
 48
10.0
100
AcDbLine
 10
101.526672260783
 20
172.6589136638203
 30
0.0
 11
101.6824492516454
 21
172.8212667639381
 31
0.0
  0
LINE
  5
5F4
330
581
100
AcDbEntity
  8
0
 62
     0
 48
10.0
100
AcDbLine
 10
99.39219016353174
 20
172.9899516924783
 30
0.0
 11
99.54796715439416
 21
173.1523047925961
 31
0.0
  0
LINE
  5
5F5
330
581
100
AcDbEntity
  8
0
 62
     0
 48
10.0
100
AcDbLine
 10
100.8959813784587
 20
161.5659029505792
 30
0.0
 11
100.8738850095259
 21
161.7558425703687
 31
0.0
  0
LINE
  5
5F6
330
581
100
AcDbEntity
  8
0
 62
     0
 48
10.0
100
AcDbLine
 10
100.6308249900908
 20
163.8451780543033
 30
0.0
 11
100.6087286211579
 21
164.0351176740927
 31
0.0
  0
LINE
  5
5F7
330
581
100
AcDbEntity
  8
0
 62
     0
 48
10.0
100
AcDbLine
 10
100.3656686017229
 20
166.1244531580273
 30
0.0
 11
100.3435722327901
 21
166.3143927778168
 31
0.0
  0
LINE
  5
5F8
330
581
100
AcDbEntity
  8
0
 62
     0
 48
10.0
100
AcDbLine
 10
100.100512213355
 20
168.4037282617514
 30
0.0
 11
100.0784158444222
 21
168.5936678815408
 31
0.0
  0
LINE
  5
5F9
330
581
100
AcDbEntity
  8
0
 62
     0
 48
10.0
100
AcDbLine
 10
99.83535582498717
 20
170.6830033654754
 30
0.0
 11
99.81325945605433
 21
170.8729429852648
 31
0.0
  0
LINE
  5
5FA
330
581
100
AcDbEntity
  8
0
 62
     0
 48
10.0
100
AcDbLine
 10
99.57019943661929
 20
172.9622784691994
 30
0.0
 11
99.54810306768644
 21
173.1522180889889
 31
0.0
  0
LINE
  5
5FB
330
581
100
AcDbEntity
  8
0
 62
     0
 48
10.0
100
AcDbLine
 10
103.0127450059934
 20
161.3871683790986
 30
0.0
 11
103.0083668089911
 21
161.4248032084455
 31
0.0
  0
LINE
  5
5FC
330
581
100
AcDbEntity
  8
0
 62
     0
 48
10.0
100
AcDbLine
 10
102.7653067895561
 20
163.5141386923801
 30
0.0
 11
102.7432104206233
 21
163.7040783121696
 31
0.0
  0
LINE
  5
5FD
330
581
100
AcDbEntity
  8
0
 62
     0
 48
10.0
100
AcDbLine
 10
102.5001504011882
 20
165.7934137961041
 30
0.0
 11
102.4780540322554
 21
165.9833534158936
 31
0.0
  0
LINE
  5
5FE
330
581
100
AcDbEntity
  8
0
 62
     0
 48
10.0
100
AcDbLine
 10
102.2349940128203
 20
168.0726888998282
 30
0.0
 11
102.2128976438875
 21
168.2626285196176
 31
0.0
  0
LINE
  5
5FF
330
581
100
AcDbEntity
  8
0
 62
     0
 48
10.0
100
AcDbLine
 10
101.9698376244525
 20
170.3519640035523
 30
0.0
 11
101.9477412555196
 21
170.5419036233417
 31
0.0
  0
LINE
  5
600
330
581
100
AcDbEntity
  8
0
 62
     0
 48
10.0
100
AcDbLine
 10
101.7046812360846
 20
172.6312391072763
 30
0.0
 11
101.6825848671517
 21
172.8211787270657
 31
0.0
  0
LINE
  5
601
330
581
100
AcDbEntity
  8
0
 62
     0
 48
10.0
100
AcDbLine
 10
98.76149957899343
 20
161.8969423125023
 30
0.0
 11
98.73940321006058
 21
162.0868819322918
 31
0.0
  0
LINE
  5
602
330
581
100
AcDbEntity
  8
0
 62
     0
 48
10.0
100
AcDbLine
 10
98.49634319062554
 20
164.1762174162264
 30
0.0
 11
98.47424682169268
 21
164.3661570360158
 31
0.0
  0
LINE
  5
603
330
581
100
AcDbEntity
  8
0
 62
     0
 48
10.0
100
AcDbLine
 10
98.23118680225766
 20
166.4554925199504
 30
0.0
 11
98.20909043332481
 21
166.6454321397399
 31
0.0
  0
LINE
  5
604
330
581
100
AcDbEntity
  8
0
 62
     0
 48
10.0
100
AcDbLine
 10
98.05318267745223
 20
166.4831640511927
 30
0.0
 11
98.23105618556622
 21
166.455577548855
 31
0.0
  0
LINE
  5
605
330
581
100
AcDbEntity
  8
0
 62
     0
 48
10.0
100
AcDbLine
 10
100.18766477482
 20
166.1521260231411
 30
0.0
 11
100.365538282934
 21
166.1245395208034
 31
0.0
  0
LINE
  5
606
330
581
100
AcDbEntity
  8
0
 62
     0
 48
10.0
100
AcDbLine
 10
102.3221468721878
 20
165.8210879950895
 30
0.0
 11
102.5000203803018
 21
165.7935014927518
 31
0.0
  0
LINE
  5
607
330
581
100
AcDbEntity
  8
0
 62
     0
 48
10.0
100
AcDbLine
 10
99.92250656771947
 20
168.4314012530433
 30
0.0
 11
100.1003800758334
 21
168.4038147507057
 31
0.0
  0
LINE
  5
608
330
581
100
AcDbEntity
  8
0
 62
     0
 48
10.0
100
AcDbLine
 10
102.0569886650873
 20
168.1003632249917
 30
0.0
 11
102.2348621732013
 21
168.0727767226541
 31
0.0
  0
LINE
  5
609
330
581
100
AcDbEntity
  8
0
 62
     0
 48
10.0
100
AcDbLine
 10
99.65734836061891
 20
170.7106764829456
 30
0.0
 11
99.8352218687329
 21
170.683089980608
 31
0.0
  0
LINE
  5
60A
330
581
100
AcDbEntity
  8
0
 62
     0
 48
10.0
100
AcDbLine
 10
101.7918304579867
 20
170.379638454894
 30
0.0
 11
101.9697039661007
 21
170.3520519525563
 31
0.0
  0
LINE
  5
60B
330
581
100
AcDbEntity
  8
0
 62
     0
 48
10.0
100
AcDbLine
 10
99.39219015351834
 20
172.9899517128478
 30
0.0
 11
99.57006366163234
 21
172.9623652105102
 31
0.0
  0
LINE
  5
60C
330
581
100
AcDbEntity
  8
0
 62
     0
 48
10.0
100
AcDbLine
 10
101.5266722508861
 20
172.6589136847962
 30
0.0
 11
101.7045457590001
 21
172.6313271824586
 31
0.0
  0
LINE
  5
60D
330
581
100
AcDbEntity
  8
0
 62
     0
 48
10.0
100
AcDbLine
 10
98.31834088455275
 20
164.2038888212904
 30
0.0
 11
98.49621439266675
 21
164.1763023189528
 31
0.0
  0
LINE
  5
60E
330
581
100
AcDbEntity
  8
0
 62
     0
 48
10.0
100
AcDbLine
 10
100.4528229819205
 20
163.8728507932388
 30
0.0
 11
100.6306964900345
 21
163.8452642909012
 31
0.0
  0
LINE
  5
60F
330
581
100
AcDbEntity
  8
0
 62
     0
 48
10.0
100
AcDbLine
 10
102.5873050792884
 20
163.5418127651872
 30
0.0
 11
102.7651785874023
 21
163.5142262628496
 31
0.0
  0
LINE
  5
610
330
581
100
AcDbEntity
  8
0
 62
     0
 48
10.0
100
AcDbLine
 10
98.58349909165331
 20
161.9246135913882
 30
0.0
 11
98.76137259976729
 21
161.8970270890505
 31
0.0
  0
LINE
  5
611
330
581
100
AcDbEntity
  8
0
 62
     0
 48
10.0
100
AcDbLine
 10
100.7179811890211
 20
161.5935755633365
 30
0.0
 11
100.72699073486
 21
161.5921782678091
 31
0.0
  0
LINE
  5
612
330
581
100
AcDbEntity
  8
0
 62
     0
 48
10.0
100
AcDbLine
 10
100.72699073486
 20
161.592178267809
 30
0.0
 11
100.8958546971351
 21
161.5659890609989
 31
0.0
  0
LINE
  5
613
330
581
100
AcDbEntity
  8
0
 62
     0
 48
10.0
100
AcDbLine
 10
98.08259527241595
 20
165.4871161079986
 30
0.0
 11
98.22263233639054
 21
165.5408713004304
 31
0.0
  0
LINE
  5
614
330
581
100
AcDbEntity
  8
0
 62
     0
 48
10.0
100
AcDbLine
 10
99.7630400401109
 20
166.1321784171802
 30
0.0
 11
99.90307710408549
 21
166.185933609612
 31
0.0
  0
LINE
  5
615
330
581
100
AcDbEntity
  8
0
 62
     0
 48
10.0
100
AcDbLine
 10
101.4434848078058
 20
166.7772407263617
 30
0.0
 11
101.5835218717804
 21
166.8309959187935
 31
0.0
  0
LINE
  5
616
330
581
100
AcDbEntity
  8
0
 62
     0
 48
10.0
100
AcDbLine
 10
103.1239295755008
 20
167.4223030355433
 30
0.0
 11
103.2639666394754
 21
167.476058227975
 31
0.0
  0
LINE
  5
617
330
581
100
AcDbEntity
  8
0
 62
     0
 48
10.0
100
AcDbLine
 10
99.27640937665287
 20
164.681878326668
 30
0.0
 11
99.41644644062744
 21
164.7356335190998
 31
0.0
  0
LINE
  5
618
330
581
100
AcDbEntity
  8
0
 62
     0
 48
10.0
100
AcDbLine
 10
100.9568541443478
 20
165.3269406358495
 30
0.0
 11
101.0968912083224
 21
165.3806958282813
 31
0.0
  0
LINE
  5
619
330
581
100
AcDbEntity
  8
0
 62
     0
 48
10.0
100
AcDbLine
 10
102.6372989120428
 20
165.972002945031
 30
0.0
 11
102.7773359760173
 21
166.0257581374628
 31
0.0
  0
LINE
  5
61A
330
581
100
AcDbEntity
  8
0
 62
     0
 48
10.0
100
AcDbLine
 10
98.78977871319484
 20
163.2315782361558
 30
0.0
 11
98.92981577716941
 21
163.2853334285876
 31
0.0
  0
LINE
  5
61B
330
581
100
AcDbEntity
  8
0
 62
     0
 48
10.0
100
AcDbLine
 10
100.4702234808898
 20
163.8766405453373
 30
0.0
 11
100.6102605448643
 21
163.9303957377691
 31
0.0
  0
LINE
  5
61C
330
581
100
AcDbEntity
  8
0
 62
     0
 48
10.0
100
AcDbLine
 10
102.1506682485847
 20
164.5217028545189
 30
0.0
 11
102.2907053125593
 21
164.5754580469507
 31
0.0
  0
LINE
  5
61D
330
581
100
AcDbEntity
  8
0
 62
     0
 48
10.0
100
AcDbLine
 10
98.3031480497368
 20
161.7812781456436
 30
0.0
 11
98.44318511371136
 21
161.8350333380753
 31
0.0
  0
LINE
  5
61E
330
581
100
AcDbEntity
  8
0
 62
     0
 48
10.0
100
AcDbLine
 10
99.98359281743175
 20
162.4263404548251
 30
0.0
 11
100.1236298814063
 21
162.4800956472569
 31
0.0
  0
LINE
  5
61F
330
581
100
AcDbEntity
  8
0
 62
     0
 48
10.0
100
AcDbLine
 10
101.6640375851267
 20
163.0714027640067
 30
0.0
 11
101.8040746491013
 21
163.1251579564384
 31
0.0
  0
LINE
  5
620
330
581
100
AcDbEntity
  8
0
 62
     0
 48
10.0
100
AcDbLine
 10
103.3444823528216
 20
163.7164650731882
 30
0.0
 11
103.4845194167962
 21
163.77022026562
 31
0.0
  0
LINE
  5
621
330
581
100
AcDbEntity
  8
0
 62
     0
 48
10.0
100
AcDbLine
 10
101.1774069216687
 20
161.6211026734944
 30
0.0
 11
101.3174439856432
 21
161.6748578659262
 31
0.0
  0
LINE
  5
622
330
581
100
AcDbEntity
  8
0
 62
     0
 48
10.0
100
AcDbLine
 10
102.8578516893636
 20
162.266164982676
 30
0.0
 11
102.9978887533382
 21
162.3199201751077
 31
0.0
  0
LINE
  5
623
330
581
100
AcDbEntity
  8
0
 62
     0
 48
10.0
100
AcDbLine
 10
98.56922593587398
 20
166.9374161985109
 30
0.0
 11
98.70926299984855
 21
166.9911713909427
 31
0.0
  0
LINE
  5
624
330
581
100
AcDbEntity
  8
0
 62
     0
 48
10.0
100
AcDbLine
 10
100.2496707035689
 20
167.5824785076924
 30
0.0
 11
100.3897077675435
 21
167.6362337001242
 31
0.0
  0
LINE
  5
625
330
581
100
AcDbEntity
  8
0
 62
     0
 48
10.0
100
AcDbLine
 10
101.9301154712639
 20
168.227540816874
 30
0.0
 11
102.0701525352385
 21
168.2812960093057
 31
0.0
  0
LINE
  5
626
330
581
100
AcDbEntity
  8
0
 62
     0
 48
10.0
100
AcDbLine
 10
99.05585659933203
 20
168.3877162890231
 30
0.0
 11
99.19589366330662
 21
168.4414714814549
 31
0.0
  0
LINE
  5
627
330
581
100
AcDbEntity
  8
0
 62
     0
 48
10.0
100
AcDbLine
 10
100.736301367027
 20
169.0327785982046
 30
0.0
 11
100.8763384310015
 21
169.0865337906364
 31
0.0
  0
LINE
  5
628
330
581
100
AcDbEntity
  8
0
 62
     0
 48
10.0
100
AcDbLine
 10
102.4167461347219
 20
169.6778409073862
 30
0.0
 11
102.5567831986965
 21
169.731596099818
 31
0.0
  0
LINE
  5
629
330
581
100
AcDbEntity
  8
0
 62
     0
 48
10.0
100
AcDbLine
 10
99.54248726279006
 20
169.8380163795353
 30
0.0
 11
99.68252432676464
 21
169.8917715719671
 31
0.0
  0
LINE
  5
62A
330
581
100
AcDbEntity
  8
0
 62
     0
 48
10.0
100
AcDbLine
 10
101.222932030485
 20
170.4830786887168
 30
0.0
 11
101.3629690944596
 21
170.5368338811486
 31
0.0
  0
LINE
  5
62B
330
581
100
AcDbEntity
  8
0
 62
     0
 48
10.0
100
AcDbLine
 10
102.90337679818
 20
171.1281409978984
 30
0.0
 11
102.9569911398281
 21
171.1487216154192
 31
0.0
  0
LINE
  5
62C
330
581
100
AcDbEntity
  8
0
 62
     0
 48
10.0
100
AcDbLine
 10
98.4490110802127
 20
170.6817702803413
 30
0.0
 11
98.48871022252772
 21
170.6970093532978
 31
0.0
  0
LINE
  5
62D
330
581
100
AcDbEntity
  8
0
 62
     0
 48
10.0
100
AcDbLine
 10
100.0291179262481
 20
171.2883164700475
 30
0.0
 11
100.1691549902226
 21
171.3420716624793
 31
0.0
  0
LINE
  5
62E
330
581
100
AcDbEntity
  8
0
 62
     0
 48
10.0
100
AcDbLine
 10
101.7095626939431
 20
171.9333787792291
 30
0.0
 11
101.8495997579176
 21
171.9871339716609
 31
0.0
  0
LINE
  5
62F
330
581
100
AcDbEntity
  8
0
 62
     0
 48
10.0
100
AcDbLine
 10
98.83530382201117
 20
172.0935542513782
 30
0.0
 11
98.97534088598575
 21
172.14730944381
 31
0.0
  0
LINE
  5
630
330
581
100
AcDbEntity
  8
0
 62
     0
 48
10.0
100
AcDbLine
 10
100.5157485897061
 20
172.7386165605597
 30
0.0
 11
100.6557856536807
 21
172.7923717529915
 31
0.0
  0
LINE
  5
631
330
581
100
AcDbEntity
  8
0
 62
     0
 48
10.0
100
AcDbLine
 10
102.1961933574011
 20
173.3836788697413
 30
0.0
 11
102.205283840069
 21
173.3871683790986
 31
0.0
  0
LINE
  5
632
330
581
100
AcDbEntity
  8
0
 62
     0
 48
10.0
100
AcDbLine
 10
99.05585665719607
 20
168.3877162434308
 30
0.0
 11
99.15534116590269
 21
168.3206130950144
 31
0.0
  0
LINE
  5
633
330
581
100
AcDbEntity
  8
0
 62
     0
 48
10.0
100
AcDbLine
 10
100.2496707616753
 20
167.582478462433
 30
0.0
 11
100.3491552703819
 21
167.5153753140165
 31
0.0
  0
LINE
  5
634
330
581
100
AcDbEntity
  8
0
 62
     0
 48
10.0
100
AcDbLine
 10
101.4434848661546
 20
166.7772406814351
 30
0.0
 11
101.5429693748612
 21
166.7101375330186
 31
0.0
  0
LINE
  5
635
330
581
100
AcDbEntity
  8
0
 62
     0
 48
10.0
100
AcDbLine
 10
102.6372989706338
 20
165.9720029004373
 30
0.0
 11
102.7367834793404
 21
165.9048997520208
 31
0.0
  0
LINE
  5
636
330
581
100
AcDbEntity
  8
0
 62
     0
 48
10.0
100
AcDbLine
 10
98.43880677060223
 20
170.5824582646677
 30
0.0
 11
98.44815772526658
 21
170.576150966106
 31
0.0
  0
LINE
  5
637
330
581
100
AcDbEntity
  8
0
 62
     0
 48
10.0
100
AcDbLine
 10
99.54248732103922
 20
169.8380163335246
 30
0.0
 11
99.64197182974583
 21
169.7709131851081
 31
0.0
  0
LINE
  5
638
330
581
100
AcDbEntity
  8
0
 62
     0
 48
10.0
100
AcDbLine
 10
100.7363014255185
 20
169.0327785525267
 30
0.0
 11
100.8357859342251
 21
168.9656754041102
 31
0.0
  0
LINE
  5
639
330
581
100
AcDbEntity
  8
0
 62
     0
 48
10.0
100
AcDbLine
 10
101.9301155299977
 20
168.2275407715288
 30
0.0
 11
102.0296000387044
 21
168.1604376231123
 31
0.0
  0
LINE
  5
63A
330
581
100
AcDbEntity
  8
0
 62
     0
 48
10.0
100
AcDbLine
 10
103.123929634477
 20
167.4223029905309
 30
0.0
 11
103.2234141431836
 21
167.3551998421144
 31
0.0
  0
LINE
  5
63B
330
581
100
AcDbEntity
  8
0
 62
     0
 48
10.0
100
AcDbLine
 10
98.83530388040313
 20
172.0935542046161
 30
0.0
 11
98.93478838910974
 21
172.0264510561996
 31
0.0
  0
LINE
  5
63C
330
581
100
AcDbEntity
  8
0
 62
     0
 48
10.0
100
AcDbLine
 10
100.0291179848824
 20
171.2883164236183
 30
0.0
 11
100.128602493589
 21
171.2212132752018
 31
0.0
  0
LINE
  5
63D
330
581
100
AcDbEntity
  8
0
 62
     0
 48
10.0
100
AcDbLine
 10
101.2229320893617
 20
170.4830786426204
 30
0.0
 11
101.3224165980683
 21
170.415975494204
 31
0.0
  0
LINE
  5
63E
330
581
100
AcDbEntity
  8
0
 62
     0
 48
10.0
100
AcDbLine
 10
102.4167461938409
 20
169.6778408616225
 30
0.0
 11
102.5162307025475
 21
169.610737713206
 31
0.0
  0
LINE
  5
63F
330
581
100
AcDbEntity
  8
0
 62
     0
 48
10.0
100
AcDbLine
 10
100.5157486487255
 20
172.738616513712
 30
0.0
 11
100.6152331574321
 21
172.6715133652955
 31
0.0
  0
LINE
  5
640
330
581
100
AcDbEntity
  8
0
 62
     0
 48
10.0
100
AcDbLine
 10
101.7095627532048
 20
171.9333787327141
 30
0.0
 11
101.8090472619114
 21
171.8662755842976
 31
0.0
  0
LINE
  5
641
330
581
100
AcDbEntity
  8
0
 62
     0
 48
10.0
100
AcDbLine
 10
102.9033768576841
 20
171.1281409517163
 30
0.0
 11
102.9632557549114
 21
171.0877521255573
 31
0.0
  0
LINE
  5
642
330
581
100
AcDbEntity
  8
0
 62
     0
 48
10.0
100
AcDbLine
 10
102.196193417048
 20
173.3836788228078
 30
0.0
 11
102.2956779257546
 21
173.3165756743913
 31
0.0
  0
LINE
  5
643
330
581
100
AcDbEntity
  8
0
 62
     0
 48
10.0
100
AcDbLine
 10
98.56922599335291
 20
166.9374161533372
 30
0.0
 11
98.66871050205952
 21
166.8703130049207
 31
0.0
  0
LINE
  5
644
330
581
100
AcDbEntity
  8
0
 62
     0
 48
10.0
100
AcDbLine
 10
99.76304009783218
 20
166.1321783723393
 30
0.0
 11
99.86252460653879
 21
166.0650752239228
 31
0.0
  0
LINE
  5
645
330
581
100
AcDbEntity
  8
0
 62
     0
 48
10.0
100
AcDbLine
 10
100.9568542023114
 20
165.3269405913415
 30
0.0
 11
101.056338711018
 21
165.259837442925
 31
0.0
  0
LINE
  5
646
330
581
100
AcDbEntity
  8
0
 62
     0
 48
10.0
100
AcDbLine
 10
102.1506683067907
 20
164.5217028103436
 30
0.0
 11
102.2501528154973
 21
164.4545996619271
 31
0.0
  0
LINE
  5
647
330
581
100
AcDbEntity
  8
0
 62
     0
 48
10.0
100
AcDbLine
 10
103.3444824112699
 20
163.7164650293457
 30
0.0
 11
103.4439669199765
 21
163.6493618809292
 31
0.0
  0
LINE
  5
648
330
581
100
AcDbEntity
  8
0
 62
     0
 48
10.0
100
AcDbLine
 10
98.08259532950975
 20
165.4871160632434
 30
0.0
 11
98.18207983821636
 21
165.420012914827
 31
0.0
  0
LINE
  5
649
330
581
100
AcDbEntity
  8
0
 62
     0
 48
10.0
100
AcDbLine
 10
99.276409433989
 20
164.6818782822456
 30
0.0
 11
99.37589394269561
 21
164.6147751338291
 31
0.0
  0
LINE
  5
64A
330
581
100
AcDbEntity
  8
0
 62
     0
 48
10.0
100
AcDbLine
 10
100.4702235384682
 20
163.8766405012477
 30
0.0
 11
100.5697080471748
 21
163.8095373528312
 31
0.0
  0
LINE
  5
64B
330
581
100
AcDbEntity
  8
0
 62
     0
 48
10.0
100
AcDbLine
 10
101.6640376429475
 20
163.0714027202498
 30
0.0
 11
101.7635221516541
 21
163.0042995718333
 31
0.0
  0
LINE
  5
64C
330
581
100
AcDbEntity
  8
0
 62
     0
 48
10.0
100
AcDbLine
 10
102.8578517474268
 20
162.266164939252
 30
0.0
 11
102.9573362561334
 21
162.1990617908355
 31
0.0
  0
LINE
  5
64D
330
581
100
AcDbEntity
  8
0
 62
     0
 48
10.0
100
AcDbLine
 10
98.78977877014586
 20
163.2315781921519
 30
0.0
 11
98.88926327885247
 21
163.1644750437354
 31
0.0
  0
LINE
  5
64E
330
581
100
AcDbEntity
  8
0
 62
     0
 48
10.0
100
AcDbLine
 10
99.98359287462513
 20
162.426340411154
 30
0.0
 11
100.0830773833317
 21
162.3592372627375
 31
0.0
  0
LINE
  5
64F
330
581
100
AcDbEntity
  8
0
 62
     0
 48
10.0
100
AcDbLine
 10
101.1774069791044
 20
161.6211026301561
 30
0.0
 11
101.276891487811
 21
161.5539994817396
 31
0.0
  0
LINE
  5
650
330
581
100
AcDbEntity
  8
0
 62
     0
 48
10.0
100
AcDbLine
 10
98.3031481063027
 20
161.7812781020582
 30
0.0
 11
98.40263261500929
 21
161.7141749536417
 31
0.0
  0
LINE
  5
651
330
581
100
AcDbEntity
  8
0
 62
     0
 48
10.0
100
AcDbLine
 10
98.40275806286673
 20
161.714097873231
 30
0.0
 11
98.44331071125983
 21
161.8349561786686
 31
0.0
  0
LINE
  5
652
330
581
100
AcDbEntity
  8
0
 62
     0
 48
10.0
100
AcDbLine
 10
98.88938985758079
 20
163.1643975801966
 30
0.0
 11
98.92994250597389
 21
163.2852558856342
 31
0.0
  0
LINE
  5
653
330
581
100
AcDbEntity
  8
0
 62
     0
 48
10.0
100
AcDbLine
 10
99.37602165229485
 20
164.6146972871622
 30
0.0
 11
99.41657430068794
 21
164.7355555925998
 31
0.0
  0
LINE
  5
654
330
581
100
AcDbEntity
  8
0
 62
     0
 48
10.0
100
AcDbLine
 10
99.86265344700889
 20
166.0649969941279
 30
0.0
 11
99.903206095402
 21
166.1858552995655
 31
0.0
  0
LINE
  5
655
330
581
100
AcDbEntity
  8
0
 62
     0
 48
10.0
100
AcDbLine
 10
100.3492852417229
 20
167.5152967010935
 30
0.0
 11
100.389837890116
 21
167.6361550065311
 31
0.0
  0
LINE
  5
656
330
581
100
AcDbEntity
  8
0
 62
     0
 48
10.0
100
AcDbLine
 10
100.8359170364369
 20
168.9655964080593
 30
0.0
 11
100.8764696848301
 21
169.0864547134969
 31
0.0
  0
LINE
  5
657
330
581
100
AcDbEntity
  8
0
 62
     0
 48
10.0
100
AcDbLine
 10
101.322548831151
 20
170.4158961150249
 30
0.0
 11
101.3631014795441
 21
170.5367544204625
 31
0.0
  0
LINE
  5
658
330
581
100
AcDbEntity
  8
0
 62
     0
 48
10.0
100
AcDbLine
 10
101.8091806258651
 20
171.8661958219906
 30
0.0
 11
101.8497332742582
 21
171.9870541274281
 31
0.0
  0
LINE
  5
659
330
581
100
AcDbEntity
  8
0
 62
     0
 48
10.0
100
AcDbLine
 10
102.2958124205791
 20
173.3164955289562
 30
0.0
 11
102.3195259025147
 21
173.3871683790986
 31
0.0
  0
LINE
  5
65A
330
581
100
AcDbEntity
  8
0
 62
     0
 48
10.0
100
AcDbLine
 10
100.0832033200297
 20
162.3591588666509
 30
0.0
 11
100.1237559684228
 21
162.4800171720885
 31
0.0
  0
LINE
  5
65B
330
581
100
AcDbEntity
  8
0
 62
     0
 48
10.0
100
AcDbLine
 10
100.5698351147437
 20
163.8094585736165
 30
0.0
 11
100.6103877631368
 21
163.9303168790541
 31
0.0
  0
LINE
  5
65C
330
581
100
AcDbEntity
  8
0
 62
     0
 48
10.0
100
AcDbLine
 10
101.0564669094578
 20
165.2597582805822
 30
0.0
 11
101.0970195578509
 21
165.3806165860198
 31
0.0
  0
LINE
  5
65D
330
581
100
AcDbEntity
  8
0
 62
     0
 48
10.0
100
AcDbLine
 10
101.5430987041718
 20
166.7100579875478
 30
0.0
 11
101.5836513525649
 21
166.8309162929855
 31
0.0
  0
LINE
  5
65E
330
581
100
AcDbEntity
  8
0
 62
     0
 48
10.0
100
AcDbLine
 10
102.0297304988859
 20
168.1603576945135
 30
0.0
 11
102.070283147279
 21
168.2812159999511
 31
0.0
  0
LINE
  5
65F
330
581
100
AcDbEntity
  8
0
 62
     0
 48
10.0
100
AcDbLine
 10
102.5163622936
 20
169.6106574014791
 30
0.0
 11
102.5569149419931
 21
169.7315157069167
 31
0.0
  0
LINE
  5
660
330
581
100
AcDbEntity
  8
0
 62
     0
 48
10.0
100
AcDbLine
 10
101.2770167824786
 20
161.5539201531051
 30
0.0
 11
101.3175694308717
 21
161.6747784585427
 31
0.0
  0
LINE
  5
661
330
581
100
AcDbEntity
  8
0
 62
     0
 48
10.0
100
AcDbLine
 10
101.7636485771927
 20
163.0042198600708
 30
0.0
 11
101.8042012255857
 21
163.1250781655084
 31
0.0
  0
LINE
  5
662
330
581
100
AcDbEntity
  8
0
 62
     0
 48
10.0
100
AcDbLine
 10
102.2502803719067
 20
164.4545195670364
 30
0.0
 11
102.2908330202998
 21
164.575377872474
 31
0.0
  0
LINE
  5
663
330
581
100
AcDbEntity
  8
0
 62
     0
 48
10.0
100
AcDbLine
 10
102.7369121666208
 20
165.9048192740021
 30
0.0
 11
102.7774648150139
 21
166.0256775794396
 31
0.0
  0
LINE
  5
664
330
581
100
AcDbEntity
  8
0
 62
     0
 48
10.0
100
AcDbLine
 10
103.2235439613348
 20
167.3551189809677
 30
0.0
 11
103.2640966097279
 21
167.4759772864053
 31
0.0
  0
LINE
  5
665
330
581
100
AcDbEntity
  8
0
 62
     0
 48
10.0
100
AcDbLine
 10
102.9574620396416
 20
162.198981146525
 30
0.0
 11
102.9980146880347
 21
162.3198394519626
 31
0.0
  0
LINE
  5
666
330
581
100
AcDbEntity
  8
0
 62
     0
 48
10.0
100
AcDbLine
 10
103.4440938343556
 20
163.6492808534907
 30
0.0
 11
103.4846464827487
 21
163.7701391589283
 31
0.0
  0
LINE
  5
667
330
581
100
AcDbEntity
  8
0
 62
     0
 48
10.0
100
AcDbLine
 10
98.18220818984592
 20
165.419936000708
 30
0.0
 11
98.22276083823901
 21
165.5407943061456
 31
0.0
  0
LINE
  5
668
330
581
100
AcDbEntity
  8
0
 62
     0
 48
10.0
100
AcDbLine
 10
98.66883998455996
 20
166.8702357076737
 30
0.0
 11
98.70939263295307
 21
166.9910940131113
 31
0.0
  0
LINE
  5
669
330
581
100
AcDbEntity
  8
0
 62
     0
 48
10.0
100
AcDbLine
 10
99.15547177927402
 20
168.3205354146393
 30
0.0
 11
99.19602442766713
 21
168.4413937200769
 31
0.0
  0
LINE
  5
66A
330
581
100
AcDbEntity
  8
0
 62
     0
 48
10.0
100
AcDbLine
 10
99.64210357398808
 20
169.7708351216049
 30
0.0
 11
99.68265622238119
 21
169.8916934270425
 31
0.0
  0
LINE
  5
66B
330
581
100
AcDbEntity
  8
0
 62
     0
 48
10.0
100
AcDbLine
 10
100.1287353687021
 20
171.2211348285706
 30
0.0
 11
100.1692880170952
 21
171.3419931340082
 31
0.0
  0
LINE
  5
66C
330
581
100
AcDbEntity
  8
0
 62
     0
 48
10.0
100
AcDbLine
 10
100.6153671634162
 20
172.6714345355362
 30
0.0
 11
100.6559198118093
 21
172.7922928409738
 31
0.0
  0
LINE
  5
66D
330
581
100
AcDbEntity
  8
0
 62
     0
 48
10.0
100
AcDbLine
 10
98.44829011153915
 20
170.5760738351508
 30
0.0
 11
98.48884275993226
 21
170.6969321405884
 31
0.0
  0
LINE
  5
66E
330
581
100
AcDbEntity
  8
0
 62
     0
 48
10.0
100
AcDbLine
 10
98.93492190625321
 20
172.0263735421164
 30
0.0
 11
98.97547455464632
 21
172.147231847554
 31
0.0
  0
LINE
  5
66F
330
581
100
AcDbEntity
  8
0
 62
     0
 48
10.0
100
AcDbLine
 10
98.87955476242396
 20
165.8235396206003
 30
0.0
 11
98.87955476242396
 21
165.8235396206003
 31
0.0
  0
LINE
  5
670
330
581
100
AcDbEntity
  8
0
 62
     0
 48
10.0
100
AcDbLine
 10
99.94264823841421
 20
166.639279935472
 30
0.0
 11
99.94264823841421
 21
166.639279935472
 31
0.0
  0
LINE
  5
671
330
581
100
AcDbEntity
  8
0
 62
     0
 48
10.0
100
AcDbLine
 10
100.9938414143001
 20
167.4458888289086
 30
0.0
 11
100.9938414143001
 21
167.4458888289086
 31
0.0
  0
LINE
  5
672
330
581
100
AcDbEntity
  8
0
 62
     0
 48
10.0
100
AcDbLine
 10
102.0283741700398
 20
168.2397137323359
 30
0.0
 11
102.0283741700398
 21
168.2397137323359
 31
0.0
  0
LINE
  5
673
330
581
100
AcDbEntity
  8
0
 62
     0
 48
10.0
100
AcDbLine
 10
103.0914676460301
 20
169.0554540472076
 30
0.0
 11
103.0914676460301
 21
169.0554540472076
 31
0.0
  0
LINE
  5
674
330
581
100
AcDbEntity
  8
0
 62
     0
 48
10.0
100
AcDbLine
 10
98.90387447305849
 20
166.489327328263
 30
0.0
 11
98.90387447305849
 21
166.489327328263
 31
0.0
  0
LINE
  5
675
330
581
100
AcDbEntity
  8
0
 62
     0
 48
10.0
100
AcDbLine
 10
99.96696794904876
 20
167.3050676431346
 30
0.0
 11
99.96696794904876
 21
167.3050676431346
 31
0.0
  0
LINE
  5
676
330
581
100
AcDbEntity
  8
0
 62
     0
 48
10.0
100
AcDbLine
 10
101.0181611249346
 20
168.1116765365712
 30
0.0
 11
101.0181611249346
 21
168.1116765365712
 31
0.0
  0
LINE
  5
677
330
581
100
AcDbEntity
  8
0
 62
     0
 48
10.0
100
AcDbLine
 10
102.0526938806744
 20
168.9055014399986
 30
0.0
 11
102.0526938806744
 21
168.9055014399986
 31
0.0
  0
LINE
  5
678
330
581
100
AcDbEntity
  8
0
 62
     0
 48
10.0
100
AcDbLine
 10
98.92819418369311
 20
167.1551150359256
 30
0.0
 11
98.92819418369311
 21
167.1551150359256
 31
0.0
  0
LINE
  5
679
330
581
100
AcDbEntity
  8
0
 62
     0
 48
10.0
100
AcDbLine
 10
99.99128765968336
 20
167.9708553507972
 30
0.0
 11
99.99128765968336
 21
167.9708553507972
 31
0.0
  0
LINE
  5
67A
330
581
100
AcDbEntity
  8
0
 62
     0
 48
10.0
100
AcDbLine
 10
101.0424808355692
 20
168.7774642442338
 30
0.0
 11
101.0424808355692
 21
168.7774642442338
 31
0.0
  0
LINE
  5
67B
330
581
100
AcDbEntity
  8
0
 62
     0
 48
10.0
100
AcDbLine
 10
102.077013591309
 20
169.5712891476612
 30
0.0
 11
102.077013591309
 21
169.5712891476612
 31
0.0
  0
LINE
  5
67C
330
581
100
AcDbEntity
  8
0
 62
     0
 48
10.0
100
AcDbLine
 10
98.95251389432766
 20
167.8209027435882
 30
0.0
 11
98.95251389432766
 21
167.8209027435882
 31
0.0
  0
LINE
  5
67D
330
581
100
AcDbEntity
  8
0
 62
     0
 48
10.0
100
AcDbLine
 10
100.0156073703179
 20
168.6366430584599
 30
0.0
 11
100.0156073703179
 21
168.6366430584599
 31
0.0
  0
LINE
  5
67E
330
581
100
AcDbEntity
  8
0
 62
     0
 48
10.0
100
AcDbLine
 10
101.0668005462038
 20
169.4432519518964
 30
0.0
 11
101.0668005462038
 21
169.4432519518964
 31
0.0
  0
LINE
  5
67F
330
581
100
AcDbEntity
  8
0
 62
     0
 48
10.0
100
AcDbLine
 10
102.1013333019436
 20
170.2370768553238
 30
0.0
 11
102.1013333019436
 21
170.2370768553238
 31
0.0
  0
LINE
  5
680
330
581
100
AcDbEntity
  8
0
 62
     0
 48
10.0
100
AcDbLine
 10
98.97683360496225
 20
168.4866904512508
 30
0.0
 11
98.97683360496225
 21
168.4866904512508
 31
0.0
  0
LINE
  5
681
330
581
100
AcDbEntity
  8
0
 62
     0
 48
10.0
100
AcDbLine
 10
100.0399270809525
 20
169.3024307661225
 30
0.0
 11
100.0399270809525
 21
169.3024307661225
 31
0.0
  0
LINE
  5
682
330
581
100
AcDbEntity
  8
0
 62
     0
 48
10.0
100
AcDbLine
 10
101.0911202568384
 20
170.109039659559
 30
0.0
 11
101.0911202568384
 21
170.109039659559
 31
0.0
  0
LINE
  5
683
330
581
100
AcDbEntity
  8
0
 62
     0
 48
10.0
100
AcDbLine
 10
102.1256530125781
 20
170.9028645629864
 30
0.0
 11
102.1256530125781
 21
170.9028645629864
 31
0.0
  0
LINE
  5
684
330
581
100
AcDbEntity
  8
0
 62
     0
 48
10.0
100
AcDbLine
 10
99.00115331559684
 20
169.1524781589134
 30
0.0
 11
99.00115331559684
 21
169.1524781589134
 31
0.0
  0
LINE
  5
685
330
581
100
AcDbEntity
  8
0
 62
     0
 48
10.0
100
AcDbLine
 10
100.0642467915871
 20
169.9682184737851
 30
0.0
 11
100.0642467915871
 21
169.9682184737851
 31
0.0
  0
LINE
  5
686
330
581
100
AcDbEntity
  8
0
 62
     0
 48
10.0
100
AcDbLine
 10
101.115439967473
 20
170.7748273672217
 30
0.0
 11
101.115439967473
 21
170.7748273672217
 31
0.0
  0
LINE
  5
687
330
581
100
AcDbEntity
  8
0
 62
     0
 48
10.0
100
AcDbLine
 10
102.1499727232127
 20
171.5686522706491
 30
0.0
 11
102.1499727232127
 21
171.5686522706491
 31
0.0
  0
LINE
  5
688
330
581
100
AcDbEntity
  8
0
 62
     0
 48
10.0
100
AcDbLine
 10
99.0254730262314
 20
169.818265866576
 30
0.0
 11
99.0254730262314
 21
169.818265866576
 31
0.0
  0
LINE
  5
689
330
581
100
AcDbEntity
  8
0
 62
     0
 48
10.0
100
AcDbLine
 10
100.0885665022216
 20
170.6340061814477
 30
0.0
 11
100.0885665022216
 21
170.6340061814477
 31
0.0
  0
LINE
  5
68A
330
581
100
AcDbEntity
  8
0
 62
     0
 48
10.0
100
AcDbLine
 10
101.1397596781075
 20
171.4406150748843
 30
0.0
 11
101.1397596781075
 21
171.4406150748843
 31
0.0
  0
LINE
  5
68B
330
581
100
AcDbEntity
  8
0
 62
     0
 48
10.0
100
AcDbLine
 10
102.1742924338473
 20
172.2344399783117
 30
0.0
 11
102.1742924338473
 21
172.2344399783117
 31
0.0
  0
LINE
  5
68C
330
581
100
AcDbEntity
  8
0
 62
     0
 48
10.0
100
AcDbLine
 10
99.04979273686599
 20
170.4840535742387
 30
0.0
 11
99.04979273686599
 21
170.4840535742387
 31
0.0
  0
LINE
  5
68D
330
581
100
AcDbEntity
  8
0
 62
     0
 48
10.0
100
AcDbLine
 10
100.1128862128562
 20
171.2997938891103
 30
0.0
 11
100.1128862128562
 21
171.2997938891103
 31
0.0
  0
LINE
  5
68E
330
581
100
AcDbEntity
  8
0
 62
     0
 48
10.0
100
AcDbLine
 10
101.1640793887421
 20
172.1064027825469
 30
0.0
 11
101.1640793887421
 21
172.1064027825469
 31
0.0
  0
LINE
  5
68F
330
581
100
AcDbEntity
  8
0
 62
     0
 48
10.0
100
AcDbLine
 10
102.1986121444819
 20
172.9002276859743
 30
0.0
 11
102.1986121444819
 21
172.9002276859743
 31
0.0
  0
LINE
  5
690
330
581
100
AcDbEntity
  8
0
 62
     0
 48
10.0
100
AcDbLine
 10
99.07411244750058
 20
171.1498412819013
 30
0.0
 11
99.07411244750058
 21
171.1498412819013
 31
0.0
  0
LINE
  5
691
330
581
100
AcDbEntity
  8
0
 62
     0
 48
10.0
100
AcDbLine
 10
100.1372059234908
 20
171.965581596773
 30
0.0
 11
100.1372059234908
 21
171.965581596773
 31
0.0
  0
LINE
  5
692
330
581
100
AcDbEntity
  8
0
 62
     0
 48
10.0
100
AcDbLine
 10
101.1883990993767
 20
172.7721904902096
 30
0.0
 11
101.1883990993767
 21
172.7721904902096
 31
0.0
  0
LINE
  5
693
330
581
100
AcDbEntity
  8
0
 62
     0
 48
10.0
100
AcDbLine
 10
99.09843215813518
 20
171.8156289895639
 30
0.0
 11
99.09843215813518
 21
171.8156289895639
 31
0.0
  0
LINE
  5
694
330
581
100
AcDbEntity
  8
0
 62
     0
 48
10.0
100
AcDbLine
 10
100.1615256341254
 20
172.6313693044356
 30
0.0
 11
100.1615256341254
 21
172.6313693044356
 31
0.0
  0
LINE
  5
695
330
581
100
AcDbEntity
  8
0
 62
     0
 48
10.0
100
AcDbLine
 10
99.12275186876975
 20
172.4814166972266
 30
0.0
 11
99.12275186876975
 21
172.4814166972266
 31
0.0
  0
LINE
  5
696
330
581
100
AcDbEntity
  8
0
 62
     0
 48
10.0
100
AcDbLine
 10
100.18584534476
 20
173.2971570120982
 30
0.0
 11
100.18584534476
 21
173.2971570120982
 31
0.0
  0
LINE
  5
697
330
581
100
AcDbEntity
  8
0
 62
     0
 48
10.0
100
AcDbLine
 10
99.14707157940434
 20
173.1472044048891
 30
0.0
 11
99.14707157940434
 21
173.1472044048891
 31
0.0
  0
LINE
  5
698
330
581
100
AcDbEntity
  8
0
 62
     0
 48
10.0
100
AcDbLine
 10
97.82070229604959
 20
164.3639270095103
 30
0.0
 11
97.82070229604959
 21
164.3639270095103
 31
0.0
  0
LINE
  5
699
330
581
100
AcDbEntity
  8
0
 62
     0
 48
10.0
100
AcDbLine
 10
98.85523505178937
 20
165.1577519129377
 30
0.0
 11
98.85523505178937
 21
165.1577519129377
 31
0.0
  0
LINE
  5
69A
330
581
100
AcDbEntity
  8
0
 62
     0
 48
10.0
100
AcDbLine
 10
99.91832852777962
 20
165.9734922278094
 30
0.0
 11
99.91832852777962
 21
165.9734922278094
 31
0.0
  0
LINE
  5
69B
330
581
100
AcDbEntity
  8
0
 62
     0
 48
10.0
100
AcDbLine
 10
100.9695217036655
 20
166.780101121246
 30
0.0
 11
100.9695217036655
 21
166.780101121246
 31
0.0
  0
LINE
  5
69C
330
581
100
AcDbEntity
  8
0
 62
     0
 48
10.0
100
AcDbLine
 10
102.0040544594053
 20
167.5739260246734
 30
0.0
 11
102.0040544594053
 21
167.5739260246734
 31
0.0
  0
LINE
  5
69D
330
581
100
AcDbEntity
  8
0
 62
     0
 48
10.0
100
AcDbLine
 10
103.0671479353955
 20
168.389666339545
 30
0.0
 11
103.0671479353955
 21
168.389666339545
 31
0.0
  0
LINE
  5
69E
330
581
100
AcDbEntity
  8
0
 62
     0
 48
10.0
100
AcDbLine
 10
97.79638258541503
 20
163.6981393018477
 30
0.0
 11
97.79638258541503
 21
163.6981393018477
 31
0.0
  0
LINE
  5
69F
330
581
100
AcDbEntity
  8
0
 62
     0
 48
10.0
100
AcDbLine
 10
98.83091534115481
 20
164.4919642052751
 30
0.0
 11
98.83091534115481
 21
164.4919642052751
 31
0.0
  0
LINE
  5
6A0
330
581
100
AcDbEntity
  8
0
 62
     0
 48
10.0
100
AcDbLine
 10
99.89400881714507
 20
165.3077045201468
 30
0.0
 11
99.89400881714507
 21
165.3077045201468
 31
0.0
  0
LINE
  5
6A1
330
581
100
AcDbEntity
  8
0
 62
     0
 48
10.0
100
AcDbLine
 10
100.9452019930309
 20
166.1143134135833
 30
0.0
 11
100.9452019930309
 21
166.1143134135833
 31
0.0
  0
LINE
  5
6A2
330
581
100
AcDbEntity
  8
0
 62
     0
 48
10.0
100
AcDbLine
 10
101.9797347487707
 20
166.9081383170107
 30
0.0
 11
101.9797347487707
 21
166.9081383170107
 31
0.0
  0
LINE
  5
6A3
330
581
100
AcDbEntity
  8
0
 62
     0
 48
10.0
100
AcDbLine
 10
103.0428282247609
 20
167.7238786318824
 30
0.0
 11
103.0428282247609
 21
167.7238786318824
 31
0.0
  0
LINE
  5
6A4
330
581
100
AcDbEntity
  8
0
 62
     0
 48
10.0
100
AcDbLine
 10
97.77206287478044
 20
163.0323515941851
 30
0.0
 11
97.77206287478044
 21
163.0323515941851
 31
0.0
  0
LINE
  5
6A5
330
581
100
AcDbEntity
  8
0
 62
     0
 48
10.0
100
AcDbLine
 10
98.80659563052022
 20
163.8261764976125
 30
0.0
 11
98.80659563052022
 21
163.8261764976125
 31
0.0
  0
LINE
  5
6A6
330
581
100
AcDbEntity
  8
0
 62
     0
 48
10.0
100
AcDbLine
 10
99.86968910651048
 20
164.6419168124841
 30
0.0
 11
99.86968910651048
 21
164.6419168124841
 31
0.0
  0
LINE
  5
6A7
330
581
100
AcDbEntity
  8
0
 62
     0
 48
10.0
100
AcDbLine
 10
100.9208822823963
 20
165.4485257059207
 30
0.0
 11
100.9208822823963
 21
165.4485257059207
 31
0.0
  0
LINE
  5
6A8
330
581
100
AcDbEntity
  8
0
 62
     0
 48
10.0
100
AcDbLine
 10
101.9554150381361
 20
166.2423506093481
 30
0.0
 11
101.9554150381361
 21
166.2423506093481
 31
0.0
  0
LINE
  5
6A9
330
581
100
AcDbEntity
  8
0
 62
     0
 48
10.0
100
AcDbLine
 10
103.0185085141263
 20
167.0580909242198
 30
0.0
 11
103.0185085141263
 21
167.0580909242198
 31
0.0
  0
LINE
  5
6AA
330
581
100
AcDbEntity
  8
0
 62
     0
 48
10.0
100
AcDbLine
 10
97.74774316414585
 20
162.3665638865225
 30
0.0
 11
97.74774316414585
 21
162.3665638865225
 31
0.0
  0
LINE
  5
6AB
330
581
100
AcDbEntity
  8
0
 62
     0
 48
10.0
100
AcDbLine
 10
98.78227591988562
 20
163.1603887899498
 30
0.0
 11
98.78227591988562
 21
163.1603887899498
 31
0.0
  0
LINE
  5
6AC
330
581
100
AcDbEntity
  8
0
 62
     0
 48
10.0
100
AcDbLine
 10
99.84536939587588
 20
163.9761291048215
 30
0.0
 11
99.84536939587588
 21
163.9761291048215
 31
0.0
  0
LINE
  5
6AD
330
581
100
AcDbEntity
  8
0
 62
     0
 48
10.0
100
AcDbLine
 10
100.8965625717617
 20
164.7827379982581
 30
0.0
 11
100.8965625717617
 21
164.7827379982581
 31
0.0
  0
LINE
  5
6AE
330
581
100
AcDbEntity
  8
0
 62
     0
 48
10.0
100
AcDbLine
 10
101.9310953275015
 20
165.5765629016855
 30
0.0
 11
101.9310953275015
 21
165.5765629016855
 31
0.0
  0
LINE
  5
6AF
330
581
100
AcDbEntity
  8
0
 62
     0
 48
10.0
100
AcDbLine
 10
102.9941888034918
 20
166.3923032165571
 30
0.0
 11
102.9941888034918
 21
166.3923032165571
 31
0.0
  0
LINE
  5
6B0
330
581
100
AcDbEntity
  8
0
 62
     0
 48
10.0
100
AcDbLine
 10
97.72342345351127
 20
161.7007761788599
 30
0.0
 11
97.72342345351127
 21
161.7007761788599
 31
0.0
  0
LINE
  5
6B1
330
581
100
AcDbEntity
  8
0
 62
     0
 48
10.0
100
AcDbLine
 10
98.75795620925105
 20
162.4946010822872
 30
0.0
 11
98.75795620925105
 21
162.4946010822872
 31
0.0
  0
LINE
  5
6B2
330
581
100
AcDbEntity
  8
0
 62
     0
 48
10.0
100
AcDbLine
 10
99.82104968524131
 20
163.3103413971589
 30
0.0
 11
99.82104968524131
 21
163.3103413971589
 31
0.0
  0
LINE
  5
6B3
330
581
100
AcDbEntity
  8
0
 62
     0
 48
10.0
100
AcDbLine
 10
100.8722428611271
 20
164.1169502905955
 30
0.0
 11
100.8722428611271
 21
164.1169502905955
 31
0.0
  0
LINE
  5
6B4
330
581
100
AcDbEntity
  8
0
 62
     0
 48
10.0
100
AcDbLine
 10
101.9067756168669
 20
164.9107751940229
 30
0.0
 11
101.9067756168669
 21
164.9107751940229
 31
0.0
  0
LINE
  5
6B5
330
581
100
AcDbEntity
  8
0
 62
     0
 48
10.0
100
AcDbLine
 10
102.9698690928572
 20
165.7265155088945
 30
0.0
 11
102.9698690928572
 21
165.7265155088945
 31
0.0
  0
LINE
  5
6B6
330
581
100
AcDbEntity
  8
0
 62
     0
 48
10.0
100
AcDbLine
 10
98.73363649861644
 20
161.8288133746245
 30
0.0
 11
98.73363649861644
 21
161.8288133746245
 31
0.0
  0
LINE
  5
6B7
330
581
100
AcDbEntity
  8
0
 62
     0
 48
10.0
100
AcDbLine
 10
99.79672997460671
 20
162.6445536894962
 30
0.0
 11
99.79672997460671
 21
162.6445536894962
 31
0.0
  0
LINE
  5
6B8
330
581
100
AcDbEntity
  8
0
 62
     0
 48
10.0
100
AcDbLine
 10
100.8479231504926
 20
163.4511625829328
 30
0.0
 11
100.8479231504926
 21
163.4511625829328
 31
0.0
  0
LINE
  5
6B9
330
581
100
AcDbEntity
  8
0
 62
     0
 48
10.0
100
AcDbLine
 10
101.8824559062323
 20
164.2449874863602
 30
0.0
 11
101.8824559062323
 21
164.2449874863602
 31
0.0
  0
LINE
  5
6BA
330
581
100
AcDbEntity
  8
0
 62
     0
 48
10.0
100
AcDbLine
 10
102.9455493822226
 20
165.0607278012319
 30
0.0
 11
102.9455493822226
 21
165.0607278012319
 31
0.0
  0
LINE
  5
6BB
330
581
100
AcDbEntity
  8
0
 62
     0
 48
10.0
100
AcDbLine
 10
99.77241026397212
 20
161.9787659818336
 30
0.0
 11
99.77241026397212
 21
161.9787659818336
 31
0.0
  0
LINE
  5
6BC
330
581
100
AcDbEntity
  8
0
 62
     0
 48
10.0
100
AcDbLine
 10
100.823603439858
 20
162.7853748752702
 30
0.0
 11
100.823603439858
 21
162.7853748752702
 31
0.0
  0
LINE
  5
6BD
330
581
100
AcDbEntity
  8
0
 62
     0
 48
10.0
100
AcDbLine
 10
101.8581361955978
 20
163.5791997786976
 30
0.0
 11
101.8581361955978
 21
163.5791997786976
 31
0.0
  0
LINE
  5
6BE
330
581
100
AcDbEntity
  8
0
 62
     0
 48
10.0
100
AcDbLine
 10
102.921229671588
 20
164.3949400935692
 30
0.0
 11
102.921229671588
 21
164.3949400935692
 31
0.0
  0
LINE
  5
6BF
330
581
100
AcDbEntity
  8
0
 62
     0
 48
10.0
100
AcDbLine
 10
100.7992837292234
 20
162.1195871676076
 30
0.0
 11
100.7992837292234
 21
162.1195871676076
 31
0.0
  0
LINE
  5
6C0
330
581
100
AcDbEntity
  8
0
 62
     0
 48
10.0
100
AcDbLine
 10
101.8338164849632
 20
162.9134120710349
 30
0.0
 11
101.8338164849632
 21
162.9134120710349
 31
0.0
  0
LINE
  5
6C1
330
581
100
AcDbEntity
  8
0
 62
     0
 48
10.0
100
AcDbLine
 10
102.8969099609534
 20
163.7291523859066
 30
0.0
 11
102.8969099609534
 21
163.7291523859066
 31
0.0
  0
LINE
  5
6C2
330
581
100
AcDbEntity
  8
0
 62
     0
 48
10.0
100
AcDbLine
 10
100.7749640185888
 20
161.453799459945
 30
0.0
 11
100.7749640185888
 21
161.453799459945
 31
0.0
  0
LINE
  5
6C3
330
581
100
AcDbEntity
  8
0
 62
     0
 48
10.0
100
AcDbLine
 10
101.8094967743286
 20
162.2476243633723
 30
0.0
 11
101.8094967743286
 21
162.2476243633723
 31
0.0
  0
LINE
  5
6C4
330
581
100
AcDbEntity
  8
0
 62
     0
 48
10.0
100
AcDbLine
 10
102.8725902503188
 20
163.063364678244
 30
0.0
 11
102.8725902503188
 21
163.063364678244
 31
0.0
  0
LINE
  5
6C5
330
581
100
AcDbEntity
  8
0
 62
     0
 48
10.0
100
AcDbLine
 10
101.785177063694
 20
161.5818366557097
 30
0.0
 11
101.785177063694
 21
161.5818366557097
 31
0.0
  0
LINE
  5
6C6
330
581
100
AcDbEntity
  8
0
 62
     0
 48
10.0
100
AcDbLine
 10
102.8482705396843
 20
162.3975769705814
 30
0.0
 11
102.8482705396843
 21
162.3975769705814
 31
0.0
  0
LINE
  5
6C7
330
581
100
AcDbEntity
  8
0
 62
     0
 48
10.0
100
AcDbLine
 10
102.8239508290497
 20
161.7317892629188
 30
0.0
 11
102.8239508290497
 21
161.7317892629188
 31
0.0
  0
LINE
  5
6C8
330
581
100
AcDbEntity
  8
0
 62
     0
 48
10.0
100
AcDbLine
 10
103.850824294301
 20
161.8726104486927
 30
0.0
 11
103.850824294301
 21
161.8726104486927
 31
0.0
  0
LINE
  5
6C9
330
581
100
AcDbEntity
  8
0
 62
     0
 48
10.0
100
AcDbLine
 10
98.22376020448764
 20
166.9163660556127
 30
0.0
 11
98.22376020448764
 21
166.9163660556127
 31
0.0
  0
LINE
  5
6CA
330
581
100
AcDbEntity
  8
0
 62
     0
 48
10.0
100
AcDbLine
 10
99.48686095787786
 20
167.0826564245011
 30
0.0
 11
99.48686095787786
 21
167.0826564245011
 31
0.0
  0
LINE
  5
6CB
330
581
100
AcDbEntity
  8
0
 62
     0
 48
10.0
100
AcDbLine
 10
99.98754061287165
 20
167.1485721515722
 30
0.0
 11
99.98754061287165
 21
167.1485721515722
 31
0.0
  0
LINE
  5
6CC
330
581
100
AcDbEntity
  8
0
 62
     0
 48
10.0
100
AcDbLine
 10
100.7450044869612
 20
167.2482941624283
 30
0.0
 11
100.7450044869612
 21
167.2482941624283
 31
0.0
  0
LINE
  5
6CD
330
581
100
AcDbEntity
  8
0
 62
     0
 48
10.0
100
AcDbLine
 10
102.0081052403514
 20
167.4145845313167
 30
0.0
 11
102.0081052403514
 21
167.4145845313167
 31
0.0
  0
LINE
  5
6CE
330
581
100
AcDbEntity
  8
0
 62
     0
 48
10.0
100
AcDbLine
 10
102.5087848953452
 20
167.4805002583878
 30
0.0
 11
102.5087848953452
 21
167.4805002583878
 31
0.0
  0
LINE
  5
6CF
330
581
100
AcDbEntity
  8
0
 62
     0
 48
10.0
100
AcDbLine
 10
103.2662487694348
 20
167.5802222692439
 30
0.0
 11
103.2662487694348
 21
167.5802222692439
 31
0.0
  0
LINE
  5
6D0
330
581
100
AcDbEntity
  8
0
 62
     0
 48
10.0
100
AcDbLine
 10
98.74989927937194
 20
167.7051894793775
 30
0.0
 11
98.74989927937194
 21
167.7051894793775
 31
0.0
  0
LINE
  5
6D1
330
581
100
AcDbEntity
  8
0
 62
     0
 48
10.0
100
AcDbLine
 10
100.0130000327622
 20
167.8714798482658
 30
0.0
 11
100.0130000327622
 21
167.8714798482658
 31
0.0
  0
LINE
  5
6D2
330
581
100
AcDbEntity
  8
0
 62
     0
 48
10.0
100
AcDbLine
 10
100.5136796877559
 20
167.9373955753369
 30
0.0
 11
100.5136796877559
 21
167.9373955753369
 31
0.0
  0
LINE
  5
6D3
330
581
100
AcDbEntity
  8
0
 62
     0
 48
10.0
100
AcDbLine
 10
101.2711435618455
 20
168.037117586193
 30
0.0
 11
101.2711435618455
 21
168.037117586193
 31
0.0
  0
LINE
  5
6D4
330
581
100
AcDbEntity
  8
0
 62
     0
 48
10.0
100
AcDbLine
 10
102.5342443152358
 20
168.2034079550814
 30
0.0
 11
102.5342443152358
 21
168.2034079550814
 31
0.0
  0
LINE
  5
6D5
330
581
100
AcDbEntity
  8
0
 62
     0
 48
10.0
100
AcDbLine
 10
103.0349239702295
 20
168.2693236821525
 30
0.0
 11
103.0349239702295
 21
168.2693236821525
 31
0.0
  0
LINE
  5
6D6
330
581
100
AcDbEntity
  8
0
 62
     0
 48
10.0
100
AcDbLine
 10
98.51857448016664
 20
168.394290892286
 30
0.0
 11
98.51857448016664
 21
168.394290892286
 31
0.0
  0
LINE
  5
6D7
330
581
100
AcDbEntity
  8
0
 62
     0
 48
10.0
100
AcDbLine
 10
99.27603835425623
 20
168.4940129031421
 30
0.0
 11
99.27603835425623
 21
168.4940129031421
 31
0.0
  0
LINE
  5
6D8
330
581
100
AcDbEntity
  8
0
 62
     0
 48
10.0
100
AcDbLine
 10
100.5391391076464
 20
168.6603032720305
 30
0.0
 11
100.5391391076464
 21
168.6603032720305
 31
0.0
  0
LINE
  5
6D9
330
581
100
AcDbEntity
  8
0
 62
     0
 48
10.0
100
AcDbLine
 10
101.0398187626402
 20
168.7262189991017
 30
0.0
 11
101.0398187626402
 21
168.7262189991017
 31
0.0
  0
LINE
  5
6DA
330
581
100
AcDbEntity
  8
0
 62
     0
 48
10.0
100
AcDbLine
 10
101.7972826367298
 20
168.8259410099577
 30
0.0
 11
101.7972826367298
 21
168.8259410099577
 31
0.0
  0
LINE
  5
6DB
330
581
100
AcDbEntity
  8
0
 62
     0
 48
10.0
100
AcDbLine
 10
103.06038339012
 20
168.9922313788461
 30
0.0
 11
103.06038339012
 21
168.9922313788461
 31
0.0
  0
LINE
  5
6DC
330
581
100
AcDbEntity
  8
0
 62
     0
 48
10.0
100
AcDbLine
 10
98.54403390005714
 20
169.1171985889796
 30
0.0
 11
98.54403390005714
 21
169.1171985889796
 31
0.0
  0
LINE
  5
6DD
330
581
100
AcDbEntity
  8
0
 62
     0
 48
10.0
100
AcDbLine
 10
99.04471355505092
 20
169.1831143160507
 30
0.0
 11
99.04471355505092
 21
169.1831143160507
 31
0.0
  0
LINE
  5
6DE
330
581
100
AcDbEntity
  8
0
 62
     0
 48
10.0
100
AcDbLine
 10
99.80217742914051
 20
169.2828363269069
 30
0.0
 11
99.80217742914051
 21
169.2828363269069
 31
0.0
  0
LINE
  5
6DF
330
581
100
AcDbEntity
  8
0
 62
     0
 48
10.0
100
AcDbLine
 10
101.0652781825307
 20
169.4491266957952
 30
0.0
 11
101.0652781825307
 21
169.4491266957952
 31
0.0
  0
LINE
  5
6E0
330
581
100
AcDbEntity
  8
0
 62
     0
 48
10.0
100
AcDbLine
 10
101.5659578375245
 20
169.5150424228663
 30
0.0
 11
101.5659578375245
 21
169.5150424228663
 31
0.0
  0
LINE
  5
6E1
330
581
100
AcDbEntity
  8
0
 62
     0
 48
10.0
100
AcDbLine
 10
102.3234217116141
 20
169.6147644337225
 30
0.0
 11
102.3234217116141
 21
169.6147644337225
 31
0.0
  0
LINE
  5
6E2
330
581
100
AcDbEntity
  8
0
 62
     0
 48
10.0
100
AcDbLine
 10
99.07017297494146
 20
169.9060220127443
 30
0.0
 11
99.07017297494146
 21
169.9060220127443
 31
0.0
  0
LINE
  5
6E3
330
581
100
AcDbEntity
  8
0
 62
     0
 48
10.0
100
AcDbLine
 10
99.57085262993523
 20
169.9719377398154
 30
0.0
 11
99.57085262993523
 21
169.9719377398154
 31
0.0
  0
LINE
  5
6E4
330
581
100
AcDbEntity
  8
0
 62
     0
 48
10.0
100
AcDbLine
 10
100.3283165040248
 20
170.0716597506716
 30
0.0
 11
100.3283165040248
 21
170.0716597506716
 31
0.0
  0
LINE
  5
6E5
330
581
100
AcDbEntity
  8
0
 62
     0
 48
10.0
100
AcDbLine
 10
101.591417257415
 20
170.23795011956
 30
0.0
 11
101.591417257415
 21
170.23795011956
 31
0.0
  0
LINE
  5
6E6
330
581
100
AcDbEntity
  8
0
 62
     0
 48
10.0
100
AcDbLine
 10
102.0920969124088
 20
170.3038658466311
 30
0.0
 11
102.0920969124088
 21
170.3038658466311
 31
0.0
  0
LINE
  5
6E7
330
581
100
AcDbEntity
  8
0
 62
     0
 48
10.0
100
AcDbLine
 10
102.8495607864984
 20
170.4035878574872
 30
0.0
 11
102.8495607864984
 21
170.4035878574872
 31
0.0
  0
LINE
  5
6E8
330
581
100
AcDbEntity
  8
0
 62
     0
 48
10.0
100
AcDbLine
 10
99.59631204982574
 20
170.6948454365091
 30
0.0
 11
99.59631204982574
 21
170.6948454365091
 31
0.0
  0
LINE
  5
6E9
330
581
100
AcDbEntity
  8
0
 62
     0
 48
10.0
100
AcDbLine
 10
100.0969917048195
 20
170.7607611635802
 30
0.0
 11
100.0969917048195
 21
170.7607611635802
 31
0.0
  0
LINE
  5
6EA
330
581
100
AcDbEntity
  8
0
 62
     0
 48
10.0
100
AcDbLine
 10
100.8544555789091
 20
170.8604831744363
 30
0.0
 11
100.8544555789091
 21
170.8604831744363
 31
0.0
  0
LINE
  5
6EB
330
581
100
AcDbEntity
  8
0
 62
     0
 48
10.0
100
AcDbLine
 10
102.1175563322993
 20
171.0267735433247
 30
0.0
 11
102.1175563322993
 21
171.0267735433247
 31
0.0
  0
LINE
  5
6EC
330
581
100
AcDbEntity
  8
0
 62
     0
 48
10.0
100
AcDbLine
 10
102.6182359872931
 20
171.0926892703958
 30
0.0
 11
102.6182359872931
 21
171.0926892703958
 31
0.0
  0
LINE
  5
6ED
330
581
100
AcDbEntity
  8
0
 62
     0
 48
10.0
100
AcDbLine
 10
98.85935037131984
 20
171.3173784913854
 30
0.0
 11
98.85935037131984
 21
171.3173784913854
 31
0.0
  0
LINE
  5
6EE
330
581
100
AcDbEntity
  8
0
 62
     0
 48
10.0
100
AcDbLine
 10
100.12245112471
 20
171.4836688602737
 30
0.0
 11
100.12245112471
 21
171.4836688602737
 31
0.0
  0
LINE
  5
6EF
330
581
100
AcDbEntity
  8
0
 62
     0
 48
10.0
100
AcDbLine
 10
100.6231307797038
 20
171.5495845873449
 30
0.0
 11
100.6231307797038
 21
171.5495845873449
 31
0.0
  0
LINE
  5
6F0
330
581
100
AcDbEntity
  8
0
 62
     0
 48
10.0
100
AcDbLine
 10
101.3805946537934
 20
171.649306598201
 30
0.0
 11
101.3805946537934
 21
171.649306598201
 31
0.0
  0
LINE
  5
6F1
330
581
100
AcDbEntity
  8
0
 62
     0
 48
10.0
100
AcDbLine
 10
102.6436954071836
 20
171.8155969670894
 30
0.0
 11
102.6436954071836
 21
171.8155969670894
 31
0.0
  0
LINE
  5
6F2
330
581
100
AcDbEntity
  8
0
 62
     0
 48
10.0
100
AcDbLine
 10
98.62802557211452
 20
172.0064799042941
 30
0.0
 11
98.62802557211452
 21
172.0064799042941
 31
0.0
  0
LINE
  5
6F3
330
581
100
AcDbEntity
  8
0
 62
     0
 48
10.0
100
AcDbLine
 10
99.38548944620411
 20
172.1062019151502
 30
0.0
 11
99.38548944620411
 21
172.1062019151502
 31
0.0
  0
LINE
  5
6F4
330
581
100
AcDbEntity
  8
0
 62
     0
 48
10.0
100
AcDbLine
 10
100.6485901995943
 20
172.2724922840385
 30
0.0
 11
100.6485901995943
 21
172.2724922840385
 31
0.0
  0
LINE
  5
6F5
330
581
100
AcDbEntity
  8
0
 62
     0
 48
10.0
100
AcDbLine
 10
101.1492698545881
 20
172.3384080111096
 30
0.0
 11
101.1492698545881
 21
172.3384080111096
 31
0.0
  0
LINE
  5
6F6
330
581
100
AcDbEntity
  8
0
 62
     0
 48
10.0
100
AcDbLine
 10
101.9067337286777
 20
172.4381300219658
 30
0.0
 11
101.9067337286777
 21
172.4381300219658
 31
0.0
  0
LINE
  5
6F7
330
581
100
AcDbEntity
  8
0
 62
     0
 48
10.0
100
AcDbLine
 10
99.15416464699882
 20
172.7953033280588
 30
0.0
 11
99.15416464699882
 21
172.7953033280588
 31
0.0
  0
LINE
  5
6F8
330
581
100
AcDbEntity
  8
0
 62
     0
 48
10.0
100
AcDbLine
 10
99.91162852108843
 20
172.8950253389149
 30
0.0
 11
99.91162852108843
 21
172.8950253389149
 31
0.0
  0
LINE
  5
6F9
330
581
100
AcDbEntity
  8
0
 62
     0
 48
10.0
100
AcDbLine
 10
101.1747292744786
 20
173.0613157078033
 30
0.0
 11
101.1747292744786
 21
173.0613157078033
 31
0.0
  0
LINE
  5
6FA
330
581
100
AcDbEntity
  8
0
 62
     0
 48
10.0
100
AcDbLine
 10
101.6754089294724
 20
173.1272314348744
 30
0.0
 11
101.6754089294724
 21
173.1272314348744
 31
0.0
  0
LINE
  5
6FB
330
581
100
AcDbEntity
  8
0
 62
     0
 48
10.0
100
AcDbLine
 10
102.432872803562
 20
173.2269534457305
 30
0.0
 11
102.432872803562
 21
173.2269534457305
 31
0.0
  0
LINE
  5
6FC
330
581
100
AcDbEntity
  8
0
 62
     0
 48
10.0
100
AcDbLine
 10
98.96072188299356
 20
166.2938330007364
 30
0.0
 11
98.96072188299356
 21
166.2938330007364
 31
0.0
  0
LINE
  5
6FD
330
581
100
AcDbEntity
  8
0
 62
     0
 48
10.0
100
AcDbLine
 10
99.46140153798733
 20
166.3597487278075
 30
0.0
 11
99.46140153798733
 21
166.3597487278075
 31
0.0
  0
LINE
  5
6FE
330
581
100
AcDbEntity
  8
0
 62
     0
 48
10.0
100
AcDbLine
 10
100.2188654120769
 20
166.4594707386636
 30
0.0
 11
100.2188654120769
 21
166.4594707386636
 31
0.0
  0
LINE
  5
6FF
330
581
100
AcDbEntity
  8
0
 62
     0
 48
10.0
100
AcDbLine
 10
101.4819661654671
 20
166.625761107552
 30
0.0
 11
101.4819661654671
 21
166.625761107552
 31
0.0
  0
LINE
  5
700
330
581
100
AcDbEntity
  8
0
 62
     0
 48
10.0
100
AcDbLine
 10
101.9826458204609
 20
166.6916768346231
 30
0.0
 11
101.9826458204609
 21
166.6916768346231
 31
0.0
  0
LINE
  5
701
330
581
100
AcDbEntity
  8
0
 62
     0
 48
10.0
100
AcDbLine
 10
102.7401096945505
 20
166.7913988454792
 30
0.0
 11
102.7401096945505
 21
166.7913988454792
 31
0.0
  0
LINE
  5
702
330
581
100
AcDbEntity
  8
0
 62
     0
 48
10.0
100
AcDbLine
 10
98.43458280810926
 20
165.5050095769716
 30
0.0
 11
98.43458280810926
 21
165.5050095769716
 31
0.0
  0
LINE
  5
703
330
581
100
AcDbEntity
  8
0
 62
     0
 48
10.0
100
AcDbLine
 10
98.93526246310303
 20
165.5709253040428
 30
0.0
 11
98.93526246310303
 21
165.5709253040428
 31
0.0
  0
LINE
  5
704
330
581
100
AcDbEntity
  8
0
 62
     0
 48
10.0
100
AcDbLine
 10
99.69272633719263
 20
165.6706473148989
 30
0.0
 11
99.69272633719263
 21
165.6706473148989
 31
0.0
  0
LINE
  5
705
330
581
100
AcDbEntity
  8
0
 62
     0
 48
10.0
100
AcDbLine
 10
100.9558270905828
 20
165.8369376837873
 30
0.0
 11
100.9558270905828
 21
165.8369376837873
 31
0.0
  0
LINE
  5
706
330
581
100
AcDbEntity
  8
0
 62
     0
 48
10.0
100
AcDbLine
 10
101.4565067455766
 20
165.9028534108584
 30
0.0
 11
101.4565067455766
 21
165.9028534108584
 31
0.0
  0
LINE
  5
707
330
581
100
AcDbEntity
  8
0
 62
     0
 48
10.0
100
AcDbLine
 10
102.2139706196662
 20
166.0025754217145
 30
0.0
 11
102.2139706196662
 21
166.0025754217145
 31
0.0
  0
LINE
  5
708
330
581
100
AcDbEntity
  8
0
 62
     0
 48
10.0
100
AcDbLine
 10
97.90844373322499
 20
164.7161861532069
 30
0.0
 11
97.90844373322499
 21
164.7161861532069
 31
0.0
  0
LINE
  5
709
330
581
100
AcDbEntity
  8
0
 62
     0
 48
10.0
100
AcDbLine
 10
98.40912338821876
 20
164.782101880278
 30
0.0
 11
98.40912338821876
 21
164.782101880278
 31
0.0
  0
LINE
  5
70A
330
581
100
AcDbEntity
  8
0
 62
     0
 48
10.0
100
AcDbLine
 10
99.16658726230835
 20
164.8818238911341
 30
0.0
 11
99.16658726230835
 21
164.8818238911341
 31
0.0
  0
LINE
  5
70B
330
581
100
AcDbEntity
  8
0
 62
     0
 48
10.0
100
AcDbLine
 10
100.4296880156986
 20
165.0481142600225
 30
0.0
 11
100.4296880156986
 21
165.0481142600225
 31
0.0
  0
LINE
  5
70C
330
581
100
AcDbEntity
  8
0
 62
     0
 48
10.0
100
AcDbLine
 10
100.9303676706923
 20
165.1140299870936
 30
0.0
 11
100.9303676706923
 21
165.1140299870936
 31
0.0
  0
LINE
  5
70D
330
581
100
AcDbEntity
  8
0
 62
     0
 48
10.0
100
AcDbLine
 10
101.6878315447819
 20
165.2137519979497
 30
0.0
 11
101.6878315447819
 21
165.2137519979497
 31
0.0
  0
LINE
  5
70E
330
581
100
AcDbEntity
  8
0
 62
     0
 48
10.0
100
AcDbLine
 10
102.9509322981722
 20
165.3800423668381
 30
0.0
 11
102.9509322981722
 21
165.3800423668381
 31
0.0
  0
LINE
  5
70F
330
581
100
AcDbEntity
  8
0
 62
     0
 48
10.0
100
AcDbLine
 10
103.4516119531659
 20
165.4459580939092
 30
0.0
 11
103.4516119531659
 21
165.4459580939092
 31
0.0
  0
LINE
  5
710
330
581
100
AcDbEntity
  8
0
 62
     0
 48
10.0
100
AcDbLine
 10
97.88298431333444
 20
163.9932784565133
 30
0.0
 11
97.88298431333444
 21
163.9932784565133
 31
0.0
  0
LINE
  5
711
330
581
100
AcDbEntity
  8
0
 62
     0
 48
10.0
100
AcDbLine
 10
98.64044818742405
 20
164.0930004673695
 30
0.0
 11
98.64044818742405
 21
164.0930004673695
 31
0.0
  0
LINE
  5
712
330
581
100
AcDbEntity
  8
0
 62
     0
 48
10.0
100
AcDbLine
 10
99.90354894081427
 20
164.2592908362578
 30
0.0
 11
99.90354894081427
 21
164.2592908362578
 31
0.0
  0
LINE
  5
713
330
581
100
AcDbEntity
  8
0
 62
     0
 48
10.0
100
AcDbLine
 10
100.404228595808
 20
164.3252065633289
 30
0.0
 11
100.404228595808
 21
164.3252065633289
 31
0.0
  0
LINE
  5
714
330
581
100
AcDbEntity
  8
0
 62
     0
 48
10.0
100
AcDbLine
 10
101.1616924698976
 20
164.424928574185
 30
0.0
 11
101.1616924698976
 21
164.424928574185
 31
0.0
  0
LINE
  5
715
330
581
100
AcDbEntity
  8
0
 62
     0
 48
10.0
100
AcDbLine
 10
102.4247932232878
 20
164.5912189430734
 30
0.0
 11
102.4247932232878
 21
164.5912189430734
 31
0.0
  0
LINE
  5
716
330
581
100
AcDbEntity
  8
0
 62
     0
 48
10.0
100
AcDbLine
 10
102.9254728782816
 20
164.6571346701445
 30
0.0
 11
102.9254728782816
 21
164.6571346701445
 31
0.0
  0
LINE
  5
717
330
581
100
AcDbEntity
  8
0
 62
     0
 48
10.0
100
AcDbLine
 10
98.11430911253976
 20
163.3041770436047
 30
0.0
 11
98.11430911253976
 21
163.3041770436047
 31
0.0
  0
LINE
  5
718
330
581
100
AcDbEntity
  8
0
 62
     0
 48
10.0
100
AcDbLine
 10
99.37740986592999
 20
163.4704674124931
 30
0.0
 11
99.37740986592999
 21
163.4704674124931
 31
0.0
  0
LINE
  5
719
330
581
100
AcDbEntity
  8
0
 62
     0
 48
10.0
100
AcDbLine
 10
99.87808952092377
 20
163.5363831395642
 30
0.0
 11
99.87808952092377
 21
163.5363831395642
 31
0.0
  0
LINE
  5
71A
330
581
100
AcDbEntity
  8
0
 62
     0
 48
10.0
100
AcDbLine
 10
100.6355533950133
 20
163.6361051504203
 30
0.0
 11
100.6355533950133
 21
163.6361051504203
 31
0.0
  0
LINE
  5
71B
330
581
100
AcDbEntity
  8
0
 62
     0
 48
10.0
100
AcDbLine
 10
101.8986541484036
 20
163.8023955193087
 30
0.0
 11
101.8986541484036
 21
163.8023955193087
 31
0.0
  0
LINE
  5
71C
330
581
100
AcDbEntity
  8
0
 62
     0
 48
10.0
100
AcDbLine
 10
102.3993338033973
 20
163.8683112463798
 30
0.0
 11
102.3993338033973
 21
163.8683112463798
 31
0.0
  0
LINE
  5
71D
330
581
100
AcDbEntity
  8
0
 62
     0
 48
10.0
100
AcDbLine
 10
103.1567976774869
 20
163.9680332572359
 30
0.0
 11
103.1567976774869
 21
163.9680332572359
 31
0.0
  0
LINE
  5
71E
330
581
100
AcDbEntity
  8
0
 62
     0
 48
10.0
100
AcDbLine
 10
98.85127079104568
 20
162.6816439887283
 30
0.0
 11
98.85127079104568
 21
162.6816439887283
 31
0.0
  0
LINE
  5
71F
330
581
100
AcDbEntity
  8
0
 62
     0
 48
10.0
100
AcDbLine
 10
99.35195044603945
 20
162.7475597157994
 30
0.0
 11
99.35195044603945
 21
162.7475597157994
 31
0.0
  0
LINE
  5
720
330
581
100
AcDbEntity
  8
0
 62
     0
 48
10.0
100
AcDbLine
 10
100.109414320129
 20
162.8472817266556
 30
0.0
 11
100.109414320129
 21
162.8472817266556
 31
0.0
  0
LINE
  5
721
330
581
100
AcDbEntity
  8
0
 62
     0
 48
10.0
100
AcDbLine
 10
101.3725150735192
 20
163.0135720955439
 30
0.0
 11
101.3725150735192
 21
163.0135720955439
 31
0.0
  0
LINE
  5
722
330
581
100
AcDbEntity
  8
0
 62
     0
 48
10.0
100
AcDbLine
 10
101.873194728513
 20
163.079487822615
 30
0.0
 11
101.873194728513
 21
163.079487822615
 31
0.0
  0
LINE
  5
723
330
581
100
AcDbEntity
  8
0
 62
     0
 48
10.0
100
AcDbLine
 10
102.6306586026026
 20
163.1792098334711
 30
0.0
 11
102.6306586026026
 21
163.1792098334711
 31
0.0
  0
LINE
  5
724
330
581
100
AcDbEntity
  8
0
 62
     0
 48
10.0
100
AcDbLine
 10
98.3251317161614
 20
161.8928205649636
 30
0.0
 11
98.3251317161614
 21
161.8928205649636
 31
0.0
  0
LINE
  5
725
330
581
100
AcDbEntity
  8
0
 62
     0
 48
10.0
100
AcDbLine
 10
98.82581137115517
 20
161.9587362920347
 30
0.0
 11
98.82581137115517
 21
161.9587362920347
 31
0.0
  0
LINE
  5
726
330
581
100
AcDbEntity
  8
0
 62
     0
 48
10.0
100
AcDbLine
 10
99.58327524524477
 20
162.0584583028908
 30
0.0
 11
99.58327524524477
 21
162.0584583028908
 31
0.0
  0
LINE
  5
727
330
581
100
AcDbEntity
  8
0
 62
     0
 48
10.0
100
AcDbLine
 10
100.846375998635
 20
162.2247486717792
 30
0.0
 11
100.846375998635
 21
162.2247486717792
 31
0.0
  0
LINE
  5
728
330
581
100
AcDbEntity
  8
0
 62
     0
 48
10.0
100
AcDbLine
 10
101.3470556536288
 20
162.2906643988503
 30
0.0
 11
101.3470556536288
 21
162.2906643988503
 31
0.0
  0
LINE
  5
729
330
581
100
AcDbEntity
  8
0
 62
     0
 48
10.0
100
AcDbLine
 10
102.1045195277183
 20
162.3903864097064
 30
0.0
 11
102.1045195277183
 21
162.3903864097064
 31
0.0
  0
LINE
  5
72A
330
581
100
AcDbEntity
  8
0
 62
     0
 48
10.0
100
AcDbLine
 10
103.3676202811086
 20
162.5566767785948
 30
0.0
 11
103.3676202811086
 21
162.5566767785948
 31
0.0
  0
LINE
  5
72B
330
581
100
AcDbEntity
  8
0
 62
     0
 48
10.0
100
AcDbLine
 10
100.3202369237507
 20
161.4359252480145
 30
0.0
 11
100.3202369237507
 21
161.4359252480145
 31
0.0
  0
LINE
  5
72C
330
581
100
AcDbEntity
  8
0
 62
     0
 48
10.0
100
AcDbLine
 10
100.8209165787444
 20
161.5018409750856
 30
0.0
 11
100.8209165787444
 21
161.5018409750856
 31
0.0
  0
LINE
  5
72D
330
581
100
AcDbEntity
  8
0
 62
     0
 48
10.0
100
AcDbLine
 10
101.578380452834
 20
161.6015629859417
 30
0.0
 11
101.578380452834
 21
161.6015629859417
 31
0.0
  0
LINE
  5
72E
330
581
100
AcDbEntity
  8
0
 62
     0
 48
10.0
100
AcDbLine
 10
102.8414812062243
 20
161.7678533548301
 30
0.0
 11
102.8414812062243
 21
161.7678533548301
 31
0.0
  0
LINE
  5
72F
330
581
100
AcDbEntity
  8
0
 62
     0
 48
10.0
100
AcDbLine
 10
103.342160861218
 20
161.8337690819012
 30
0.0
 11
103.342160861218
 21
161.8337690819012
 31
0.0
  0
LINE
  5
730
330
581
100
AcDbEntity
  8
0
 62
     0
 48
10.0
100
AcDbLine
 10
98.39240440282679
 20
168.8280865683885
 30
0.0
 11
98.39240440282679
 21
168.8280865683885
 31
0.0
  0
LINE
  5
731
330
581
100
AcDbEntity
  8
0
 62
     0
 48
10.0
100
AcDbLine
 10
100.1382246956594
 20
167.7158763791105
 30
0.0
 11
100.1382246956594
 21
167.7158763791105
 31
0.0
  0
LINE
  5
732
330
581
100
AcDbEntity
  8
0
 62
     0
 48
10.0
100
AcDbLine
 10
100.5599204185659
 20
167.4472265749371
 30
0.0
 11
100.5599204185659
 21
167.4472265749371
 31
0.0
  0
LINE
  5
733
330
581
100
AcDbEntity
  8
0
 62
     0
 48
10.0
100
AcDbLine
 10
101.875611074034
 20
166.6090391859161
 30
0.0
 11
101.875611074034
 21
166.6090391859161
 31
0.0
  0
LINE
  5
734
330
581
100
AcDbEntity
  8
0
 62
     0
 48
10.0
100
AcDbLine
 10
99.4600492751716
 20
168.7829768249197
 30
0.0
 11
99.4600492751716
 21
168.7829768249197
 31
0.0
  0
LINE
  5
735
330
581
100
AcDbEntity
  8
0
 62
     0
 48
10.0
100
AcDbLine
 10
101.2058695680043
 20
167.6707666356418
 30
0.0
 11
101.2058695680043
 21
167.6707666356418
 31
0.0
  0
LINE
  5
736
330
581
100
AcDbEntity
  8
0
 62
     0
 48
10.0
100
AcDbLine
 10
101.6275652909107
 20
167.4021168314684
 30
0.0
 11
101.6275652909107
 21
167.4021168314684
 31
0.0
  0
LINE
  5
737
330
581
100
AcDbEntity
  8
0
 62
     0
 48
10.0
100
AcDbLine
 10
102.9432559463788
 20
166.5639294424473
 30
0.0
 11
102.9432559463788
 21
166.5639294424473
 31
0.0
  0
LINE
  5
738
330
581
100
AcDbEntity
  8
0
 62
     0
 48
10.0
100
AcDbLine
 10
98.79030776914193
 20
169.8447042746454
 30
0.0
 11
98.79030776914193
 21
169.8447042746454
 31
0.0
  0
LINE
  5
739
330
581
100
AcDbEntity
  8
0
 62
     0
 48
10.0
100
AcDbLine
 10
99.21200349204838
 20
169.576054470472
 30
0.0
 11
99.21200349204838
 21
169.576054470472
 31
0.0
  0
LINE
  5
73A
330
581
100
AcDbEntity
  8
0
 62
     0
 48
10.0
100
AcDbLine
 10
100.5276941475164
 20
168.7378670814509
 30
0.0
 11
100.5276941475164
 21
168.7378670814509
 31
0.0
  0
LINE
  5
73B
330
581
100
AcDbEntity
  8
0
 62
     0
 48
10.0
100
AcDbLine
 10
102.2735144403491
 20
167.625656892173
 30
0.0
 11
102.2735144403491
 21
167.625656892173
 31
0.0
  0
LINE
  5
73C
330
581
100
AcDbEntity
  8
0
 62
     0
 48
10.0
100
AcDbLine
 10
102.6952101632556
 20
167.3570070879996
 30
0.0
 11
102.6952101632556
 21
167.3570070879996
 31
0.0
  0
LINE
  5
73D
330
581
100
AcDbEntity
  8
0
 62
     0
 48
10.0
100
AcDbLine
 10
99.85795264148674
 20
169.7995945311767
 30
0.0
 11
99.85795264148674
 21
169.7995945311767
 31
0.0
  0
LINE
  5
73E
330
581
100
AcDbEntity
  8
0
 62
     0
 48
10.0
100
AcDbLine
 10
100.2796483643932
 20
169.5309447270032
 30
0.0
 11
100.2796483643932
 21
169.5309447270032
 31
0.0
  0
LINE
  5
73F
330
581
100
AcDbEntity
  8
0
 62
     0
 48
10.0
100
AcDbLine
 10
101.5953390198612
 20
168.6927573379822
 30
0.0
 11
101.5953390198612
 21
168.6927573379822
 31
0.0
  0
LINE
  5
740
330
581
100
AcDbEntity
  8
0
 62
     0
 48
10.0
100
AcDbLine
 10
99.17977722099889
 20
170.8666949769858
 30
0.0
 11
99.17977722099889
 21
170.8666949769858
 31
0.0
  0
LINE
  5
741
330
581
100
AcDbEntity
  8
0
 62
     0
 48
10.0
100
AcDbLine
 10
100.9255975138315
 20
169.7544847877079
 30
0.0
 11
100.9255975138315
 21
169.7544847877079
 31
0.0
  0
LINE
  5
742
330
581
100
AcDbEntity
  8
0
 62
     0
 48
10.0
100
AcDbLine
 10
101.347293236738
 20
169.4858349835345
 30
0.0
 11
101.347293236738
 21
169.4858349835345
 31
0.0
  0
LINE
  5
743
330
581
100
AcDbEntity
  8
0
 62
     0
 48
10.0
100
AcDbLine
 10
102.6629838922061
 20
168.6476475945134
 30
0.0
 11
102.6629838922061
 21
168.6476475945134
 31
0.0
  0
LINE
  5
744
330
581
100
AcDbEntity
  8
0
 62
     0
 48
10.0
100
AcDbLine
 10
98.93173143787556
 20
171.6597726225381
 30
0.0
 11
98.93173143787556
 21
171.6597726225381
 31
0.0
  0
LINE
  5
745
330
581
100
AcDbEntity
  8
0
 62
     0
 48
10.0
100
AcDbLine
 10
100.2474220933436
 20
170.821585233517
 30
0.0
 11
100.2474220933436
 21
170.821585233517
 31
0.0
  0
LINE
  5
746
330
581
100
AcDbEntity
  8
0
 62
     0
 48
10.0
100
AcDbLine
 10
101.9932423861763
 20
169.7093750442391
 30
0.0
 11
101.9932423861763
 21
169.7093750442391
 31
0.0
  0
LINE
  5
747
330
581
100
AcDbEntity
  8
0
 62
     0
 48
10.0
100
AcDbLine
 10
102.4149381090827
 20
169.4407252400657
 30
0.0
 11
102.4149381090827
 21
169.4407252400657
 31
0.0
  0
LINE
  5
748
330
581
100
AcDbEntity
  8
0
 62
     0
 48
10.0
100
AcDbLine
 10
99.57768058731401
 20
171.8833126832427
 30
0.0
 11
99.57768058731401
 21
171.8833126832427
 31
0.0
  0
LINE
  5
749
330
581
100
AcDbEntity
  8
0
 62
     0
 48
10.0
100
AcDbLine
 10
99.99937631022046
 20
171.6146628790693
 30
0.0
 11
99.99937631022046
 21
171.6146628790693
 31
0.0
  0
LINE
  5
74A
330
581
100
AcDbEntity
  8
0
 62
     0
 48
10.0
100
AcDbLine
 10
101.3150669656885
 20
170.7764754900483
 30
0.0
 11
101.3150669656885
 21
170.7764754900483
 31
0.0
  0
LINE
  5
74B
330
581
100
AcDbEntity
  8
0
 62
     0
 48
10.0
100
AcDbLine
 10
103.0608872585211
 20
169.6642653007704
 30
0.0
 11
103.0608872585211
 21
169.6642653007704
 31
0.0
  0
LINE
  5
74C
330
581
100
AcDbEntity
  8
0
 62
     0
 48
10.0
100
AcDbLine
 10
98.8995051668261
 20
172.9504131290519
 30
0.0
 11
98.8995051668261
 21
172.9504131290519
 31
0.0
  0
LINE
  5
74D
330
581
100
AcDbEntity
  8
0
 62
     0
 48
10.0
100
AcDbLine
 10
100.6453254596588
 20
171.838202939774
 30
0.0
 11
100.6453254596588
 21
171.838202939774
 31
0.0
  0
LINE
  5
74E
330
581
100
AcDbEntity
  8
0
 62
     0
 48
10.0
100
AcDbLine
 10
101.0670211825652
 20
171.5695531356005
 30
0.0
 11
101.0670211825652
 21
171.5695531356005
 31
0.0
  0
LINE
  5
74F
330
581
100
AcDbEntity
  8
0
 62
     0
 48
10.0
100
AcDbLine
 10
102.3827118380333
 20
170.7313657465795
 30
0.0
 11
102.3827118380333
 21
170.7313657465795
 31
0.0
  0
LINE
  5
750
330
581
100
AcDbEntity
  8
0
 62
     0
 48
10.0
100
AcDbLine
 10
99.96715003917094
 20
172.9053033855832
 30
0.0
 11
99.96715003917094
 21
172.9053033855832
 31
0.0
  0
LINE
  5
751
330
581
100
AcDbEntity
  8
0
 62
     0
 48
10.0
100
AcDbLine
 10
101.7129703320036
 20
171.7930931963052
 30
0.0
 11
101.7129703320036
 21
171.7930931963052
 31
0.0
  0
LINE
  5
752
330
581
100
AcDbEntity
  8
0
 62
     0
 48
10.0
100
AcDbLine
 10
102.13466605491
 20
171.5244433921318
 30
0.0
 11
102.13466605491
 21
171.5244433921318
 31
0.0
  0
LINE
  5
753
330
581
100
AcDbEntity
  8
0
 62
     0
 48
10.0
100
AcDbLine
 10
101.0347949115157
 20
172.8601936421144
 30
0.0
 11
101.0347949115157
 21
172.8601936421144
 31
0.0
  0
LINE
  5
754
330
581
100
AcDbEntity
  8
0
 62
     0
 48
10.0
100
AcDbLine
 10
102.7806152043483
 20
171.7479834528365
 30
0.0
 11
102.7806152043483
 21
171.7479834528365
 31
0.0
  0
LINE
  5
755
330
581
100
AcDbEntity
  8
0
 62
     0
 48
10.0
100
AcDbLine
 10
102.1024397838605
 20
172.8150838986456
 30
0.0
 11
102.1024397838605
 21
172.8150838986456
 31
0.0
  0
LINE
  5
756
330
581
100
AcDbEntity
  8
0
 62
     0
 48
10.0
100
AcDbLine
 10
99.07057982331462
 20
167.7609861225793
 30
0.0
 11
99.07057982331462
 21
167.7609861225793
 31
0.0
  0
LINE
  5
757
330
581
100
AcDbEntity
  8
0
 62
     0
 48
10.0
100
AcDbLine
 10
99.49227554622106
 20
167.4923363184059
 30
0.0
 11
99.49227554622106
 21
167.4923363184059
 31
0.0
  0
LINE
  5
758
330
581
100
AcDbEntity
  8
0
 62
     0
 48
10.0
100
AcDbLine
 10
100.8079662016892
 20
166.6541489293849
 30
0.0
 11
100.8079662016892
 21
166.6541489293849
 31
0.0
  0
LINE
  5
759
330
581
100
AcDbEntity
  8
0
 62
     0
 48
10.0
100
AcDbLine
 10
102.5537864945219
 20
165.5419387401069
 30
0.0
 11
102.5537864945219
 21
165.5419387401069
 31
0.0
  0
LINE
  5
75A
330
581
100
AcDbEntity
  8
0
 62
     0
 48
10.0
100
AcDbLine
 10
102.9754822174283
 20
165.2732889359335
 30
0.0
 11
102.9754822174283
 21
165.2732889359335
 31
0.0
  0
LINE
  5
75B
330
581
100
AcDbEntity
  8
0
 62
     0
 48
10.0
100
AcDbLine
 10
98.42463067387638
 20
167.5374460618746
 30
0.0
 11
98.42463067387638
 21
167.5374460618746
 31
0.0
  0
LINE
  5
75C
330
581
100
AcDbEntity
  8
0
 62
     0
 48
10.0
100
AcDbLine
 10
99.74032132934448
 20
166.6992586728536
 30
0.0
 11
99.74032132934448
 21
166.6992586728536
 31
0.0
  0
LINE
  5
75D
330
581
100
AcDbEntity
  8
0
 62
     0
 48
10.0
100
AcDbLine
 10
101.4861416221771
 20
165.5870484835756
 30
0.0
 11
101.4861416221771
 21
165.5870484835756
 31
0.0
  0
LINE
  5
75E
330
581
100
AcDbEntity
  8
0
 62
     0
 48
10.0
100
AcDbLine
 10
101.9078373450836
 20
165.3183986794022
 30
0.0
 11
101.9078373450836
 21
165.3183986794022
 31
0.0
  0
LINE
  5
75F
330
581
100
AcDbEntity
  8
0
 62
     0
 48
10.0
100
AcDbLine
 10
103.2235280005517
 20
164.4802112903812
 30
0.0
 11
103.2235280005517
 21
164.4802112903812
 31
0.0
  0
LINE
  5
760
330
581
100
AcDbEntity
  8
0
 62
     0
 48
10.0
100
AcDbLine
 10
98.67267645699962
 20
166.7443684163223
 30
0.0
 11
98.67267645699962
 21
166.7443684163223
 31
0.0
  0
LINE
  5
761
330
581
100
AcDbEntity
  8
0
 62
     0
 48
10.0
100
AcDbLine
 10
100.4184967498323
 20
165.6321582270444
 30
0.0
 11
100.4184967498323
 21
165.6321582270444
 31
0.0
  0
LINE
  5
762
330
581
100
AcDbEntity
  8
0
 62
     0
 48
10.0
100
AcDbLine
 10
100.8401924727387
 20
165.3635084228709
 30
0.0
 11
100.8401924727387
 21
165.3635084228709
 31
0.0
  0
LINE
  5
763
330
581
100
AcDbEntity
  8
0
 62
     0
 48
10.0
100
AcDbLine
 10
102.1558831282068
 20
164.5253210338499
 30
0.0
 11
102.1558831282068
 21
164.5253210338499
 31
0.0
  0
LINE
  5
764
330
581
100
AcDbEntity
  8
0
 62
     0
 48
10.0
100
AcDbLine
 10
99.35085187748747
 20
165.6772679705132
 30
0.0
 11
99.35085187748747
 21
165.6772679705132
 31
0.0
  0
LINE
  5
765
330
581
100
AcDbEntity
  8
0
 62
     0
 48
10.0
100
AcDbLine
 10
99.77254760039393
 20
165.4086181663398
 30
0.0
 11
99.77254760039393
 21
165.4086181663398
 31
0.0
  0
LINE
  5
766
330
581
100
AcDbEntity
  8
0
 62
     0
 48
10.0
100
AcDbLine
 10
101.088238255862
 20
164.5704307773187
 30
0.0
 11
101.088238255862
 21
164.5704307773187
 31
0.0
  0
LINE
  5
767
330
581
100
AcDbEntity
  8
0
 62
     0
 48
10.0
100
AcDbLine
 10
102.8340585486947
 20
163.4582205880408
 30
0.0
 11
102.8340585486947
 21
163.4582205880408
 31
0.0
  0
LINE
  5
768
330
581
100
AcDbEntity
  8
0
 62
     0
 48
10.0
100
AcDbLine
 10
103.2557542716011
 20
163.1895707838674
 30
0.0
 11
103.2557542716011
 21
163.1895707838674
 31
0.0
  0
LINE
  5
769
330
581
100
AcDbEntity
  8
0
 62
     0
 48
10.0
100
AcDbLine
 10
98.28320700514268
 20
165.7223777139819
 30
0.0
 11
98.28320700514268
 21
165.7223777139819
 31
0.0
  0
LINE
  5
76A
330
581
100
AcDbEntity
  8
0
 62
     0
 48
10.0
100
AcDbLine
 10
98.70490272804914
 20
165.4537279098085
 30
0.0
 11
98.70490272804914
 21
165.4537279098085
 31
0.0
  0
LINE
  5
76B
330
581
100
AcDbEntity
  8
0
 62
     0
 48
10.0
100
AcDbLine
 10
100.0205933835172
 20
164.6155405207874
 30
0.0
 11
100.0205933835172
 21
164.6155405207874
 31
0.0
  0
LINE
  5
76C
330
581
100
AcDbEntity
  8
0
 62
     0
 48
10.0
100
AcDbLine
 10
101.7664136763499
 20
163.5033303315095
 30
0.0
 11
101.7664136763499
 21
163.5033303315095
 31
0.0
  0
LINE
  5
76D
330
581
100
AcDbEntity
  8
0
 62
     0
 48
10.0
100
AcDbLine
 10
102.1881093992563
 20
163.2346805273361
 30
0.0
 11
102.1881093992563
 21
163.2346805273361
 31
0.0
  0
LINE
  5
76E
330
581
100
AcDbEntity
  8
0
 62
     0
 48
10.0
100
AcDbLine
 10
103.5038000547244
 20
162.3964931383151
 30
0.0
 11
103.5038000547244
 21
162.3964931383151
 31
0.0
  0
LINE
  5
76F
330
581
100
AcDbEntity
  8
0
 62
     0
 48
10.0
100
AcDbLine
 10
98.95294851117235
 20
164.6606502642562
 30
0.0
 11
98.95294851117235
 21
164.6606502642562
 31
0.0
  0
LINE
  5
770
330
581
100
AcDbEntity
  8
0
 62
     0
 48
10.0
100
AcDbLine
 10
100.698768804005
 20
163.5484400749783
 30
0.0
 11
100.698768804005
 21
163.5484400749783
 31
0.0
  0
LINE
  5
771
330
581
100
AcDbEntity
  8
0
 62
     0
 48
10.0
100
AcDbLine
 10
101.1204645269114
 20
163.2797902708049
 30
0.0
 11
101.1204645269114
 21
163.2797902708049
 31
0.0
  0
LINE
  5
772
330
581
100
AcDbEntity
  8
0
 62
     0
 48
10.0
100
AcDbLine
 10
102.4361551823795
 20
162.4416028817839
 30
0.0
 11
102.4361551823795
 21
162.4416028817839
 31
0.0
  0
LINE
  5
773
330
581
100
AcDbEntity
  8
0
 62
     0
 48
10.0
100
AcDbLine
 10
97.88530363882754
 20
164.705760007725
 30
0.0
 11
97.88530363882754
 21
164.705760007725
 31
0.0
  0
LINE
  5
774
330
581
100
AcDbEntity
  8
0
 62
     0
 48
10.0
100
AcDbLine
 10
99.63112393166021
 20
163.5935498184471
 30
0.0
 11
99.63112393166021
 21
163.5935498184471
 31
0.0
  0
LINE
  5
775
330
581
100
AcDbEntity
  8
0
 62
     0
 48
10.0
100
AcDbLine
 10
100.0528196545666
 20
163.3249000142737
 30
0.0
 11
100.0528196545666
 21
163.3249000142737
 31
0.0
  0
LINE
  5
776
330
581
100
AcDbEntity
  8
0
 62
     0
 48
10.0
100
AcDbLine
 10
101.3685103100347
 20
162.4867126252526
 30
0.0
 11
101.3685103100347
 21
162.4867126252526
 31
0.0
  0
LINE
  5
777
330
581
100
AcDbEntity
  8
0
 62
     0
 48
10.0
100
AcDbLine
 10
98.56347905931544
 20
163.6386595619158
 30
0.0
 11
98.56347905931544
 21
163.6386595619158
 31
0.0
  0
LINE
  5
778
330
581
100
AcDbEntity
  8
0
 62
     0
 48
10.0
100
AcDbLine
 10
98.98517478222188
 20
163.3700097577424
 30
0.0
 11
98.98517478222188
 21
163.3700097577424
 31
0.0
  0
LINE
  5
779
330
581
100
AcDbEntity
  8
0
 62
     0
 48
10.0
100
AcDbLine
 10
100.30086543769
 20
162.5318223687214
 30
0.0
 11
100.30086543769
 21
162.5318223687214
 31
0.0
  0
LINE
  5
77A
330
581
100
AcDbEntity
  8
0
 62
     0
 48
10.0
100
AcDbLine
 10
102.0466857305226
 20
161.4196121794434
 30
0.0
 11
102.0466857305226
 21
161.4196121794434
 31
0.0
  0
LINE
  5
77B
330
581
100
AcDbEntity
  8
0
 62
     0
 48
10.0
100
AcDbLine
 10
97.91752990987703
 20
163.4151195012112
 30
0.0
 11
97.91752990987703
 21
163.4151195012112
 31
0.0
  0
LINE
  5
77C
330
581
100
AcDbEntity
  8
0
 62
     0
 48
10.0
100
AcDbLine
 10
99.23322056534514
 20
162.5769321121901
 30
0.0
 11
99.23322056534514
 21
162.5769321121901
 31
0.0
  0
LINE
  5
77D
330
581
100
AcDbEntity
  8
0
 62
     0
 48
10.0
100
AcDbLine
 10
100.9790408581778
 20
161.4647219229122
 30
0.0
 11
100.9790408581778
 21
161.4647219229122
 31
0.0
  0
LINE
  5
77E
330
581
100
AcDbEntity
  8
0
 62
     0
 48
10.0
100
AcDbLine
 10
98.16557569300028
 20
162.6220418556589
 30
0.0
 11
98.16557569300028
 21
162.6220418556589
 31
0.0
  0
LINE
  5
77F
330
581
100
AcDbEntity
  8
0
 62
     0
 48
10.0
100
AcDbLine
 10
99.91139598583295
 20
161.509831666381
 30
0.0
 11
99.91139598583295
 21
161.509831666381
 31
0.0
  0
LINE
  5
780
330
581
100
AcDbEntity
  8
0
 62
     0
 48
10.0
100
AcDbLine
 10
98.84375111348818
 20
161.5549414098497
 30
0.0
 11
98.84375111348818
 21
161.5549414098497
 31
0.0
  0
LINE
  5
781
330
581
100
AcDbEntity
  8
0
 62
     0
 48
10.0
100
AcDbLine
 10
97.77610624114331
 20
161.6000511533185
 30
0.0
 11
97.77610624114331
 21
161.6000511533185
 31
0.0
  0
LINE
  5
782
330
581
100
AcDbEntity
  8
0
 62
     0
 48
10.0
100
AcDbLine
 10
98.84949293201328
 20
168.9728044703517
 30
0.0
 11
98.84949293201328
 21
168.9728044703517
 31
0.0
  0
LINE
  5
783
330
581
100
AcDbEntity
  8
0
 62
     0
 48
10.0
100
AcDbLine
 10
99.32872320093986
 20
168.5336708354015
 30
0.0
 11
99.32872320093986
 21
168.5336708354015
 31
0.0
  0
LINE
  5
784
330
581
100
AcDbEntity
  8
0
 62
     0
 48
10.0
100
AcDbLine
 10
100.0925425218751
 20
167.8337593803117
 30
0.0
 11
100.0925425218751
 21
167.8337593803117
 31
0.0
  0
LINE
  5
785
330
581
100
AcDbEntity
  8
0
 62
     0
 48
10.0
100
AcDbLine
 10
101.176340206986
 20
166.8406417751166
 30
0.0
 11
101.176340206986
 21
166.8406417751166
 31
0.0
  0
LINE
  5
786
330
581
100
AcDbEntity
  8
0
 62
     0
 48
10.0
100
AcDbLine
 10
101.6555704759126
 20
166.4015081401665
 30
0.0
 11
101.6555704759126
 21
166.4015081401665
 31
0.0
  0
LINE
  5
787
330
581
100
AcDbEntity
  8
0
 62
     0
 48
10.0
100
AcDbLine
 10
102.4193897968479
 20
165.7015966850767
 30
0.0
 11
102.4193897968479
 21
165.7015966850767
 31
0.0
  0
LINE
  5
788
330
581
100
AcDbEntity
  8
0
 62
     0
 48
10.0
100
AcDbLine
 10
103.5031874819587
 20
164.7084790798816
 30
0.0
 11
103.5031874819587
 21
164.7084790798816
 31
0.0
  0
LINE
  5
789
330
581
100
AcDbEntity
  8
0
 62
     0
 48
10.0
100
AcDbLine
 10
98.93206758558715
 20
170.1661320402113
 30
0.0
 11
98.93206758558715
 21
170.1661320402113
 31
0.0
  0
LINE
  5
78A
330
581
100
AcDbEntity
  8
0
 62
     0
 48
10.0
100
AcDbLine
 10
100.015865270698
 20
169.1730144350163
 30
0.0
 11
100.015865270698
 21
169.1730144350163
 31
0.0
  0
LINE
  5
78B
330
581
100
AcDbEntity
  8
0
 62
     0
 48
10.0
100
AcDbLine
 10
100.4950955396246
 20
168.7338808000661
 30
0.0
 11
100.4950955396246
 21
168.7338808000661
 31
0.0
  0
LINE
  5
78C
330
581
100
AcDbEntity
  8
0
 62
     0
 48
10.0
100
AcDbLine
 10
101.2589148605599
 20
168.0339693449763
 30
0.0
 11
101.2589148605599
 21
168.0339693449763
 31
0.0
  0
LINE
  5
78D
330
581
100
AcDbEntity
  8
0
 62
     0
 48
10.0
100
AcDbLine
 10
102.3427125456707
 20
167.0408517397813
 30
0.0
 11
102.3427125456707
 21
167.0408517397813
 31
0.0
  0
LINE
  5
78E
330
581
100
AcDbEntity
  8
0
 62
     0
 48
10.0
100
AcDbLine
 10
102.8219428145973
 20
166.6017181048311
 30
0.0
 11
102.8219428145973
 21
166.6017181048311
 31
0.0
  0
LINE
  5
78F
330
581
100
AcDbEntity
  8
0
 62
     0
 48
10.0
100
AcDbLine
 10
98.85539033441011
 20
171.505387094916
 30
0.0
 11
98.85539033441011
 21
171.505387094916
 31
0.0
  0
LINE
  5
790
330
581
100
AcDbEntity
  8
0
 62
     0
 48
10.0
100
AcDbLine
 10
99.33462060333669
 20
171.0662534599658
 30
0.0
 11
99.33462060333669
 21
171.0662534599658
 31
0.0
  0
LINE
  5
791
330
581
100
AcDbEntity
  8
0
 62
     0
 48
10.0
100
AcDbLine
 10
100.0984399242719
 20
170.366342004876
 30
0.0
 11
100.0984399242719
 21
170.366342004876
 31
0.0
  0
LINE
  5
792
330
581
100
AcDbEntity
  8
0
 62
     0
 48
10.0
100
AcDbLine
 10
101.1822376093828
 20
169.3732243996809
 30
0.0
 11
101.1822376093828
 21
169.3732243996809
 31
0.0
  0
LINE
  5
793
330
581
100
AcDbEntity
  8
0
 62
     0
 48
10.0
100
AcDbLine
 10
101.6614678783094
 20
168.9340907647308
 30
0.0
 11
101.6614678783094
 21
168.9340907647308
 31
0.0
  0
LINE
  5
794
330
581
100
AcDbEntity
  8
0
 62
     0
 48
10.0
100
AcDbLine
 10
102.4252871992447
 20
168.2341793096409
 30
0.0
 11
102.4252871992447
 21
168.2341793096409
 31
0.0
  0
LINE
  5
795
330
581
100
AcDbEntity
  8
0
 62
     0
 48
10.0
100
AcDbLine
 10
98.93796498798401
 20
172.6987146647756
 30
0.0
 11
98.93796498798401
 21
172.6987146647756
 31
0.0
  0
LINE
  5
796
330
581
100
AcDbEntity
  8
0
 62
     0
 48
10.0
100
AcDbLine
 10
100.0217626730949
 20
171.7055970595806
 30
0.0
 11
100.0217626730949
 21
171.7055970595806
 31
0.0
  0
LINE
  5
797
330
581
100
AcDbEntity
  8
0
 62
     0
 48
10.0
100
AcDbLine
 10
100.5009929420214
 20
171.2664634246304
 30
0.0
 11
100.5009929420214
 21
171.2664634246304
 31
0.0
  0
LINE
  5
798
330
581
100
AcDbEntity
  8
0
 62
     0
 48
10.0
100
AcDbLine
 10
101.2648122629567
 20
170.5665519695406
 30
0.0
 11
101.2648122629567
 21
170.5665519695406
 31
0.0
  0
LINE
  5
799
330
581
100
AcDbEntity
  8
0
 62
     0
 48
10.0
100
AcDbLine
 10
102.3486099480676
 20
169.5734343643456
 30
0.0
 11
102.3486099480676
 21
169.5734343643456
 31
0.0
  0
LINE
  5
79A
330
581
100
AcDbEntity
  8
0
 62
     0
 48
10.0
100
AcDbLine
 10
102.8278402169942
 20
169.1343007293954
 30
0.0
 11
102.8278402169942
 21
169.1343007293954
 31
0.0
  0
LINE
  5
79B
330
581
100
AcDbEntity
  8
0
 62
     0
 48
10.0
100
AcDbLine
 10
100.1043373266687
 20
172.8989246294402
 30
0.0
 11
100.1043373266687
 21
172.8989246294402
 31
0.0
  0
LINE
  5
79C
330
581
100
AcDbEntity
  8
0
 62
     0
 48
10.0
100
AcDbLine
 10
101.1881350117796
 20
171.9058070242452
 30
0.0
 11
101.1881350117796
 21
171.9058070242452
 31
0.0
  0
LINE
  5
79D
330
581
100
AcDbEntity
  8
0
 62
     0
 48
10.0
100
AcDbLine
 10
101.6673652807062
 20
171.4666733892951
 30
0.0
 11
101.6673652807062
 21
171.4666733892951
 31
0.0
  0
LINE
  5
79E
330
581
100
AcDbEntity
  8
0
 62
     0
 48
10.0
100
AcDbLine
 10
102.4311846016415
 20
170.7667619342053
 30
0.0
 11
102.4311846016415
 21
170.7667619342053
 31
0.0
  0
LINE
  5
79F
330
581
100
AcDbEntity
  8
0
 62
     0
 48
10.0
100
AcDbLine
 10
101.2707096653535
 20
173.0991345941049
 30
0.0
 11
101.2707096653535
 21
173.0991345941049
 31
0.0
  0
LINE
  5
7A0
330
581
100
AcDbEntity
  8
0
 62
     0
 48
10.0
100
AcDbLine
 10
102.3545073504644
 20
172.1060169889099
 30
0.0
 11
102.3545073504644
 21
172.1060169889099
 31
0.0
  0
LINE
  5
7A1
330
581
100
AcDbEntity
  8
0
 62
     0
 48
10.0
100
AcDbLine
 10
102.833737619391
 20
171.6668833539598
 30
0.0
 11
102.833737619391
 21
171.6668833539598
 31
0.0
  0
LINE
  5
7A2
330
581
100
AcDbEntity
  8
0
 62
     0
 48
10.0
100
AcDbLine
 10
102.4370820040383
 20
173.2993445587695
 30
0.0
 11
102.4370820040383
 21
173.2993445587695
 31
0.0
  0
LINE
  5
7A3
330
581
100
AcDbEntity
  8
0
 62
     0
 48
10.0
100
AcDbLine
 10
98.92617018319038
 20
167.633549415647
 30
0.0
 11
98.92617018319038
 21
167.633549415647
 31
0.0
  0
LINE
  5
7A4
330
581
100
AcDbEntity
  8
0
 62
     0
 48
10.0
100
AcDbLine
 10
100.0099678683012
 20
166.640431810452
 30
0.0
 11
100.0099678683012
 21
166.640431810452
 31
0.0
  0
LINE
  5
7A5
330
581
100
AcDbEntity
  8
0
 62
     0
 48
10.0
100
AcDbLine
 10
100.4891981372278
 20
166.2012981755019
 30
0.0
 11
100.4891981372278
 21
166.2012981755019
 31
0.0
  0
LINE
  5
7A6
330
581
100
AcDbEntity
  8
0
 62
     0
 48
10.0
100
AcDbLine
 10
101.2530174581631
 20
165.501386720412
 30
0.0
 11
101.2530174581631
 21
165.501386720412
 31
0.0
  0
LINE
  5
7A7
330
581
100
AcDbEntity
  8
0
 62
     0
 48
10.0
100
AcDbLine
 10
102.336815143274
 20
164.508269115217
 30
0.0
 11
102.336815143274
 21
164.508269115217
 31
0.0
  0
LINE
  5
7A8
330
581
100
AcDbEntity
  8
0
 62
     0
 48
10.0
100
AcDbLine
 10
102.8160454122006
 20
164.0691354802668
 30
0.0
 11
102.8160454122006
 21
164.0691354802668
 31
0.0
  0
LINE
  5
7A9
330
581
100
AcDbEntity
  8
0
 62
     0
 48
10.0
100
AcDbLine
 10
103.5798647331358
 20
163.369224025177
 30
0.0
 11
103.5798647331358
 21
163.369224025177
 31
0.0
  0
LINE
  5
7AA
330
581
100
AcDbEntity
  8
0
 62
     0
 48
10.0
100
AcDbLine
 10
98.84359552961649
 20
166.4402218457874
 30
0.0
 11
98.84359552961649
 21
166.4402218457874
 31
0.0
  0
LINE
  5
7AB
330
581
100
AcDbEntity
  8
0
 62
     0
 48
10.0
100
AcDbLine
 10
99.32282579854309
 20
166.0010882108372
 30
0.0
 11
99.32282579854309
 21
166.0010882108372
 31
0.0
  0
LINE
  5
7AC
330
581
100
AcDbEntity
  8
0
 62
     0
 48
10.0
100
AcDbLine
 10
100.0866451194783
 20
165.3011767557474
 30
0.0
 11
100.0866451194783
 21
165.3011767557474
 31
0.0
  0
LINE
  5
7AD
330
581
100
AcDbEntity
  8
0
 62
     0
 48
10.0
100
AcDbLine
 10
101.1704428045892
 20
164.3080591505524
 30
0.0
 11
101.1704428045892
 21
164.3080591505524
 31
0.0
  0
LINE
  5
7AE
330
581
100
AcDbEntity
  8
0
 62
     0
 48
10.0
100
AcDbLine
 10
101.6496730735158
 20
163.8689255156022
 30
0.0
 11
101.6496730735158
 21
163.8689255156022
 31
0.0
  0
LINE
  5
7AF
330
581
100
AcDbEntity
  8
0
 62
     0
 48
10.0
100
AcDbLine
 10
102.4134923944511
 20
163.1690140605124
 30
0.0
 11
102.4134923944511
 21
163.1690140605124
 31
0.0
  0
LINE
  5
7B0
330
581
100
AcDbEntity
  8
0
 62
     0
 48
10.0
100
AcDbLine
 10
103.497290079562
 20
162.1758964553174
 30
0.0
 11
103.497290079562
 21
162.1758964553174
 31
0.0
  0
LINE
  5
7B1
330
581
100
AcDbEntity
  8
0
 62
     0
 48
10.0
100
AcDbLine
 10
98.15645345985831
 20
165.8008782461725
 30
0.0
 11
98.15645345985831
 21
165.8008782461725
 31
0.0
  0
LINE
  5
7B2
330
581
100
AcDbEntity
  8
0
 62
     0
 48
10.0
100
AcDbLine
 10
98.9202727807936
 20
165.1009667910827
 30
0.0
 11
98.9202727807936
 21
165.1009667910827
 31
0.0
  0
LINE
  5
7B3
330
581
100
AcDbEntity
  8
0
 62
     0
 48
10.0
100
AcDbLine
 10
100.0040704659044
 20
164.1078491858877
 30
0.0
 11
100.0040704659044
 21
164.1078491858877
 31
0.0
  0
LINE
  5
7B4
330
581
100
AcDbEntity
  8
0
 62
     0
 48
10.0
100
AcDbLine
 10
100.483300734831
 20
163.6687155509375
 30
0.0
 11
100.483300734831
 21
163.6687155509375
 31
0.0
  0
LINE
  5
7B5
330
581
100
AcDbEntity
  8
0
 62
     0
 48
10.0
100
AcDbLine
 10
101.2471200557663
 20
162.9688040958477
 30
0.0
 11
101.2471200557663
 21
162.9688040958477
 31
0.0
  0
LINE
  5
7B6
330
581
100
AcDbEntity
  8
0
 62
     0
 48
10.0
100
AcDbLine
 10
102.3309177408772
 20
161.9756864906527
 30
0.0
 11
102.3309177408772
 21
161.9756864906527
 31
0.0
  0
LINE
  5
7B7
330
581
100
AcDbEntity
  8
0
 62
     0
 48
10.0
100
AcDbLine
 10
102.8101480098038
 20
161.5365528557025
 30
0.0
 11
102.8101480098038
 21
161.5365528557025
 31
0.0
  0
LINE
  5
7B8
330
581
100
AcDbEntity
  8
0
 62
     0
 48
10.0
100
AcDbLine
 10
98.8376981272197
 20
163.9076392212231
 30
0.0
 11
98.8376981272197
 21
163.9076392212231
 31
0.0
  0
LINE
  5
7B9
330
581
100
AcDbEntity
  8
0
 62
     0
 48
10.0
100
AcDbLine
 10
99.31692839614628
 20
163.4685055862729
 30
0.0
 11
99.31692839614628
 21
163.4685055862729
 31
0.0
  0
LINE
  5
7BA
330
581
100
AcDbEntity
  8
0
 62
     0
 48
10.0
100
AcDbLine
 10
100.0807477170815
 20
162.7685941311831
 30
0.0
 11
100.0807477170815
 21
162.7685941311831
 31
0.0
  0
LINE
  5
7BB
330
581
100
AcDbEntity
  8
0
 62
     0
 48
10.0
100
AcDbLine
 10
101.1645454021924
 20
161.775476525988
 30
0.0
 11
101.1645454021924
 21
161.775476525988
 31
0.0
  0
LINE
  5
7BC
330
581
100
AcDbEntity
  8
0
 62
     0
 48
10.0
100
AcDbLine
 10
98.15055605746151
 20
163.2682956216082
 30
0.0
 11
98.15055605746151
 21
163.2682956216082
 31
0.0
  0
LINE
  5
7BD
330
581
100
AcDbEntity
  8
0
 62
     0
 48
10.0
100
AcDbLine
 10
98.91437537839678
 20
162.5683841665184
 30
0.0
 11
98.91437537839678
 21
162.5683841665184
 31
0.0
  0
LINE
  5
7BE
330
581
100
AcDbEntity
  8
0
 62
     0
 48
10.0
100
AcDbLine
 10
99.99817306350767
 20
161.5752665613234
 30
0.0
 11
99.99817306350767
 21
161.5752665613234
 31
0.0
  0
LINE
  5
7BF
330
581
100
AcDbEntity
  8
0
 62
     0
 48
10.0
100
AcDbLine
 10
97.74800303971204
 20
162.3681742018538
 30
0.0
 11
97.74800303971204
 21
162.3681742018538
 31
0.0
  0
ENDBLK
  5
7C1
330
581
100
AcDbEntity
  8
0
 48
10.0
100
AcDbBlockEnd
  0
BLOCK
  5
184F
330
184D
100
AcDbEntity
  8
0
 48
10.0
100
AcDbBlockBegin
  2
GENAXEH
 70
     0
 10
0.0
 20
0.0
 30
0.0
  3
GENAXEH
  1

  0
LINE
  5
184E
330
184D
100
AcDbEntity
  8
0
100
AcDbLine
 10
-1.0
 20
0.0
 30
0.0
 11
1.0
 21
0.0
 31
0.0
  0
ENDBLK
  5
1850
330
184D
100
AcDbEntity
  8
0
 48
10.0
100
AcDbBlockEnd
  0
BLOCK
  5
1874
330
1870
100
AcDbEntity
  8
0
 48
10.0
100
AcDbBlockBegin
  2
_Open30
 70
     0
 10
0.0
 20
0.0
 30
0.0
  3
_Open30
  1

  0
LINE
  5
1871
330
1870
100
AcDbEntity
  8
0
  6
ByBlock
 62
     0
370
    -2
100
AcDbLine
 10
-1.0
 20
0.26794919
 30
0.0
 11
0.0
 21
0.0
 31
0.0
  0
LINE
  5
1872
330
1870
100
AcDbEntity
  8
0
  6
ByBlock
 62
     0
370
    -2
100
AcDbLine
 10
0.0
 20
0.0
 30
0.0
 11
-1.0
 21
-0.26794919
 31
0.0
  0
LINE
  5
1873
330
1870
100
AcDbEntity
  8
0
  6
ByBlock
 62
     0
370
    -2
100
AcDbLine
 10
0.0
 20
0.0
 30
0.0
 11
-1.0
 21
0.0
 31
0.0
  0
ENDBLK
  5
1875
330
1870
100
AcDbEntity
  8
0
 48
10.0
100
AcDbBlockEnd
  0
ENDSEC
  0
SECTION
  2
ENTITIES
  0
ARC
  5
A0F
330
2
100
AcDbEntity
  8
0
100
AcDbCircle
 10
648.2145721345063
 20
382.9411758402471
 30
0.0
 40
10.0
100
AcDbArc
 50
48.59037789073025
 51
90.0
1001
ACAD
1000
ASC_BOUNDS
1002
{
1070
    19
1002
}
  0
LINE
  5
A10
330
2
100
AcDbEntity
  8
LINIE
 48
10.0
100
AcDbLine
 10
636.2478469638877
 20
387.9411758402471
 30
0.0
 11
659.2028823905043
 21
387.9411758402471
 31
0.0
  0
LINE
  5
A11
330
2
100
AcDbEntity
  8
LINIE
 48
10.0
100
AcDbLine
 10
654.4200066207549
 20
387.9411758402471
 30
0.0
 11
636.2880735007193
 21
387.9411758402471
 31
0.0
  0
LINE
  5
A12
330
2
100
AcDbEntity
  8
0
100
AcDbLine
 10
634.8748261723508
 20
331.9411758402471
 30
0.0
 11
651.2145721345063
 21
331.9411758402471
 31
0.0
  0
ARC
  5
A13
330
2
100
AcDbEntity
  8
0
100
AcDbCircle
 10
648.2145721345063
 20
270.9411758402471
 30
0.0
 40
10.0
100
AcDbArc
 50
270.0
 51
311.4096221092698
1001
ACAD
1000
ASC_BOUNDS
1002
{
1070
    19
1002
}
  0
LINE
  5
A14
330
2
100
AcDbEntity
  8
LINIE
 48
10.0
100
AcDbLine
 10
636.2478469638877
 20
265.9411758402471
 30
0.0
 11
659.2028823905043
 21
265.9411758402471
 31
0.0
  0
LINE
  5
A19
330
2
100
AcDbEntity
  8
MITTE
 48
15.0
100
AcDbLine
 10
566.5325977128339
 20
326.9411758402471
 30
0.0
 11
925.6227091710794
 21
326.9411758402471
 31
0.0
  0
LINE
  5
A1E
330
2
100
AcDbEntity
  8
0
100
AcDbLine
 10
203.4698588256981
 20
422.9975250263509
 30
0.0
 11
203.4698588256981
 21
403.2738640958882
 31
0.0
  0
LINE
  5
A1F
330
2
100
AcDbEntity
  8
0
100
AcDbLine
 10
193.4698588256981
 20
422.9975250263509
 30
0.0
 11
193.4698588256981
 21
403.2738640958882
 31
0.0
  0
ARC
  5
A20
330
2
100
AcDbEntity
  8
0
100
AcDbCircle
 10
110.0815111773797
 20
435.8858726746693
 30
0.0
 40
65.0
100
AcDbArc
 50
319.2477660926225
 51
357.7694271590571
  0
ARC
  5
A21
330
2
100
AcDbEntity
  8
0
100
AcDbCircle
 10
286.8582064740169
 20
435.8858726746693
 30
0.0
 40
65.0
100
AcDbArc
 50
182.2305728409429
 51
228.7467412799719
  0
ARC
  5
A22
330
2
100
AcDbEntity
  8
0
100
AcDbCircle
 10
198.4698588256981
 20
347.497525026351
 30
0.0
 40
89.0
100
AcDbArc
 50
15.26856469885017
 51
74.73143530114983
  0
ARC
  5
A23
330
2
100
AcDbEntity
  8
0
100
AcDbCircle
 10
198.4698588256981
 20
347.497525026351
 30
0.0
 40
89.0
100
AcDbArc
 50
105.2685646988501
 51
164.7314353011498
  0
LINE
  5
A24
330
2
100
AcDbEntity
  8
MITTE
 48
20.0
100
AcDbLine
 10
198.4698588256981
 20
444.1271336943536
 30
0.0
 11
198.4698588256981
 21
221.7706681158134
 31
0.0
  0
ARC
  5
A25
330
2
100
AcDbEntity
  8
0
100
AcDbCircle
 10
198.4698588256981
 20
347.497525026351
 30
0.0
 40
90.0
100
AcDbArc
 50
317.1708262854232
 51
204.4415405741396
  0
ARC
  5
A26
330
2
100
AcDbEntity
  8
0
100
AcDbCircle
 10
198.4698588256981
 20
347.497525026351
 30
0.0
 40
56.0
100
AcDbArc
 50
62.70168236142517
 51
108.489625507103
  0
ARC
  5
A27
330
2
100
AcDbEntity
  8
0
100
AcDbCircle
 10
198.4698588256981
 20
347.497525026351
 30
0.0
 40
48.0
100
AcDbArc
 50
30.25955070531435
 51
149.7404492946856
  0
ARC
  5
A28
330
2
100
AcDbEntity
  8
0
100
AcDbCircle
 10
198.4698588256981
 20
326.9411758402471
 30
0.0
 40
61.0
100
AcDbArc
 50
0.0
 51
180.0
1001
ACAD
1000
ASC_BOUNDS
1002
{
1070
    19
1005
0
1002
}
  0
LINE
  5
A29
330
2
100
AcDbEntity
  8
MITTE
 48
20.0
100
AcDbLine
 10
234.2740027624989
 20
347.497525026351
 30
0.0
 11
104.742782636046
 21
347.497525026351
 31
0.0
  0
LINE
  5
A2A
330
2
100
AcDbEntity
  8
MITTE
 48
10.0
100
AcDbLine
 10
129.4433560718414
 20
326.9411758402471
 30
0.0
 11
265.9881375943871
 21
326.9411758402471
 31
0.0
  0
LINE
  5
A2B
330
2
100
AcDbEntity
  8
MITTE
 48
10.0
100
AcDbLine
 10
129.4433560718414
 20
326.9411758402471
 30
0.0
 11
265.9881375943871
 21
326.9411758402471
 31
0.0
  0
LINE
  5
A2C
330
2
100
AcDbEntity
  8
0
100
AcDbLine
 10
198.4698588256981
 20
244.497525026351
 30
0.0
 11
180.9698588256981
 21
244.497525026351
 31
0.0
  0
LINE
  5
A2D
330
2
100
AcDbEntity
  8
0
100
AcDbLine
 10
172.0238132451215
 20
256.9411758402471
 30
0.0
 11
225.6817558504983
 21
256.9411758402471
 31
0.0
  0
LINE
  5
A2E
330
2
100
AcDbEntity
  8
0
100
AcDbLine
 10
176.020369082915
 20
245.9411758402461
 30
0.0
 11
220.9193485684811
 21
245.9411758402461
 31
0.0
  0
LINE
  5
A33
330
2
100
AcDbEntity
  8
0
100
AcDbLine
 10
139.9698588256981
 20
256.9411758402471
 30
0.0
 11
256.9698588256981
 21
256.9411758402471
 31
0.0
1001
ACAD
1000
ASC_BOUNDS
1002
{
1070
    19
1005
0
1002
}
  0
CIRCLE
  5
A35
330
2
100
AcDbEntity
  8
MITTE
 48
10.0
100
AcDbCircle
 10
198.4698588256981
 20
326.9411758402471
 30
0.0
 40
55.0
  0
CIRCLE
  5
A36
330
2
100
AcDbEntity
  8
0
100
AcDbCircle
 10
198.4698588256981
 20
326.9411758402471
 30
0.0
 40
45.49999999999999
  0
CIRCLE
  5
A37
330
2
100
AcDbEntity
  8
0
100
AcDbCircle
 10
198.4698588256981
 20
326.9411758402471
 30
0.0
 40
47.5
  0
HATCH
  5
A38
330
2
100
AcDbEntity
  8
LINIE
 48
10.0
100
AcDbHatch
 10
0.0
 20
0.0
 30
0.0
210
0.0
220
0.0
230
1.0
  2
AR-CONC
 70
     0
 71
     0
 91
        4
 92
        7
 72
     1
 73
     1
 93
        6
 10
249.9537658185361
 20
291.6911758402471
 42
0.0
 10
248.2537668683578
 20
291.6911758402471
 42
-0.243307867483704
 10
198.4698588256981
 20
265.9411758402471
 42
0.0
 10
198.4698588256981
 20
256.9411758402471
 42
0.0
 10
218.7479843626158
 20
256.9411758402471
 42
0.1804963181033816
 10
225.2988301283865
 20
259.3856202846914
 42
0.1026679893051984
 97
        0
 92
        7
 72
     1
 73
     1
 93
        6
 10
198.4698588256981
 20
265.9411758402471
 42
-0.2433078674837039
 10
148.6859507830384
 20
291.6911758402471
 42
0.0
 10
146.9859518328603
 20
291.6911758402471
 42
0.1026679893051985
 10
171.6408875230099
 20
259.3856202846914
 42
0.1804963181033798
 10
178.1917332887803
 20
256.9411758402471
 42
0.0
 10
198.4698588256981
 20
256.9411758402471
 42
0.0
 97
        0
 92
        7
 72
     1
 73
     1
 93
        6
 10
198.4698588256981
 20
256.9411758402471
 42
0.0
 10
173.4698588256981
 20
256.9411758402471
 42
-0.4142135623730951
 10
175.9698588256981
 20
254.4411758402471
 42
0.0
 10
175.9698588256981
 20
246.4411758402471
 42
0.0503820444849776
 10
176.0203690829153
 20
245.9411758402461
 42
0.0
 10
198.4698588256981
 20
245.9411758402461
 42
0.0
 97
        0
 92
        7
 72
     1
 73
     1
 93
        6
 10
220.9698588256981
 20
254.4411758402471
 42
-0.4142135623730951
 10
223.4698588256981
 20
256.9411758402471
 42
0.0
 10
198.4698588256981
 20
256.9411758402471
 42
0.0
 10
198.4698588256981
 20
245.9411758402461
 42
0.0
 10
220.9193485684811
 20
245.9411758402461
 42
0.0503820444849763
 10
220.9698588256981
 20
246.4411758402471
 42
0.0
 97
        0
 75
     0
 76
     1
 52
0.0
 41
1.0
 77
     0
 78
    13
 53
50.0
 43
237.8381172366414
 44
1.231466118493699
 45
7.172601826007534
 46
-0.6275213498259511
 79
     2
 49
0.75
 49
-8.25
 53
355.0
 43
237.8381172366414
 44
1.231466118493699
 45
-1.38751333613
 46
7.521921337000118
 79
     2
 49
0.6
 49
-6.599999999999999
 53
100.4514
 43
238.4358340366414
 44
1.179172718493646
 45
5.785093817140215
 46
6.894395420609535
 79
     2
 49
0.6374018999999988
 49
-7.011421119999988
 53
46.1842
 43
237.8381172366414
 44
3.231466118493699
 45
10.67241048625644
 46
-1.65519014329018
 79
     2
 49
1.125
 49
-12.375
 53
96.63559999999998
 43
238.7274846866414
 44
3.093533048493554
 45
9.346627055487033
 46
9.741178709004417
 79
     2
 49
0.9561028799999984
 49
-10.51712999999997
 53
351.1842000000001
 43
237.8381172366414
 44
3.231466118493699
 45
9.346619451336271
 46
9.741186009253246
 79
     2
 49
0.9
 49
-9.9
 53
21.0
 43
238.8381172366414
 44
2.731466118493699
 45
5.969070521184616
 46
-4.026188906653388
 79
     2
 49
0.75
 49
-8.25
 53
326.0
 43
238.8381172366414
 44
2.731466118493699
 45
2.433153319215817
 46
7.25150045046853
 79
     2
 49
0.6
 49
-6.599999999999999
 53
71.45140000000001
 43
239.3355395666413
 44
2.395950058493554
 45
8.402226285814899
 46
3.225304967099523
 79
     2
 49
0.6374019000000001
 49
-7.011421119999999
 53
37.5
 43
237.8381172366414
 44
1.231466118493699
 45
0.1215985531729067
 46
3.328938538313114
 79
     6
 49
0.0
 49
-6.519999999999999
 49
0.0
 49
-6.7
 49
0.0
 49
-6.625
 53
7.499999999999999
 43
237.8381172366414
 44
1.231466118493699
 45
2.630695374421486
 46
3.944117118823602
 79
     6
 49
0.0
 49
-3.819999999999999
 49
0.0
 49
-6.37
 49
0.0
 49
-2.524999999999999
 53
327.5
 43
235.6081172366414
 44
1.231466118493699
 45
5.33822436172409
 46
-0.225548717343798
 79
     6
 49
0.0
 49
-2.5
 49
0.0
 49
-7.799999999999999
 49
0.0
 49
-10.35
 53
317.5
 43
234.6081172366414
 44
1.231466118493699
 45
5.831861693423862
 46
1.001049823323176
 79
     6
 49
0.0
 49
-3.25
 49
0.0
 49
-5.179999999999999
 49
0.0
 49
-7.349999999999999
 47
0.2899962470445532
 98
        4
 10
218.9411224820535
 20
263.7175776734066
 10
187.9009525379622
 20
263.4275807290296
 10
192.5424736343041
 20
251.8277322419126
 10
211.1085550809705
 20
248.3477772773781
  0
ARC
  5
A39
330
2
100
AcDbEntity
  8
0
100
AcDbCircle
 10
198.4698588256981
 20
326.9411758402471
 30
0.0
 40
61.0
100
AcDbArc
 50
203.3712029743074
 51
336.6287970256927
  0
LINE
  5
A3A
330
2
100
AcDbEntity
  8
MITTE
 48
5.0
100
AcDbLine
 10
141.1805184827119
 20
357.497525026351
 30
0.0
 11
132.5189920796372
 21
357.497525026351
 31
0.0
  0
CIRCLE
  5
A3B
330
2
100
AcDbEntity
  8
0
100
AcDbCircle
 10
136.4698588256981
 20
357.497525026351
 30
0.0
 40
1.95
  0
ARC
  5
A3C
330
2
100
AcDbEntity
  8
0
100
AcDbCircle
 10
198.4698588256981
 20
326.9411758402471
 30
0.0
 40
65.81669415865359
100
AcDbArc
 50
179.5853943548328
 51
202.0561142201601
  0
ARC
  5
A3D
330
2
100
AcDbEntity
  8
0
100
AcDbCircle
 10
140.6504289520774
 20
327.1503742038585
 30
0.0
 40
8.0
100
AcDbArc
 50
109.625453741556
 51
181.4984437231766
  0
ARC
  5
A3E
330
2
100
AcDbEntity
  8
0
100
AcDbCircle
 10
140.4698588256981
 20
374.497525026351
 30
0.0
 40
12.0
100
AcDbArc
 50
108.489625507103
 51
169.6466799560699
  0
LINE
  5
A3F
330
2
100
AcDbEntity
  8
MITTE
 48
10.0
100
AcDbLine
 10
145.1020359717633
 20
374.497525026351
 30
0.0
 11
126.2937783052691
 21
374.497525026351
 31
0.0
  0
LINE
  5
A40
330
2
100
AcDbEntity
  8
0
100
AcDbLine
 10
137.9698588256981
 20
252.508611200698
 30
0.0
 11
117.756450313401
 21
259.0865392135124
 31
0.0
  0
ARC
  5
A41
330
2
100
AcDbEntity
  8
0
100
AcDbCircle
 10
237.1493451807153
 20
334.9411758402471
 30
0.0
 40
100.0
100
AcDbArc
 50
184.5885657357819
 51
229.0739366903921
1001
ACAD
1000
ASC_BOUNDS
1002
{
1070
    19
1005
0
1002
}
  0
LINE
  5
A42
330
2
100
AcDbEntity
  8
0
100
AcDbLine
 10
128.6652402249317
 20
376.6541380399526
 30
0.0
 11
109.6652402249317
 21
272.6541380399526
 31
0.0
  0
ARC
  5
A43
330
2
100
AcDbEntity
  8
0
100
AcDbCircle
 10
121.4698588256981
 20
270.497525026351
 30
0.0
 40
12.0
100
AcDbArc
 50
169.6466799560699
 51
251.9738691867117
  0
LINE
  5
A44
330
2
100
AcDbEntity
  8
MITTE
 48
10.0
100
AcDbLine
 10
121.4698588256981
 20
276.543467269189
 30
0.0
 11
121.4698588256981
 21
258.0393741508665
 31
0.0
  0
TEXT
  5
A45
330
2
100
AcDbEntity
  8
0
100
AcDbText
 10
125.3983383463321
 20
232.5995719643238
 30
0.0
 40
10.0
  1
L
100
AcDbText
  0
LINE
  5
A46
330
2
100
AcDbEntity
  8
MITTE
 48
10.0
100
AcDbLine
 10
126.206801727257
 20
270.497525026351
 30
0.0
 11
107.733641736015
 21
270.497525026351
 31
0.0
  0
ARC
  5
A47
330
2
100
AcDbEntity
  8
LINIE
 48
10.0
100
AcDbCircle
 10
121.4698588256981
 20
270.497525026351
 30
0.0
 40
4.0
100
AcDbArc
 50
81.14562423575103
 51
16.65070178048212
  0
CIRCLE
  5
A48
330
2
100
AcDbEntity
  8
0
100
AcDbCircle
 10
121.4698588256981
 20
270.497525026351
 30
0.0
 40
3.3235
  0
ARC
  5
A49
330
2
100
AcDbEntity
  8
0
100
AcDbCircle
 10
198.4698588256981
 20
347.497525026351
 30
0.0
 40
88.0
100
AcDbArc
 50
164.5202251796857
 51
202.5209141936052
  0
ARC
  5
A4A
330
2
100
AcDbEntity
  8
0
100
AcDbCircle
 10
110.0815111773797
 20
435.8858726746693
 30
0.0
 40
65.0
100
AcDbArc
 50
272.2305728409558
 51
286.0711476672064
  0
LINE
  5
A4B
330
2
100
AcDbEntity
  8
0
100
AcDbLine
 10
137.4698588256981
 20
326.9411758402475
 30
0.0
 11
137.4698588256981
 21
259.4411758402471
 31
0.0
  0
LINE
  5
A4C
330
2
100
AcDbEntity
  8
0
100
AcDbLine
 10
137.4698588256981
 20
326.9411758402471
 30
0.0
 11
137.4698588256981
 21
259.4411758402471
 31
0.0
  0
LINE
  5
A4D
330
2
100
AcDbEntity
  8
0
100
AcDbLine
 10
158.2510480278026
 20
246.6904824663952
 30
0.0
 11
162.6886696235935
 21
246.6904824663952
 31
0.0
  0
LINE
  5
A4E
330
2
100
AcDbEntity
  8
0
100
AcDbLine
 10
158.2510480278026
 20
228.3465697524785
 30
0.0
 11
162.6886696235935
 21
228.3465697524785
 31
0.0
  0
LINE
  5
A4F
330
2
100
AcDbEntity
  8
0
100
AcDbLine
 10
182.9698588256981
 20
256.9411758402471
 30
0.0
 11
137.9698588256981
 21
256.9411758402471
 31
0.0
1001
ACAD
1000
ASC_BOUNDS
1002
{
1070
    19
1002
}
  0
LINE
  5
A50
330
2
100
AcDbEntity
  8
0
100
AcDbLine
 10
179.9698588256981
 20
226.9411758402471
 30
0.0
 11
140.9698588256981
 21
226.9411758402471
 31
0.0
1001
ACAD
1000
ASC_BOUNDS
1002
{
1070
    19
1005
0
1002
}
  0
LINE
  5
A51
330
2
100
AcDbEntity
  8
0
100
AcDbLine
 10
137.9698588256981
 20
248.0958763786266
 30
0.0
 11
175.9698588256985
 21
248.0958763786262
 31
0.0
  0
ARC
  5
A52
330
2
100
AcDbEntity
  8
0
100
AcDbCircle
 10
150.2198588256981
 20
250.5911758402472
 30
0.0
 40
23.65000000000001
100
AcDbArc
 50
250.1483977684155
 51
289.8516022315845
  0
ARC
  5
A53
330
2
100
AcDbEntity
  8
0
100
AcDbCircle
 10
150.2198588256981
 20
224.4458763786265
 30
0.0
 40
23.65000000000001
100
AcDbArc
 50
70.14839776841552
 51
109.8516022315845
  0
LINE
  5
A54
330
2
100
AcDbEntity
  8
0
100
AcDbLine
 10
137.9698588256981
 20
248.0958763786266
 30
0.0
 11
137.9698588256981
 21
256.9411758402471
 31
0.0
1001
ACAD
1000
ASC_BOUNDS
1002
{
1070
    19
1002
}
  0
LINE
  5
A55
330
2
100
AcDbEntity
  8
0
100
AcDbLine
 10
139.9698588256981
 20
246.9411758402471
 30
0.0
 11
137.9698588256981
 21
248.0958763786266
 31
0.0
1001
ACAD
1000
ASC_BOUNDS
1002
{
1070
    19
1002
}
  0
LINE
  5
A56
330
2
100
AcDbEntity
  8
0
100
AcDbLine
 10
139.9698588256981
 20
246.9411758402471
 30
0.0
 11
142.1886696235936
 21
246.6904824663952
 31
0.0
  0
ARC
  5
A57
330
2
100
AcDbEntity
  8
0
100
AcDbCircle
 10
139.9698588256981
 20
259.4411758402471
 30
0.0
 40
2.5
100
AcDbArc
 50
180.0
 51
270.0
  0
ARC
  5
A58
330
2
100
AcDbEntity
  8
0
100
AcDbCircle
 10
139.9698588256981
 20
259.4411758402471
 30
0.0
 40
2.5
100
AcDbArc
 50
180.0
 51
270.0
  0
LINE
  5
A59
330
2
100
AcDbEntity
  8
0
100
AcDbLine
 10
139.9698588256981
 20
227.9411758402471
 30
0.0
 11
140.9698588256981
 21
226.9411758402471
 31
0.0
1001
ACAD
1000
ASC_BOUNDS
1002
{
1070
    19
1002
}
  0
LINE
  5
A5A
330
2
100
AcDbEntity
  8
0
100
AcDbLine
 10
139.9698588256981
 20
227.9411758402471
 30
0.0
 11
142.1886696235936
 21
228.3465697524785
 31
0.0
  0
LINE
  5
A5B
330
2
100
AcDbEntity
  8
0
100
AcDbLine
 10
139.9698588256981
 20
227.9411758402471
 30
0.0
 11
139.9698588256981
 21
246.9411758402471
 31
0.0
1001
ACAD
1000
ASC_BOUNDS
1002
{
1070
    19
1002
}
  0
LINE
  5
A5C
330
2
100
AcDbEntity
  8
0
100
AcDbLine
 10
142.1886696235936
 20
228.3465697524785
 30
0.0
 11
142.1886696235936
 21
246.6904824663952
 31
0.0
  0
LINE
  5
A5D
330
2
100
AcDbEntity
  8
0
100
AcDbLine
 10
158.2510480278026
 20
228.3465697524785
 30
0.0
 11
158.2510480278026
 21
246.6904824663952
 31
0.0
  0
LINE
  5
A5E
330
2
100
AcDbEntity
  8
MITTE
 48
7.0
100
AcDbLine
 10
160.4698588256981
 20
223.8834152326408
 30
0.0
 11
160.4698588256981
 21
260.2744500707377
 31
0.0
  0
CIRCLE
  5
A5F
330
2
100
AcDbEntity
  8
0
100
AcDbCircle
 10
150.8384616175542
 20
299.4411758402471
 30
0.0
 40
5.0
  0
ARC
  5
A60
330
2
100
AcDbEntity
  8
0
100
AcDbCircle
 10
173.4698588256981
 20
254.4411758402471
 30
0.0
 40
2.5
100
AcDbArc
 50
0.0
 51
90.0
  0
ARC
  5
A61
330
2
100
AcDbEntity
  8
0
100
AcDbCircle
 10
170.7198588256981
 20
224.4458763786265
 30
0.0
 40
23.65000000000001
100
AcDbArc
 50
77.17421556953353
 51
109.8516022315845
  0
ARC
  5
A62
330
2
100
AcDbEntity
  8
0
100
AcDbCircle
 10
178.1917332887803
 20
266.9411758402471
 30
0.0
 40
10.0
100
AcDbArc
 50
229.0739366903899
 51
270.0
1001
ACAD
1000
ASC_BOUNDS
1002
{
1070
    19
1005
0
1002
}
  0
ARC
  5
A63
330
2
100
AcDbEntity
  8
0
100
AcDbCircle
 10
170.7198588256981
 20
250.5911758402472
 30
0.0
 40
23.65000000000001
100
AcDbArc
 50
250.1483977684155
 51
289.8516022315845
  0
LINE
  5
A64
330
2
100
AcDbEntity
  8
0
100
AcDbLine
 10
162.6886696235935
 20
228.3465697524785
 30
0.0
 11
162.6886696235935
 21
246.6904824663952
 31
0.0
  0
LINE
  5
A65
330
2
100
AcDbEntity
  8
0
100
AcDbLine
 10
175.9698588256981
 20
254.4411758402471
 30
0.0
 11
175.9698588256981
 21
246.4411758402471
 31
0.0
  0
ARC
  5
A66
330
2
100
AcDbEntity
  8
0
100
AcDbCircle
 10
178.4698588256981
 20
246.4411758402471
 30
0.0
 40
2.5
100
AcDbArc
 50
180.0
 51
191.5369590328436
  0
LINE
  5
A67
330
2
100
AcDbEntity
  8
0
100
AcDbLine
 10
180.9698588256981
 20
227.9411758402471
 30
0.0
 11
179.9698588256981
 21
226.9411758402471
 31
0.0
1001
ACAD
1000
ASC_BOUNDS
1002
{
1070
    19
1002
}
  0
LINE
  5
A68
330
2
100
AcDbEntity
  8
0
100
AcDbLine
 10
178.7510480278026
 20
228.3465697524785
 30
0.0
 11
180.9698588256981
 21
227.9411758402471
 31
0.0
  0
LINE
  5
A69
330
2
100
AcDbEntity
  8
0
100
AcDbLine
 10
178.7510480278026
 20
228.3465697524785
 30
0.0
 11
178.7510480278026
 21
245.9411758402461
 31
0.0
  0
LINE
  5
A6A
330
2
100
AcDbEntity
  8
0
100
AcDbLine
 10
180.9698588256981
 20
227.9411758402471
 30
0.0
 11
180.9698588256981
 21
245.9411758402461
 31
0.0
1001
ACAD
1000
ASC_BOUNDS
1002
{
1070
    19
1002
}
  0
LINE
  5
A6B
330
2
100
AcDbEntity
  8
0
100
AcDbLine
 10
136.6642635561095
 20
385.8780981509385
 30
0.0
 11
180.7104142342848
 21
400.6068662744264
 31
0.0
  0
LINE
  5
A6C
330
2
100
AcDbEntity
  8
MITTE
 48
5.0
100
AcDbLine
 10
136.4698588256981
 20
361.7916520931108
 30
0.0
 11
136.4698588256981
 21
353.1728186398177
 31
0.0
  0
CIRCLE
  5
A6D
330
2
100
AcDbEntity
  8
0
100
AcDbCircle
 10
150.8384616175542
 20
354.4411758402471
 30
0.0
 40
5.0
  0
LINE
  5
A6E
330
2
100
AcDbEntity
  8
MITTE
 48
10.0
100
AcDbLine
 10
153.5781710756853
 20
392.3892127763634
 30
0.0
 11
139.5944482791676
 21
406.3729355728805
 31
0.0
  0
ARC
  5
A6F
330
2
100
AcDbEntity
  8
MITTE
 48
15.0
100
AcDbCircle
 10
198.4698588256981
 20
347.497525026351
 30
0.0
 40
72.5
100
AcDbArc
 50
126.5931189888046
 51
144.1811683713748
  0
CIRCLE
  5
A70
330
2
100
AcDbEntity
  8
0
100
AcDbCircle
 10
147.2046171896738
 20
398.7627666623757
 30
0.0
 40
5.75
  0
CIRCLE
  5
A71
330
2
100
AcDbEntity
  8
0
100
AcDbCircle
 10
140.4698588256981
 20
374.497525026351
 30
0.0
 40
3.3235
  0
ARC
  5
A72
330
2
100
AcDbEntity
  8
LINIE
 48
10.0
100
AcDbCircle
 10
140.4698588256981
 20
374.497525026351
 30
0.0
 40
4.0
100
AcDbArc
 50
81.14562423575103
 51
16.65070178048212
  0
LINE
  5
A73
330
2
100
AcDbEntity
  8
MITTE
 48
10.0
100
AcDbLine
 10
140.4698588256981
 20
388.2011725034272
 30
0.0
 11
140.4698588256981
 21
368.9228688350358
 31
0.0
  0
ARC
  5
A75
330
2
100
AcDbEntity
  8
MITTE
 48
15.0
100
AcDbCircle
 10
198.4698588256981
 20
347.497525026351
 30
0.0
 40
72.5
100
AcDbArc
 50
36.42334422562372
 51
53.51171634008917
  0
LINE
  5
A76
330
2
100
AcDbEntity
  8
MITTE
 48
10.0
100
AcDbLine
 10
243.2561812643828
 20
392.2838474650357
 30
0.0
 11
256.1343607814704
 21
405.1620269821237
 31
0.0
  0
CIRCLE
  5
A77
330
2
100
AcDbEntity
  8
0
100
AcDbCircle
 10
249.7351004617228
 20
398.7627666623753
 30
0.0
 40
5.75
  0
CIRCLE
  5
A78
330
2
100
AcDbEntity
  8
0
100
AcDbCircle
 10
246.1012560338424
 20
354.4411758402471
 30
0.0
 40
5.0
  0
CIRCLE
  5
A79
330
2
100
AcDbEntity
  8
0
100
AcDbCircle
 10
246.1012560338424
 20
299.4411758402471
 30
0.0
 40
5.0
  0
LINE
  5
A7A
330
2
100
AcDbEntity
  8
0
100
AcDbLine
 10
266.9733403702319
 20
375.1610934201381
 30
0.0
 11
224.1527727001883
 21
397.260844197358
 31
0.0
  0
LINE
  5
A7B
330
2
100
AcDbEntity
  8
0
100
AcDbLine
 10
255.9698588256981
 20
226.9411758402471
 30
0.0
 11
216.9698588256981
 21
226.9411758402471
 31
0.0
1001
ACAD
1000
ASC_BOUNDS
1002
{
1070
    19
1005
0
1002
}
  0
ARC
  5
A7C
330
2
100
AcDbEntity
  8
0
100
AcDbCircle
 10
246.7198588256981
 20
250.5911758402472
 30
0.0
 40
23.65000000000001
100
AcDbArc
 50
250.1483977684155
 51
289.8516022315845
  0
LINE
  5
A7D
330
2
100
AcDbEntity
  8
0
100
AcDbLine
 10
220.9698588256981
 20
248.0958763786266
 30
0.0
 11
258.9698588256981
 21
248.0958763786262
 31
0.0
  0
LINE
  5
A7E
330
2
100
AcDbEntity
  8
0
100
AcDbLine
 10
258.9698588256981
 20
256.9411758402471
 30
0.0
 11
213.9698588256981
 21
256.9411758402471
 31
0.0
1001
ACAD
1000
ASC_BOUNDS
1002
{
1070
    19
1002
}
  0
ARC
  5
A7F
330
2
100
AcDbEntity
  8
0
100
AcDbCircle
 10
246.7198588256981
 20
224.4458763786265
 30
0.0
 40
23.65000000000001
100
AcDbArc
 50
70.14839776841552
 51
109.8516022315845
  0
ARC
  5
A80
330
2
100
AcDbEntity
  8
0
100
AcDbCircle
 10
159.7903724706814
 20
334.9411758402471
 30
0.0
 40
100.0
100
AcDbArc
 50
310.926063309608
 51
355.4114342642181
1001
ACAD
1000
ASC_BOUNDS
1002
{
1070
    19
1005
0
1002
}
  0
LINE
  5
A81
330
2
100
AcDbEntity
  8
0
100
AcDbLine
 10
215.9698588256981
 20
227.9411758402471
 30
0.0
 11
218.1886696235936
 21
228.3465697524785
 31
0.0
  0
LINE
  5
A82
330
2
100
AcDbEntity
  8
0
100
AcDbLine
 10
215.9698588256981
 20
227.9411758402471
 30
0.0
 11
216.9698588256981
 21
226.9411758402471
 31
0.0
1001
ACAD
1000
ASC_BOUNDS
1002
{
1070
    19
1002
}
  0
ARC
  5
A83
330
2
100
AcDbEntity
  8
0
100
AcDbCircle
 10
198.4698588256981
 20
317.497525026351
 30
0.0
 40
73.0
100
AcDbArc
 50
270.0
 51
281.4136777865645
  0
LINE
  5
A84
330
2
100
AcDbEntity
  8
0
100
AcDbLine
 10
215.9698588256981
 20
227.9411758402471
 30
0.0
 11
215.9698588256981
 21
245.9411758402461
 31
0.0
1001
ACAD
1000
ASC_BOUNDS
1002
{
1070
    19
1002
}
  0
CIRCLE
  5
A85
330
2
100
AcDbEntity
  8
0
100
AcDbCircle
 10
198.4698588256981
 20
271.9411758402471
 30
0.0
 40
5.0
  0
ARC
  5
A86
330
2
100
AcDbEntity
  8
0
100
AcDbCircle
 10
226.2198588256981
 20
224.4458763786265
 30
0.0
 40
23.65000000000001
100
AcDbArc
 50
70.14839776841552
 51
102.8257844304665
  0
ARC
  5
A87
330
2
100
AcDbEntity
  8
0
100
AcDbCircle
 10
226.2198588256981
 20
250.5911758402472
 30
0.0
 40
23.65000000000001
100
AcDbArc
 50
250.1483977684155
 51
289.8516022315845
  0
LINE
  5
A88
330
2
100
AcDbEntity
  8
0
100
AcDbLine
 10
220.9698588256981
 20
254.4411758402471
 30
0.0
 11
220.9698588256981
 21
246.4411758402471
 31
0.0
  0
ARC
  5
A89
330
2
100
AcDbEntity
  8
0
100
AcDbCircle
 10
218.4698588256981
 20
246.4411758402471
 30
0.0
 40
2.5
100
AcDbArc
 50
348.4630409671563
 51
0.0
  0
ARC
  5
A8A
330
2
100
AcDbEntity
  8
0
100
AcDbCircle
 10
223.4698588256981
 20
254.4411758402471
 30
0.0
 40
2.5
100
AcDbArc
 50
90.0
 51
180.0
  0
ARC
  5
A8B
330
2
100
AcDbEntity
  8
0
100
AcDbCircle
 10
218.7479843626158
 20
266.9411758402471
 30
0.0
 40
10.0
100
AcDbArc
 50
270.0
 51
310.9260633096101
1001
ACAD
1000
ASC_BOUNDS
1002
{
1070
    19
1005
0
1002
}
  0
LINE
  5
A8C
330
2
100
AcDbEntity
  8
0
100
AcDbLine
 10
218.1886696235936
 20
228.3465697524785
 30
0.0
 11
218.1886696235936
 21
245.9411758402461
 31
0.0
  0
LINE
  5
A8D
330
2
100
AcDbEntity
  8
0
100
AcDbLine
 10
234.2510480278026
 20
246.6904824663952
 30
0.0
 11
238.6886696235936
 21
246.6904824663952
 31
0.0
  0
LINE
  5
A8E
330
2
100
AcDbEntity
  8
0
100
AcDbLine
 10
234.2510480278026
 20
228.3465697524785
 30
0.0
 11
238.6886696235936
 21
228.3465697524785
 31
0.0
  0
LINE
  5
A8F
330
2
100
AcDbEntity
  8
0
100
AcDbLine
 10
234.2510480278026
 20
228.3465697524785
 30
0.0
 11
234.2510480278026
 21
246.6904824663952
 31
0.0
  0
LINE
  5
A90
330
2
100
AcDbEntity
  8
0
100
AcDbLine
 10
238.6886696235936
 20
228.3465697524785
 30
0.0
 11
238.6886696235936
 21
246.6904824663952
 31
0.0
  0
LINE
  5
A91
330
2
100
AcDbEntity
  8
MITTE
 48
7.0
100
AcDbLine
 10
236.4698588256981
 20
223.8834152326408
 30
0.0
 11
236.4698588256981
 21
260.2744500707377
 31
0.0
  0
ARC
  5
A92
330
2
100
AcDbEntity
  8
0
100
AcDbCircle
 10
198.8810756569034
 20
384.7678260202997
 30
0.0
 40
8.0
100
AcDbArc
 50
19.35914998622736
 51
159.8259803411122
  0
CIRCLE
  5
A93
330
2
100
AcDbEntity
  8
0
100
AcDbCircle
 10
198.4698588256981
 20
381.9411758402471
 30
0.0
 40
5.0
  0
ARC
  5
A94
330
2
100
AcDbEntity
  8
0
100
AcDbCircle
 10
198.4698588256981
 20
347.497525026351
 30
0.0
 40
88.0
100
AcDbArc
 50
321.1089922459178
 51
356.6614237975707
  0
LINE
  5
A95
330
2
100
AcDbEntity
  8
0
100
AcDbLine
 10
259.4698588256981
 20
326.9411758402475
 30
0.0
 11
259.4698588256981
 21
259.4411758402471
 31
0.0
  0
LINE
  5
A96
330
2
100
AcDbEntity
  8
0
100
AcDbLine
 10
259.4698588256981
 20
326.9411758402471
 30
0.0
 11
259.4698588256981
 21
259.4411758402471
 31
0.0
  0
ARC
  5
A97
330
2
100
AcDbEntity
  8
0
100
AcDbCircle
 10
198.4698588256981
 20
317.497525026351
 30
0.0
 40
73.0
100
AcDbArc
 50
326.6800806294004
 51
3.593995493088477
  0
TEXT
  5
A98
330
2
100
AcDbEntity
  8
0
100
AcDbText
 10
263.5945597915381
 20
232.193862090679
 30
0.0
 40
10.0
  1
R
100
AcDbText
  0
LINE
  5
A99
330
2
100
AcDbEntity
  8
0
100
AcDbLine
 10
256.9698588256981
 20
246.9411758402471
 30
0.0
 11
258.9698588256981
 21
248.0958763786262
 31
0.0
1001
ACAD
1000
ASC_BOUNDS
1002
{
1070
    19
1002
}
  0
ARC
  5
A9A
330
2
100
AcDbEntity
  8
0
100
AcDbCircle
 10
256.9698588256981
 20
259.4411758402471
 30
0.0
 40
2.5
100
AcDbArc
 50
270.0
 51
0.0
  0
ARC
  5
A9B
330
2
100
AcDbEntity
  8
0
100
AcDbCircle
 10
256.9698588256981
 20
259.4411758402471
 30
0.0
 40
2.5
100
AcDbArc
 50
270.0
 51
0.0
  0
LINE
  5
A9C
330
2
100
AcDbEntity
  8
0
100
AcDbLine
 10
256.9698588256981
 20
246.9411758402471
 30
0.0
 11
254.7510480278027
 21
246.6904824663952
 31
0.0
  0
LINE
  5
A9D
330
2
100
AcDbEntity
  8
0
100
AcDbLine
 10
256.9698588256981
 20
227.9411758402471
 30
0.0
 11
255.9698588256981
 21
226.9411758402471
 31
0.0
1001
ACAD
1000
ASC_BOUNDS
1002
{
1070
    19
1002
}
  0
LINE
  5
A9E
330
2
100
AcDbEntity
  8
0
100
AcDbLine
 10
254.7510480278027
 20
228.3465697524785
 30
0.0
 11
256.9698588256981
 21
227.9411758402471
 31
0.0
  0
LINE
  5
A9F
330
2
100
AcDbEntity
  8
0
100
AcDbLine
 10
254.7510480278027
 20
228.3465697524785
 30
0.0
 11
254.7510480278027
 21
246.6904824663952
 31
0.0
  0
LINE
  5
AA0
330
2
100
AcDbEntity
  8
0
100
AcDbLine
 10
256.9698588256981
 20
227.9411758402471
 30
0.0
 11
256.9698588256981
 21
246.9411758402471
 31
0.0
1001
ACAD
1000
ASC_BOUNDS
1002
{
1070
    19
1002
}
  0
LINE
  5
AA1
330
2
100
AcDbEntity
  8
0
100
AcDbLine
 10
258.9698588256981
 20
248.0958763786262
 30
0.0
 11
258.9698588256981
 21
256.9411758402471
 31
0.0
1001
ACAD
1000
ASC_BOUNDS
1002
{
1070
    19
1002
}
  0
ARC
  5
AA2
330
2
100
AcDbEntity
  8
0
100
AcDbCircle
 10
286.8582064740169
 20
435.8858726746693
 30
0.0
 40
65.0
100
AcDbArc
 50
254.7469712997464
 51
267.7694271590442
  0
ARC
  5
AA3
330
2
100
AcDbEntity
  8
LINIE
 48
10.0
100
AcDbCircle
 10
275.4698588256981
 20
347.497525026351
 30
0.0
 40
4.0
100
AcDbArc
 50
81.14562423575103
 51
16.65070178048212
  0
LINE
  5
AA4
330
2
100
AcDbEntity
  8
0
100
AcDbLine
 10
284.7330216531029
 20
355.1260120606839
 30
0.0
 11
270.7330216531029
 21
372.1260120606839
 31
0.0
  0
ARC
  5
AA5
330
2
100
AcDbEntity
  8
0
100
AcDbCircle
 10
280.308589695863
 20
322.6377710866809
 30
0.0
 40
9.0
100
AcDbArc
 50
135.0000000000092
 51
183.5939954930885
  0
LINE
  5
AA6
330
2
100
AcDbEntity
  8
MITTE
 48
20.0
100
AcDbLine
 10
291.5505390265068
 20
347.497525026351
 30
0.0
 11
245.5254939973704
 21
347.497525026351
 31
0.0
  0
ARC
  5
AA7
330
2
100
AcDbEntity
  8
0
100
AcDbCircle
 10
256.2892886993188
 20
327.1503742038585
 30
0.0
 40
8.0
100
AcDbArc
 50
293.4264341163825
 51
70.37454625844393
  0
ARC
  5
AA8
330
2
100
AcDbEntity
  8
0
100
AcDbCircle
 10
261.4698588256981
 20
364.497525026351
 30
0.0
 40
12.0
100
AcDbArc
 50
39.47245984834575
 51
62.70168236142517
  0
LINE
  5
AA9
330
2
100
AcDbEntity
  8
MITTE
 48
10.0
100
AcDbLine
 10
275.4698588256981
 20
361.5264373904488
 30
0.0
 11
275.4698588256981
 21
334.6528038185575
 31
0.0
  0
ARC
  5
AAA
330
2
100
AcDbEntity
  8
0
100
AcDbCircle
 10
198.4698588256981
 20
347.497525026351
 30
0.0
 40
88.0
100
AcDbArc
 50
3.338576202429362
 51
15.47977482031425
  0
ARC
  5
AAB
330
2
100
AcDbEntity
  8
0
100
AcDbCircle
 10
275.4698588256981
 20
347.497525026351
 30
0.0
 40
12.0
100
AcDbArc
 50
315.0000000000092
 51
39.47245984834575
  0
CIRCLE
  5
AAC
330
2
100
AcDbEntity
  8
0
100
AcDbCircle
 10
275.4698588256981
 20
347.497525026351
 30
0.0
 40
3.3235
  0
LINE
  5
AAD
330
2
100
AcDbEntity
  8
0
100
AcDbLine
 10
283.9551401999368
 20
339.0122436521124
 30
0.0
 11
273.9446286651839
 21
329.0017321173595
 31
0.0
  0
ARC
  5
AAE
330
2
100
AcDbEntity
  8
0
100
AcDbCircle
 10
198.4698588256981
 20
347.497525026351
 30
0.0
 40
88.0
100
AcDbArc
 50
74.52022517968575
 51
105.4797748203142
  0
ARC
  5
AAF
330
2
100
AcDbEntity
  8
0
100
AcDbCircle
 10
200.9698588256981
 20
422.9975250263509
 30
0.0
 40
2.5
100
AcDbArc
 50
0.0
 51
90.0
  0
ARC
  5
AB0
330
2
100
AcDbEntity
  8
0
100
AcDbCircle
 10
195.9698588256981
 20
422.9975250263509
 30
0.0
 40
2.5
100
AcDbArc
 50
90.0
 51
180.0
  0
LINE
  5
AB1
330
2
100
AcDbEntity
  8
0
100
AcDbLine
 10
195.9698588256981
 20
425.497525026351
 30
0.0
 11
200.9698588256981
 21
425.497525026351
 31
0.0
  0
LINE
  5
AB2
330
2
100
AcDbEntity
  8
LINIE
  6
GESTRICHELT
 48
10.0
100
AcDbLine
 10
420.8748261723505
 20
409.7975250263507
 30
0.0
 11
420.8748261723505
 21
285.1975250263508
 31
0.0
1001
ACAD
1000
ASC_BOUNDS
1002
{
1070
    19
1002
}
  0
LINE
  5
AB3
330
2
100
AcDbEntity
  8
0
100
AcDbLine
 10
429.3748261723505
 20
425.497525026351
 30
0.0
 11
490.3135545365082
 21
401.5892905338683
 31
0.0
  0
LINE
  5
AB8
330
2
100
AcDbEntity
  8
0
 48
10.0
100
AcDbLine
 10
427.3748261723506
 20
437.497525026351
 30
0.0
 11
427.3748261723506
 21
257.497525026351
 31
0.0
  0
LINE
  5
AB9
330
2
100
AcDbEntity
  8
0
100
AcDbLine
 10
429.3748261723505
 20
435.4975250263509
 30
0.0
 11
429.3748261723501
 21
259.4975250263506
 31
0.0
1001
ACAD
1000
ASC_BOUNDS
1002
{
1070
    19
1002
}
  0
LINE
  5
ABA
330
2
100
AcDbEntity
  8
0
100
AcDbLine
 10
415.8748261723506
 20
437.497525026351
 30
0.0
 11
415.8748261723506
 21
257.497525026351
 31
0.0
1001
ACAD
1000
ASC_BOUNDS
1002
{
1070
    19
1002
}
  0
LINE
  5
ABB
330
2
100
AcDbEntity
  8
LINIE
  6
GESTRICHELT
 48
10.0
100
AcDbLine
 10
415.8748261723506
 20
284.997525026351
 30
0.0
 11
420.6748261723507
 21
284.997525026351
 31
0.0
  0
LINE
  5
ABD
330
2
100
AcDbEntity
  8
MITTE
 48
10.0
100
AcDbLine
 10
340.7307888888379
 20
347.497525026351
 30
0.0
 11
598.0853141892521
 21
347.497525026351
 31
0.0
  0
LINE
  5
ABE
330
2
100
AcDbEntity
  8
0
100
AcDbLine
 10
415.8748261723506
 20
257.497525026351
 30
0.0
 11
427.3748261723506
 21
257.497525026351
 31
0.0
  0
LINE
  5
AC4
330
2
100
AcDbEntity
  8
0
 48
10.0
100
AcDbLine
 10
354.9248261723508
 20
368.2975250263508
 30
0.0
 11
404.9248261723508
 21
368.2975250263508
 31
0.0
  0
LINE
  5
AC6
330
2
100
AcDbEntity
  8
0
 48
10.0
100
AcDbLine
 10
346.9248261723508
 20
329.997525026351
 30
0.0
 11
412.4248261723507
 21
329.997525026351
 31
0.0
  0
LINE
  5
AC7
330
2
100
AcDbEntity
  8
0
 48
10.0
100
AcDbLine
 10
346.9248261723508
 20
364.997525026351
 30
0.0
 11
412.4248261723507
 21
364.997525026351
 31
0.0
  0
LINE
  5
AC8
330
2
100
AcDbEntity
  8
0
 48
10.0
100
AcDbLine
 10
344.9248261723508
 20
362.997525026351
 30
0.0
 11
344.9248261723508
 21
331.997525026351
 31
0.0
  0
LINE
  5
AC9
330
2
100
AcDbEntity
  8
0
 48
10.0
100
AcDbLine
 10
346.9248261723508
 20
364.997525026351
 30
0.0
 11
346.9248261723508
 21
329.997525026351
 31
0.0
  0
LINE
  5
ACA
330
2
100
AcDbEntity
  8
0
 48
10.0
100
AcDbLine
 10
346.9248261723508
 20
329.997525026351
 30
0.0
 11
344.9248261723508
 21
331.997525026351
 31
0.0
  0
LINE
  5
ACB
330
2
100
AcDbEntity
  8
0
 48
10.0
100
AcDbLine
 10
346.9248261723508
 20
364.997525026351
 30
0.0
 11
344.9248261723508
 21
362.997525026351
 31
0.0
  0
LINE
  5
ACC
330
2
100
AcDbEntity
  8
0
 48
10.0
100
AcDbLine
 10
354.9248261723508
 20
364.997525026351
 30
0.0
 11
354.9248261723508
 21
368.2975250263508
 31
0.0
  0
LINE
  5
ACD
330
2
100
AcDbEntity
  8
0
 48
10.0
100
AcDbLine
 10
415.5248261723507
 20
369.997525026351
 30
0.0
 11
415.5248261723507
 21
324.997525026351
 31
0.0
  0
LINE
  5
ACE
330
2
100
AcDbEntity
  8
0
 48
10.0
100
AcDbLine
 10
414.9248261723507
 20
369.6511148648374
 30
0.0
 11
414.9248261723507
 21
325.3439351878646
 31
0.0
  0
LINE
  5
ACF
330
2
100
AcDbEntity
  8
0
 48
10.0
100
AcDbLine
 10
415.5248261723507
 20
324.997525026351
 30
0.0
 11
415.8748261723506
 21
324.997525026351
 31
0.0
  0
LINE
  5
AD0
330
2
100
AcDbEntity
  8
0
 48
10.0
100
AcDbLine
 10
415.5248261723507
 20
324.997525026351
 30
0.0
 11
414.9248261723507
 21
325.3439351878646
 31
0.0
  0
ARC
  5
AD1
330
2
100
AcDbEntity
  8
0
 48
10.0
100
AcDbCircle
 10
412.4248261723507
 20
327.497525026351
 30
0.0
 40
2.5
100
AcDbArc
 50
0.0
 51
90.0
  0
LINE
  5
AD2
330
2
100
AcDbEntity
  8
0
 48
10.0
100
AcDbLine
 10
415.5248261723507
 20
369.997525026351
 30
0.0
 11
415.8748261723506
 21
369.997525026351
 31
0.0
  0
LINE
  5
AD3
330
2
100
AcDbEntity
  8
0
 48
10.0
100
AcDbLine
 10
415.5248261723507
 20
369.997525026351
 30
0.0
 11
414.9248261723507
 21
369.6511148648374
 31
0.0
  0
LINE
  5
AD4
330
2
100
AcDbEntity
  8
0
 48
10.0
100
AcDbLine
 10
404.9248261723508
 20
364.997525026351
 30
0.0
 11
404.9248261723508
 21
368.2975250263512
 31
0.0
  0
ARC
  5
AD5
330
2
100
AcDbEntity
  8
0
 48
10.0
100
AcDbCircle
 10
412.4248261723507
 20
367.497525026351
 30
0.0
 40
2.5
100
AcDbArc
 50
270.0
 51
0.0
  0
LINE
  5
AD7
330
2
100
AcDbEntity
  8
0
100
AcDbLine
 10
495.3748261723506
 20
402.4975250263509
 30
0.0
 11
544.3748261723506
 21
402.4975250263509
 31
0.0
1001
ACAD
1000
ASC_BOUNDS
1002
{
1070
    19
1002
}
  0
LINE
  5
ADA
330
2
100
AcDbEntity
  8
0
100
AcDbLine
 10
522.3748261723506
 20
245.497525026351
 30
0.0
 11
544.3748261723506
 21
245.497525026351
 31
0.0
1001
ACAD
1000
ASC_BOUNDS
1002
{
1070
    19
1002
}
  0
LINE
  5
ADC
330
2
100
AcDbEntity
  8
0
100
AcDbLine
 10
474.8748261723505
 20
387.497525026351
 30
0.0
 11
466.8748261723505
 21
387.497525026351
 31
0.0
  0
LINE
  5
ADD
330
2
100
AcDbEntity
  8
0
100
AcDbLine
 10
475.8748261723505
 20
386.497525026351
 30
0.0
 11
465.8748261723506
 21
386.497525026351
 31
0.0
  0
LINE
  5
ADE
330
2
100
AcDbEntity
  8
0
100
AcDbLine
 10
479.8748261723505
 20
384.497525026351
 30
0.0
 11
463.8748261723505
 21
384.497525026351
 31
0.0
  0
ARC
  5
ADF
330
2
100
AcDbEntity
  8
0
100
AcDbCircle
 10
464.3748261723506
 20
303.997525026351
 30
0.0
 40
10.0
100
AcDbArc
 50
0.0
 51
90.0
1001
ACAD
1000
ASC_BOUNDS
1002
{
1070
    19
1002
}
  0
LINE
  5
AE0
330
2
100
AcDbEntity
  8
0
 48
10.0
100
AcDbLine
 10
479.3748261723505
 20
352.497525026351
 30
0.0
 11
439.3748261723501
 21
352.497525026351
 31
0.0
  0
LINE
  5
AE1
330
2
100
AcDbEntity
  8
0
 48
10.0
100
AcDbLine
 10
479.3748261723505
 20
342.497525026351
 30
0.0
 11
439.3748261723501
 21
342.497525026351
 31
0.0
  0
LINE
  5
AE2
330
2
100
AcDbEntity
  8
0
100
AcDbLine
 10
479.3748261723505
 20
380.997525026351
 30
0.0
 11
451.0169617960817
 21
380.997525026351
 31
0.0
1001
ACAD
1000
ASC_BOUNDS
1002
{
1070
    19
1002
}
  0
LINE
  5
AE3
330
2
100
AcDbEntity
  8
0
100
AcDbLine
 10
475.9026902173511
 20
269.497525026351
 30
0.0
 11
429.3748261723505
 21
269.497525026351
 31
0.0
  0
ARC
  5
AE4
330
2
100
AcDbEntity
  8
0
100
AcDbCircle
 10
451.0169617960817
 20
303.997525026351
 30
0.0
 40
10.0
100
AcDbArc
 50
90.0
 51
135.0000000000092
1001
ACAD
1000
ASC_BOUNDS
1002
{
1070
    19
1002
}
  0
LINE
  5
AE5
330
2
100
AcDbEntity
  8
0
100
AcDbLine
 10
441.7429549633904
 20
308.8656538173905
 30
0.0
 11
443.9458939842158
 21
311.0685928382163
 31
0.0
1001
ACAD
1000
ASC_BOUNDS
1002
{
1070
    19
1002
}
  0
LINE
  5
AE6
330
2
100
AcDbEntity
  8
0
100
AcDbLine
 10
429.3748261723505
 20
259.497525026351
 30
0.0
 11
427.3748261723506
 21
257.497525026351
 31
0.0
  0
ARC
  5
AE7
330
2
100
AcDbEntity
  8
0
100
AcDbCircle
 10
439.3748261723506
 20
296.497525026351
 30
0.0
 40
10.0
100
AcDbArc
 50
103.600285190082
 51
180.0
1001
ACAD
1000
ASC_BOUNDS
1002
{
1070
    19
1002
}
  0
ARC
  5
AE8
330
2
100
AcDbEntity
  8
LINIE
  6
GESTRICHELT
 48
10.0
100
AcDbCircle
 10
420.6748261723507
 20
285.1975250263508
 30
0.0
 40
0.2
100
AcDbArc
 50
270.0
 51
0.0
1001
ACAD
1000
ASC_BOUNDS
1002
{
1070
    19
1002
}
  0
ARC
  5
AE9
330
2
100
AcDbEntity
  8
0
100
AcDbCircle
 10
434.6718871515247
 20
315.9367216292558
 30
0.0
 40
10.0
100
AcDbArc
 50
283.600285190082
 51
315.0000000000092
1001
ACAD
1000
ASC_BOUNDS
1002
{
1070
    19
1002
}
  0
LINE
  5
AEA
330
2
100
AcDbEntity
  8
0
100
AcDbLine
 10
441.7429549633904
 20
386.1293962353111
 30
0.0
 11
443.9458939842158
 21
383.9264572144852
 31
0.0
1001
ACAD
1000
ASC_BOUNDS
1002
{
1070
    19
1002
}
  0
ARC
  5
AEB
330
2
100
AcDbEntity
  8
0
100
AcDbCircle
 10
451.0169617960817
 20
390.997525026351
 30
0.0
 40
10.0
100
AcDbArc
 50
224.9999999999908
 51
270.0
1001
ACAD
1000
ASC_BOUNDS
1002
{
1070
    19
1002
}
  0
ARC
  5
AEC
330
2
100
AcDbEntity
  8
0
 48
10.0
100
AcDbCircle
 10
439.3748261723501
 20
362.497525026351
 30
0.0
 40
10.0
100
AcDbArc
 50
180.0
 51
270.0
  0
ARC
  5
AED
330
2
100
AcDbEntity
  8
0
 48
10.0
100
AcDbCircle
 10
439.3748261723501
 20
332.497525026351
 30
0.0
 40
10.0
100
AcDbArc
 50
90.0
 51
180.0
  0
ARC
  5
AEE
330
2
100
AcDbEntity
  8
0
100
AcDbCircle
 10
439.3748261723506
 20
398.497525026351
 30
0.0
 40
10.0
100
AcDbArc
 50
180.0
 51
256.399714809918
1001
ACAD
1000
ASC_BOUNDS
1002
{
1070
    19
1002
}
  0
ARC
  5
AEF
330
2
100
AcDbEntity
  8
0
100
AcDbCircle
 10
434.6718871515247
 20
379.0583284234458
 30
0.0
 40
10.0
100
AcDbArc
 50
44.99999999999078
 51
76.39971480991796
1001
ACAD
1000
ASC_BOUNDS
1002
{
1070
    19
1002
}
  0
LINE
  5
AF0
330
2
100
AcDbEntity
  8
0
100
AcDbLine
 10
464.3748261723506
 20
313.997525026351
 30
0.0
 11
451.0169617960817
 21
313.997525026351
 31
0.0
1001
ACAD
1000
ASC_BOUNDS
1002
{
1070
    19
1002
}
  0
LINE
  5
AF1
330
2
100
AcDbEntity
  8
0
100
AcDbLine
 10
465.8748261723506
 20
386.497525026351
 30
0.0
 11
465.8748261723506
 21
384.497525026351
 31
0.0
1001
ACAD
1000
ASC_BOUNDS
1002
{
1070
    19
1002
}
  0
LINE
  5
AF2
330
2
100
AcDbEntity
  8
0
100
AcDbLine
 10
466.8748261723505
 20
387.497525026351
 30
0.0
 11
465.8748261723506
 21
386.497525026351
 31
0.0
  0
LINE
  5
AF3
330
2
100
AcDbEntity
  8
0
100
AcDbLine
 10
463.8748261723505
 20
384.497525026351
 30
0.0
 11
463.8748261723505
 21
383.497525026351
 31
0.0
1001
ACAD
1000
ASC_BOUNDS
1002
{
1070
    19
1005
0
1002
}
  0
ARC
  5
AF4
330
2
100
AcDbEntity
  8
0
100
AcDbCircle
 10
461.3748261723506
 20
383.497525026351
 30
0.0
 40
2.5
100
AcDbArc
 50
270.0
 51
0.0
  0
LINE
  5
AF5
330
2
100
AcDbEntity
  8
0
 48
10.0
100
AcDbLine
 10
489.3748261723506
 20
396.497525026351
 30
0.0
 11
489.3748261723506
 21
303.9642817664671
 31
0.0
  0
LINE
  5
AF6
330
2
100
AcDbEntity
  8
0
100
AcDbLine
 10
474.3748261723501
 20
342.497525026351
 30
0.0
 11
474.3748261723506
 21
273.497525026351
 31
0.0
1001
ACAD
1000
ASC_BOUNDS
1002
{
1070
    19
1002
}
  0
LINE
  5
AF7
330
2
100
AcDbEntity
  8
LINIE
 48
10.0
100
AcDbLine
 10
516.3748261723505
 20
257.497525026351
 30
0.0
 11
516.3748261723505
 21
361.1013011322293
 31
0.0
  0
LINE
  5
AF8
330
2
100
AcDbEntity
  8
0
100
AcDbLine
 10
480.3748261723505
 20
267.497525026351
 30
0.0
 11
506.3748261723506
 21
267.497525026351
 31
0.0
1001
ACAD
1000
ASC_BOUNDS
1002
{
1070
    19
1002
}
  0
LINE
  5
AF9
330
2
100
AcDbEntity
  8
0
100
AcDbLine
 10
493.3748261723506
 20
267.497525026351
 30
0.0
 11
518.5726315368163
 21
246.8560472494451
 31
0.0
  0
ARC
  5
AFA
330
2
100
AcDbEntity
  8
0
100
AcDbCircle
 10
480.3748261723505
 20
273.497525026351
 30
0.0
 40
6.0
100
AcDbArc
 50
180.0
 51
270.0
1001
ACAD
1000
ASC_BOUNDS
1002
{
1070
    19
1002
}
  0
ARC
  5
AFB
330
2
100
AcDbEntity
  8
0
100
AcDbCircle
 10
506.3748261723506
 20
257.497525026351
 30
0.0
 40
10.0
100
AcDbArc
 50
0.0
 51
90.0
1001
ACAD
1000
ASC_BOUNDS
1002
{
1070
    19
1002
}
  0
LINE
  5
AFC
330
2
100
AcDbEntity
  8
0
100
AcDbLine
 10
516.3748261723505
 20
257.497525026351
 30
0.0
 11
516.3748261723505
 21
251.497525026351
 31
0.0
1001
ACAD
1000
ASC_BOUNDS
1002
{
1070
    19
1002
}
  0
ARC
  5
AFD
330
2
100
AcDbEntity
  8
0
100
AcDbCircle
 10
522.3748261723506
 20
251.497525026351
 30
0.0
 40
6.0
100
AcDbArc
 50
180.0
 51
270.0
1001
ACAD
1000
ASC_BOUNDS
1002
{
1070
    19
1002
}
  0
ARC
  5
AFE
330
2
100
AcDbEntity
  8
0
 48
10.0
100
AcDbCircle
 10
479.3748261723505
 20
362.497525026351
 30
0.0
 40
10.0
100
AcDbArc
 50
270.0
 51
0.0
  0
ARC
  5
AFF
330
2
100
AcDbEntity
  8
0
 48
10.0
100
AcDbCircle
 10
479.3748261723505
 20
332.497525026351
 30
0.0
 40
10.0
100
AcDbArc
 50
0.0
 51
90.0
  0
ARC
  5
B00
330
2
100
AcDbEntity
  8
0
100
AcDbCircle
 10
479.3748261723505
 20
390.997525026351
 30
0.0
 40
10.0
100
AcDbArc
 50
270.0
 51
0.0
1001
ACAD
1000
ASC_BOUNDS
1002
{
1070
    19
1002
}
  0
LINE
  5
B01
330
2
100
AcDbEntity
  8
0
100
AcDbLine
 10
479.8748261723505
 20
384.497525026351
 30
0.0
 11
479.8748261723505
 21
383.497525026351
 31
0.0
1001
ACAD
1000
ASC_BOUNDS
1002
{
1070
    19
1005
0
1002
}
  0
ARC
  5
B02
330
2
100
AcDbEntity
  8
0
100
AcDbCircle
 10
482.3748261723506
 20
383.497525026351
 30
0.0
 40
2.5
100
AcDbArc
 50
180.0
 51
246.6828661559622
  0
LINE
  5
B03
330
2
100
AcDbEntity
  8
0
100
AcDbLine
 10
475.8748261723505
 20
386.497525026351
 30
0.0
 11
475.8748261723505
 21
384.497525026351
 31
0.0
1001
ACAD
1000
ASC_BOUNDS
1002
{
1070
    19
1002
}
  0
LINE
  5
B04
330
2
100
AcDbEntity
  8
0
100
AcDbLine
 10
475.8748261723505
 20
386.497525026351
 30
0.0
 11
474.8748261723505
 21
387.497525026351
 31
0.0
  0
ARC
  5
B05
330
2
100
AcDbEntity
  8
0
100
AcDbCircle
 10
491.2266273214602
 20
403.9165846900464
 30
0.0
 40
2.5
100
AcDbArc
 50
248.5783165533403
 51
299.2107476043123
  0
ARC
  5
B06
330
2
100
AcDbEntity
  8
0
100
AcDbCircle
 10
495.3748261723506
 20
396.497525026351
 30
0.0
 40
6.0
100
AcDbArc
 50
90.0
 51
119.2107476043123
1001
ACAD
1000
ASC_BOUNDS
1002
{
1070
    19
1002
}
  0
ARC
  5
B07
330
2
100
AcDbEntity
  8
0
100
AcDbCircle
 10
495.3748261723506
 20
396.497525026351
 30
0.0
 40
6.0
100
AcDbArc
 50
119.2107476043123
 51
180.0
1001
ACAD
1000
ASC_BOUNDS
1002
{
1070
    19
1002
}
  0
LINE
  5
B08
330
2
100
AcDbEntity
  8
0
100
AcDbLine
 10
594.8748261723507
 20
392.9411758402475
 30
0.0
 11
648.2145721345063
 21
392.9411758402471
 31
0.0
1001
ACAD
1000
ASC_BOUNDS
1002
{
1070
    19
1002
}
  0
LINE
  5
B09
330
2
100
AcDbEntity
  8
MITTE
 48
10.0
100
AcDbLine
 10
563.7349851181695
 20
326.9411758402471
 30
0.0
 11
609.5731261435876
 21
326.9411758402471
 31
0.0
  0
LINE
  5
B0A
330
2
100
AcDbEntity
  8
0
100
AcDbLine
 10
594.8748261723507
 20
260.9411758402471
 30
0.0
 11
634.8748261723508
 21
260.9411758402471
 31
0.0
1001
ACAD
1000
ASC_BOUNDS
1002
{
1070
    19
1005
0
1002
}
  0
LINE
  5
B0B
330
2
100
AcDbEntity
  8
LINIE
 48
10.0
100
AcDbLine
 10
546.3748261723505
 20
397.506640242756
 30
0.0
 11
546.3748261723505
 21
250.5534134031868
 31
0.0
  0
LINE
  5
B0C
330
2
100
AcDbEntity
  8
0
100
AcDbLine
 10
572.874826172351
 20
403.497525026351
 30
0.0
 11
572.8748261723506
 21
244.497525026351
 31
0.0
1001
ACAD
1000
ASC_BOUNDS
1002
{
1070
    19
1002
}
  0
LINE
  5
B0D
330
2
100
AcDbEntity
  8
0
100
AcDbLine
 10
594.8748261723507
 20
403.497525026351
 30
0.0
 11
594.8748261723499
 21
244.497525026351
 31
0.0
1001
ACAD
1000
ASC_BOUNDS
1002
{
1070
    19
1002
}
  0
LINE
  5
B0E
330
2
100
AcDbEntity
  8
0
100
AcDbLine
 10
546.3748261723505
 20
244.497525026351
 30
0.0
 11
594.8748261723507
 21
244.497525026351
 31
0.0
1001
ACAD
1000
ASC_BOUNDS
1002
{
1070
    19
1002
}
  0
ARC
  5
B0F
330
2
100
AcDbEntity
  8
0
100
AcDbCircle
 10
544.3748261723506
 20
242.997525026351
 30
0.0
 40
2.5
100
AcDbArc
 50
36.86989764585184
 51
90.0
1001
ACAD
1000
ASC_BOUNDS
1002
{
1070
    19
1002
}
  0
LINE
  5
B10
330
2
100
AcDbEntity
  8
0
100
AcDbLine
 10
546.3748261723505
 20
403.497525026351
 30
0.0
 11
594.8748261723507
 21
403.497525026351
 31
0.0
1001
ACAD
1000
ASC_BOUNDS
1002
{
1070
    19
1002
}
  0
ARC
  5
B11
330
2
100
AcDbEntity
  8
0
100
AcDbCircle
 10
544.3748261723506
 20
404.997525026351
 30
0.0
 40
2.5
100
AcDbArc
 50
270.0
 51
323.1301023541482
1001
ACAD
1000
ASC_BOUNDS
1002
{
1070
    19
1002
}
  0
LINE
  5
B12
330
2
100
AcDbEntity
  8
0
100
AcDbLine
 10
594.8748261723507
 20
392.9411758402471
 30
0.0
 11
594.8748261723507
 21
376.9411758402471
 31
0.0
1001
ACAD
1000
ASC_BOUNDS
1002
{
1070
    19
1005
0
1005
0
1002
}
  0
LINE
  5
B13
330
2
100
AcDbEntity
  8
0
100
AcDbLine
 10
634.8748261723508
 20
392.9411758402471
 30
0.0
 11
634.8748261723508
 21
260.9411758402471
 31
0.0
1001
ACAD
1000
ASC_BOUNDS
1002
{
1070
    19
1005
0
1002
}
  0
LINE
  5
B14
330
2
100
AcDbEntity
  8
0
100
AcDbLine
 10
634.8748261723508
 20
392.9411758402471
 30
0.0
 11
634.8748261723508
 21
260.9411758402471
 31
0.0
1001
ACAD
1000
ASC_BOUNDS
1002
{
1070
    19
1005
0
1005
0
1005
0
1005
0
1002
}
  0
LINE
  5
B15
330
2
100
AcDbEntity
  8
0
100
AcDbLine
 10
634.8748261723508
 20
260.9411758402471
 30
0.0
 11
648.2145721345063
 21
260.9411758402471
 31
0.0
1001
ACAD
1000
ASC_BOUNDS
1002
{
1070
    19
1002
}
  0
LINE
  5
B16
330
2
100
AcDbEntity
  8
0
100
AcDbLine
 10
415.8748261723506
 20
437.497525026351
 30
0.0
 11
427.3748261723506
 21
437.497525026351
 31
0.0
  0
LINE
  5
B17
330
2
100
AcDbEntity
  8
LINIE
  6
GESTRICHELT
 48
10.0
100
AcDbLine
 10
415.8748261723506
 20
409.997525026351
 30
0.0
 11
420.6748261723507
 21
409.997525026351
 31
0.0
  0
LINE
  5
B18
330
2
100
AcDbEntity
  8
0
100
AcDbLine
 10
429.3748261723505
 20
435.4975250263509
 30
0.0
 11
427.3748261723506
 21
437.497525026351
 31
0.0
  0
ARC
  5
B19
330
2
100
AcDbEntity
  8
LINIE
  6
GESTRICHELT
 48
10.0
100
AcDbCircle
 10
420.6748261723507
 20
409.7975250263507
 30
0.0
 40
0.2
100
AcDbArc
 50
0.0
 51
90.0
  0
LINE
  5
B20
330
2
100
AcDbEntity
  8
0
100
AcDbLine
 10
869.0098261723507
 20
266.4783544993156
 30
0.0
 11
869.589826172351
 21
267.0583544993158
 31
0.0
1001
ACAD
1000
ASC_BOUNDS
1002
{
1070
    19
1002
}
  0
LINE
  5
B21
330
2
100
AcDbEntity
  8
0
100
AcDbLine
 10
878.7398261723508
 20
281.9411758402471
 30
0.0
 11
869.0098261723511
 21
281.9411758402471
 31
0.0
  0
ARC
  5
B22
330
2
100
AcDbEntity
  8
0
100
AcDbCircle
 10
873.8748261723506
 20
205.4039971811731
 30
0.0
 40
61.00000000000532
100
AcDbArc
 50
82.93756644623513
 51
97.06243355376486
  0
LINE
  5
B23
330
2
100
AcDbEntity
  8
0
100
AcDbLine
 10
881.3748261723509
 20
266.4783544993156
 30
0.0
 11
866.3748261723508
 21
266.4783544993156
 31
0.0
1001
ACAD
1000
ASC_BOUNDS
1002
{
1070
    19
1002
}
  0
SPLINE
  5
B24
330
2
100
AcDbEntity
  8
LINIE
 48
10.0
100
AcDbSpline
210
0.0
220
0.0
230
1.0
 70
     8
 71
     3
 72
    12
 73
     8
 74
     6
 42
0.0000000001
 43
0.0000000001
 44
0.0000000001
 40
0.0
 40
0.0
 40
0.0
 40
0.0
 40
4.585466138045345
 40
9.755749077659697
 40
13.66479227028057
 40
18.4123807478559
 40
20.51338574724711
 40
20.51338574724711
 40
20.51338574724711
 40
20.51338574724711
 10
864.3748261723509
 20
291.9431061790731
 30
0.0
 10
865.6539254355095
 20
293.0043391105693
 30
0.0
 10
868.3752565022164
 20
295.2621514857881
 30
0.0
 10
873.149450473833
 20
292.5766737197768
 30
0.0
 10
877.5488836894622
 20
295.8085409588329
 30
0.0
 10
880.7164988355115
 20
292.9217891433049
 30
0.0
 10
882.750758060304
 20
291.9731936349172
 30
0.0
 10
883.3748261723508
 20
291.682184406201
 30
0.0
 11
864.3748261723509
 21
291.9431061790731
 31
0.0
 11
868.3639272663663
 21
294.2044270684837
 31
0.0
 11
873.4982400401664
 21
293.5956101695224
 31
0.0
 11
877.2401948288502
 21
294.7262706142278
 31
0.0
 11
881.5042850451391
 21
292.6388964312516
 31
0.0
 11
883.3748261723508
 21
291.682184406201
 31
0.0
  0
HATCH
  5
B25
330
2
100
AcDbEntity
  8
SCHRAFF
 48
10.0
100
AcDbHatch
 10
0.0
 20
0.0
 30
0.0
210
0.0
220
0.0
230
1.0
  2
ANSI31
 70
     0
 71
     0
 91
        6
 92
        5
 93
       18
 72
     4
 94
        3
 73
     0
 74
     0
 95
       12
 96
        8
 40
0.0
 40
0.0
 40
0.0
 40
0.0
 40
2.10100499939131
 40
6.848593476966641
 40
10.75763666958752
 40
15.92791960920187
 40
20.51338574724712
 40
20.51338574724712
 40
20.51338574724712
 40
20.51338574724712
 10
883.3748261723508
 20
291.682184406201
 10
882.7507580603041
 20
291.9731936349172
 10
880.7164988355117
 20
292.921789143305
 10
877.5488836894624
 20
295.8085409588329
 10
873.149450473833
 20
292.5766737197768
 10
868.3752565022164
 20
295.2621514857881
 10
865.6539254355095
 20
293.0043391105692
 10
864.3748261723509
 20
291.9431061790731
 72
     1
 10
864.3748261723509
 20
291.9431061790731
 11
864.3748261723509
 21
265.9411758402471
 72
     1
 10
864.3748261723509
 20
265.9411758402471
 11
866.3748261723506
 21
265.9411758402471
 72
     1
 10
866.3748261723508
 20
265.9411758402471
 11
866.374826172351
 21
266.4783544993156
 72
     1
 10
866.3748261723508
 20
266.4783544993156
 11
869.0098261723505
 21
266.4783544993156
 72
     1
 10
869.0098261723507
 20
266.4783544993156
 11
869.0098261723511
 21
281.9411758402471
 72
     1
 10
869.0098261723511
 20
281.9411758402471
 11
869.589826172351
 21
281.9411758402471
 72
     1
 10
869.589826172351
 20
281.9411758402471
 11
869.589826172351
 21
285.9411758402471
 72
     1
 10
869.589826172351
 20
285.9411758402471
 11
872.374826172348
 21
287.5490963399382
 72
     1
 10
872.374826172348
 20
287.5490963399382
 11
875.3748261723503
 21
287.5490963399404
 72
     1
 10
875.3748261723503
 20
287.5490963399404
 11
878.1598261723507
 21
285.9411758402469
 72
     1
 10
878.1598261723509
 20
285.9411758402471
 11
878.1598261723509
 21
281.9411758402471
 72
     1
 10
878.1598261723509
 20
281.9411758402471
 11
878.739826172351
 21
281.941175840247
 72
     1
 10
878.739826172351
 20
281.9411758402468
 11
878.739826172351
 21
266.4783544993156
 72
     1
 10
878.7398261723508
 20
266.4783544993156
 11
881.3748261723509
 21
266.4783544993156
 72
     1
 10
881.3748261723509
 20
266.4783544993156
 11
881.3748261723509
 21
265.941175840247
 72
     1
 10
881.3748261723509
 20
265.9411758402471
 11
883.3748261723508
 21
265.941175840247
 72
     1
 10
883.3748261723508
 20
265.9411758402468
 11
883.3748261723508
 21
291.682184406201
 97
        0
 92
       22
 72
     0
 73
     1
 93
        4
 10
878.739826172351
 20
281.9411758402468
 10
878.1598261723507
 20
281.9411758402468
 10
878.1598261723511
 20
267.0583544993158
 10
878.7398261723508
 20
266.4783544993158
 97
        0
 92
       22
 72
     0
 73
     1
 93
        4
 10
869.589826172351
 20
281.9411758402471
 10
869.0098261723511
 20
281.9411758402468
 10
869.0098261723507
 20
266.4783544993158
 10
869.589826172351
 20
267.0583544993156
 97
        0
 92
        5
 93
       12
 72
     1
 10
913.3748261723505
 20
298.4411758402471
 11
917.3748261723508
 21
298.4411758402471
 72
     1
 10
917.3748261723508
 20
298.4411758402471
 11
918.6078261723507
 21
286.4411758402471
 72
     1
 10
918.6078261723505
 20
286.4411758402471
 11
919.3748261723508
 21
286.4411758402471
 72
     1
 10
919.3748261723511
 20
286.4411758402471
 11
919.3748261723511
 21
301.5972049224562
 72
     4
 94
        3
 73
     0
 74
     0
 95
       11
 96
        7
 40
0.0
 40
0.0
 40
0.0
 40
0.0
 40
1.505326117320977
 40
4.270679193939812
 40
7.18916947407072
 40
9.81545957471715
 40
9.81545957471715
 40
9.81545957471715
 40
9.81545957471715
 10
919.3748261723511
 20
301.597204922456
 10
918.8691253014845
 20
301.7332302999628
 10
917.4344287512042
 20
302.1191405308966
 10
915.3154856913822
 20
299.5965242852899
 10
912.8372270333061
 20
302.7968438525588
 10
911.1662743699467
 20
301.4516117057276
 10
910.3748261723508
 20
300.8144413170605
 72
     1
 10
910.3748261723508
 20
300.8144413170605
 11
910.3748261723508
 21
277.4411758402469
 72
     2
 10
912.3748261723507
 20
277.4411758402469
 40
2.0
 50
180.0000000000032
 51
240.0000000000011
 73
     0
 72
     1
 10
911.3748261723507
 20
279.1732266478159
 11
911.3748261723507
 21
283.2081758402468
 72
     1
 10
911.3748261723507
 20
283.2081758402467
 11
911.3748261723506
 21
285.6741758402469
 72
     1
 10
911.3748261723506
 20
285.674175840247
 11
911.3748261723507
 21
286.4411758402471
 72
     1
 10
911.3748261723507
 20
286.4411758402471
 11
912.1418261723507
 21
286.4411758402471
 72
     1
 10
912.1418261723507
 20
286.4411758402471
 11
913.3748261723505
 21
298.4411758402471
 97
        0
 92
       22
 72
     0
 73
     1
 93
        4
 10
911.3748261723507
 20
279.4411758402471
 10
912.0513261723509
 20
280.1176758402471
 10
912.0513261723509
 20
282.5316758402466
 10
911.3748261723507
 20
283.2081758402467
 97
        0
 92
       23
 72
     0
 73
     1
 93
        4
 10
918.6983261723508
 20
280.1176758402471
 10
919.3748261723508
 20
279.4411758402471
 10
919.3748261723508
 20
283.2081758402469
 10
918.6983261723506
 20
282.5316758402471
 97
        0
 75
     0
 76
     1
 52
0.0
 41
20.0
 77
     0
 78
     1
 53
45.0
 43
249.4427893705434
 44
-29.5388739821392
 45
-1.767766952966368
 46
1.767766952966368
 79
     0
 47
0.086973862025384
 98
        6
 10
876.7180625564092
 20
291.682184406201
 10
878.545530242699
 20
279.8537381266249
 10
869.3211723951453
 20
279.4188696473184
 10
912.4842068304742
 20
299.5098324527003
 10
911.613984272963
 20
281.1583469909849
 10
919.0108744342269
 20
280.8974252181128
  0
LINE
  5
B26
330
2
100
AcDbEntity
  8
0
100
AcDbLine
 10
864.3748261723509
 20
387.9411758402471
 30
0.0
 11
883.3748261723508
 21
387.9411758402471
 31
0.0
1001
ACAD
1000
ASC_BOUNDS
1002
{
1070
    19
1002
}
  0
LINE
  5
B2A
330
2
100
AcDbEntity
  8
0
100
AcDbLine
 10
806.8748261723508
 20
265.9411758402471
 30
0.0
 11
910.3748261723508
 21
265.9411758402471
 31
0.0
1001
ACAD
1000
ASC_BOUNDS
1002
{
1070
    19
1002
}
  0
SPLINE
  5
B2D
330
2
100
AcDbEntity
  8
LINIE
 48
10.0
100
AcDbSpline
210
0.0
220
0.0
230
1.0
 70
     8
 71
     3
 72
    12
 73
     8
 74
     6
 42
0.0000000001
 43
0.0000000001
 44
0.0000000001
 40
0.0
 40
0.0
 40
0.0
 40
0.0
 40
4.851711911382057
 40
18.01859907913494
 40
32.6652872934349
 40
43.80667159575153
 40
46.09696782555228
 40
46.09696782555228
 40
46.09696782555228
 40
46.09696782555228
 10
747.3748261723506
 20
253.9485424534887
 30
0.0
 10
748.8590300027019
 20
254.5904680949679
 30
0.0
 10
754.3711614439938
 20
256.9744927410512
 30
0.0
 10
765.491703987372
 20
258.6327345459976
 30
0.0
 10
778.221408020328
 20
254.9993518555309
 30
0.0
 10
787.7169781596373
 20
257.0601733143295
 30
0.0
 10
792.0980585807135
 20
256.0696019368184
 30
0.0
 10
792.8450962985071
 20
255.9006951581143
 30
0.0
 11
747.3748261723506
 21
253.9485424534887
 31
0.0
 11
751.8725413145443
 21
255.7677914663309
 31
0.0
 11
764.9027822796142
 21
257.659811043542
 31
0.0
 11
779.4617132332082
 21
256.0588722141683
 31
0.0
 11
790.5992945257958
 21
256.3499514523678
 31
0.0
 11
792.8450962985071
 21
255.9006951581143
 31
0.0
  0
HATCH
  5
B2E
330
2
100
AcDbEntity
  8
LINIE
 48
10.0
100
AcDbHatch
 10
0.0
 20
0.0
 30
0.0
210
0.0
220
0.0
230
1.0
  2
ANSI31
 70
     0
 71
     0
 91
        4
 92
        5
 93
        6
 72
     1
 10
788.4993261723504
 20
245.9411758402471
 11
792.3243159151337
 21
245.9411758402471
 72
     2
 10
789.8748261723506
 20
246.4411758402471
 40
2.499999999999964
 50
348.4630409671819
 51
360.0
 73
     1
 72
     1
 10
792.3748261723505
 20
246.4411758402471
 11
792.3748261723505
 21
254.4411758402469
 72
     2
 10
794.8748261723506
 20
254.4411758402469
 40
2.499999999999997
 50
180.0000000000025
 51
215.7188059857725
 73
     0
 72
     4
 94
        3
 73
     0
 74
     0
 95
        9
 96
        5
 40
41.68509778057289
 40
41.68509778057289
 40
41.68509778057289
 40
41.68509778057289
 40
43.97539401037365
 40
46.09696782555251
 40
46.09696782555251
 40
46.09696782555251
 40
46.09696782555251
 10
792.8450962985071
 20
255.9006951581143
 10
792.0980585807138
 20
256.0696019368184
 10
790.6590162041346
 20
256.3949724053468
 10
789.2025755169286
 20
256.5071079789961
 10
788.49932617235
 20
256.526651294872
 72
     1
 10
788.4993261723507
 20
256.5266512948717
 11
788.4993261723504
 21
245.9411758402469
 97
        0
 92
        5
 93
        4
 72
     4
 94
        3
 73
     0
 74
     0
 95
        8
 96
        4
 40
40.20165906937299
 40
40.20165906937299
 40
40.20165906937299
 40
40.20165906937299
 40
41.68509778057289
 40
41.68509778057289
 40
41.68509778057289
 40
41.68509778057289
 10
788.4993261723498
 20
256.526651294872
 10
788.007602861141
 20
256.5403162972903
 10
787.5144723833064
 20
256.5371726692013
 10
787.0203261723504
 20
256.5223238940411
 72
     1
 10
787.0203261723506
 20
256.5223238940411
 11
787.0203261723504
 21
247.4201758402472
 72
     1
 10
787.0203261723504
 20
247.4201758402471
 11
788.4993261723506
 21
245.9411758402469
 72
     1
 10
788.4993261723507
 20
245.9411758402471
 11
788.4993261723508
 21
256.526651294872
 97
        0
 92
        5
 93
        4
 72
     1
 10
755.2503261723504
 20
245.9411758402471
 11
756.7293261723505
 21
247.420175840247
 72
     1
 10
756.7293261723507
 20
247.4201758402469
 11
756.7293261723507
 21
257.0789645246055
 72
     4
 94
        3
 73
     0
 74
     0
 95
        8
 96
        4
 40
8.357331474458167
 40
8.357331474458167
 40
8.357331474458167
 40
8.357331474458167
 40
9.859576091809659
 40
9.859576091809659
 40
9.859576091809659
 40
9.859576091809659
 10
756.7293261723537
 20
257.0789645246061
 10
756.2338615628473
 20
256.9831489793492
 10
755.7406549622637
 20
256.8765598721027
 10
755.250326172355
 20
256.7593653488675
 72
     1
 10
755.2503261723507
 20
256.7593653488664
 11
755.2503261723505
 21
245.9411758402469
 97
        0
 92
        5
 93
        5
 72
     4
 94
        3
 73
     0
 74
     0
 95
        9
 96
        5
 40
0.0
 40
0.0
 40
0.0
 40
0.0
 40
3.505619563075921
 40
8.357331474458169
 40
8.357331474458169
 40
8.357331474458169
 40
8.357331474458169
 10
755.250326172355
 20
256.7593653488675
 10
754.1061009387345
 20
256.4858816508106
 10
751.4156499365458
 20
255.696219109411
 10
748.8590300027022
 20
254.5904680949679
 10
747.3748261723506
 20
253.9485424534887
 72
     1
 10
747.3748261723503
 20
253.9485424534887
 11
747.3748261723506
 21
246.4411758402471
 72
     2
 10
749.8748261723508
 20
246.4411758402471
 40
2.500000000000019
 50
180.0000000000013
 51
191.5369590328181
 73
     1
 72
     1
 10
747.4253364295675
 20
245.9411758402471
 11
755.2503261723505
 21
245.9411758402471
 72
     1
 10
755.2503261723504
 20
245.9411758402471
 11
755.2503261723505
 21
256.7593653488663
 97
        0
 75
     0
 76
     1
 52
0.0
 41
25.0
 77
     0
 78
     1
 53
45.0
 43
213.0500715901022
 44
1.231466118493699
 45
-2.20970869120796
 46
2.209708691207961
 79
     0
 47
0.3395931865206437
 98
        4
 10
789.5195066047358
 20
249.7278844417665
 10
788.1606729364435
 20
250.4070703373245
 10
755.8883796495815
 20
251.0862577425196
 10
752.1515870617768
 20
250.4070703373245
  0
LINE
  5
B2F
330
2
100
AcDbEntity
  8
0
100
AcDbLine
 10
747.4253364295678
 20
245.9411758402471
 30
0.0
 11
792.3243159151338
 21
245.9411758402471
 31
0.0
1001
ACAD
1000
ASC_BOUNDS
1002
{
1070
    19
1005
0
1002
}
  0
LINE
  5
B30
330
2
100
AcDbEntity
  8
0
100
AcDbLine
 10
756.7293261723507
 20
247.4201758402469
 30
0.0
 11
787.0203261723509
 21
247.4201758402469
 31
0.0
1001
ACAD
1000
ASC_BOUNDS
1002
{
1070
    19
1002
}
  0
LINE
  5
B32
330
2
100
AcDbEntity
  8
0
100
AcDbLine
 10
661.4433286898292
 20
387.9411758402471
 30
0.0
 11
801.8748261723509
 21
387.9411758402471
 31
0.0
1001
ACAD
1000
ASC_BOUNDS
1002
{
1070
    19
1002
}
  0
ARC
  5
B33
330
2
100
AcDbEntity
  8
0
100
AcDbCircle
 10
698.8748261723507
 20
212.6208763786262
 30
0.0
 40
35.475
100
AcDbArc
 50
74.84609175875
 51
105.15390824125
  0
LINE
  5
B34
330
2
100
AcDbEntity
  8
0
100
AcDbLine
 10
721.3748261723508
 20
257.9411758402471
 30
0.0
 11
676.3748261723508
 21
257.9411758402471
 31
0.0
1001
ACAD
1000
ASC_BOUNDS
1002
{
1070
    19
1002
}
  0
LINE
  5
B35
330
2
100
AcDbEntity
  8
0
100
AcDbLine
 10
721.3748261723508
 20
248.0958763786262
 30
0.0
 11
676.3748261723508
 21
248.0958763786262
 31
0.0
  0
ARC
  5
B36
330
2
100
AcDbEntity
  8
0
100
AcDbCircle
 10
698.8748261723507
 20
262.416175840247
 30
0.0
 40
35.475
100
AcDbArc
 50
254.84609175875
 51
285.15390824125
  0
LINE
  5
B37
330
2
100
AcDbEntity
  8
0
100
AcDbLine
 10
719.8659077078377
 20
226.9411758402471
 30
0.0
 11
677.8837446368639
 21
226.9411758402471
 31
0.0
  0
LINE
  5
B38
330
2
100
AcDbEntity
  8
0
100
AcDbLine
 10
659.3748261723508
 20
257.9411758402471
 30
0.0
 11
741.8748261723508
 21
257.9411758402471
 31
0.0
1001
ACAD
1000
ASC_BOUNDS
1002
{
1070
    19
1002
}
  0
LINE
  5
B39
330
2
100
AcDbEntity
  8
LINIE
 48
10.0
100
AcDbLine
 10
658.5520814185752
 20
325.7843850469849
 30
0.0
 11
658.5520814185752
 21
268.0801377849312
 31
0.0
  0
ARC
  5
B3A
330
2
100
AcDbEntity
  8
0
100
AcDbCircle
 10
681.0664704074342
 20
240.0476083202925
 30
0.0
 40
8.048268058334087
100
AcDbArc
 50
54.34252181018697
 51
125.657478189813
  0
ARC
  5
B3B
330
2
100
AcDbEntity
  8
0
100
AcDbCircle
 10
681.0664704074342
 20
234.9894438985812
 30
0.0
 40
8.048268058334087
100
AcDbArc
 50
234.342521810187
 51
305.6574781898131
  0
ARC
  5
B3C
330
2
100
AcDbEntity
  8
0
100
AcDbCircle
 10
670.8748261723508
 20
261.941175840247
 30
0.0
 40
4.0
100
AcDbArc
 50
0.0
 51
90.0
1001
ACAD
1000
ASC_BOUNDS
1002
{
1070
    19
1002
}
  0
LINE
  5
B3D
330
2
100
AcDbEntity
  8
0
100
AcDbLine
 10
658.8748261723508
 20
259.4411758402471
 30
0.0
 11
658.8748261723508
 21
265.6056879757721
 31
0.0
  0
ARC
  5
B3E
330
2
100
AcDbEntity
  8
0
100
AcDbCircle
 10
661.4433286898292
 20
255.9411758402471
 30
0.0
 40
10.0
100
AcDbArc
 50
90.0
 51
131.4096221092697
1001
ACAD
1000
ASC_BOUNDS
1002
{
1070
    19
1002
}
  0
ARC
  5
B3F
330
2
100
AcDbEntity
  8
0
100
AcDbCircle
 10
661.3748261723507
 20
259.4411758402471
 30
0.0
 40
2.5
100
AcDbArc
 50
180.0
 51
216.8698976458518
  0
LINE
  5
B40
330
2
100
AcDbEntity
  8
0
100
AcDbLine
 10
674.8748261723508
 20
260.9411758402471
 30
0.0
 11
674.8748261723508
 21
261.941175840247
 31
0.0
1001
ACAD
1000
ASC_BOUNDS
1002
{
1070
    19
1002
}
  0
LINE
  5
B41
330
2
100
AcDbEntity
  8
0
100
AcDbLine
 10
676.3748261723508
 20
246.5869579141131
 30
0.0
 11
677.8837446368639
 21
248.0958763786262
 31
0.0
1001
ACAD
1000
ASC_BOUNDS
1002
{
1070
    19
1002
}
  0
LINE
  5
B42
330
2
100
AcDbEntity
  8
0
100
AcDbLine
 10
676.3748261723508
 20
248.0958763786262
 30
0.0
 11
676.3748261723508
 21
257.9411758402471
 31
0.0
1001
ACAD
1000
ASC_BOUNDS
1002
{
1070
    19
1002
}
  0
ARC
  5
B43
330
2
100
AcDbEntity
  8
0
100
AcDbCircle
 10
678.8748261723508
 20
260.9411758402471
 30
0.0
 40
4.0
100
AcDbArc
 50
180.0
 51
228.5903778907302
1001
ACAD
1000
ASC_BOUNDS
1002
{
1070
    19
1002
}
  0
LINE
  5
B44
330
2
100
AcDbEntity
  8
0
100
AcDbLine
 10
676.3748261723508
 20
228.4500943047601
 30
0.0
 11
677.8837446368639
 21
226.9411758402471
 31
0.0
1001
ACAD
1000
ASC_BOUNDS
1002
{
1070
    19
1002
}
  0
LINE
  5
B45
330
2
100
AcDbEntity
  8
0
100
AcDbLine
 10
676.3748261723508
 20
228.4500943047601
 30
0.0
 11
676.3748261723508
 21
246.5869579141131
 31
0.0
  0
LINE
  5
B46
330
2
100
AcDbEntity
  8
0
100
AcDbLine
 10
661.4433286898292
 20
265.9411758402471
 30
0.0
 11
670.8748261723508
 21
265.9411758402471
 31
0.0
1001
ACAD
1000
ASC_BOUNDS
1002
{
1070
    19
1002
}
  0
LINE
  5
B47
330
2
100
AcDbEntity
  8
0
100
AcDbLine
 10
685.7581146425177
 20
246.5869579141131
 30
0.0
 11
689.6012076768552
 21
246.5869579141131
 31
0.0
  0
LINE
  5
B48
330
2
100
AcDbEntity
  8
0
100
AcDbLine
 10
685.7581146425177
 20
228.4500943047601
 30
0.0
 11
689.6012076768552
 21
228.4500943047601
 31
0.0
  0
LINE
  5
B49
330
2
100
AcDbEntity
  8
0
100
AcDbLine
 10
689.6012076768552
 20
228.174744430331
 30
0.0
 11
689.6012076768552
 21
246.8623077885427
 31
0.0
  0
LINE
  5
B4A
330
2
100
AcDbEntity
  8
0
100
AcDbLine
 10
685.7581146425177
 20
228.4500943047601
 30
0.0
 11
685.7581146425177
 21
246.5869579141131
 31
0.0
  0
LINE
  5
B4B
330
2
100
AcDbEntity
  8
MITTE
 48
8.0
100
AcDbLine
 10
698.8748261723507
 20
263.4671454365466
 30
0.0
 11
698.8748261723507
 21
223.7320417046799
 31
0.0
  0
ARC
  5
B4C
330
2
100
AcDbEntity
  8
0
100
AcDbCircle
 10
651.2145721345063
 20
321.9411758402471
 30
0.0
 40
10.0
100
AcDbArc
 50
48.59037789073025
 51
90.0
  0
ARC
  5
B4D
330
2
100
AcDbEntity
  8
0
100
AcDbCircle
 10
661.4433286898292
 20
397.9411758402471
 30
0.0
 40
10.0
100
AcDbArc
 50
228.5903778907302
 51
270.0
1001
ACAD
1000
ASC_BOUNDS
1002
{
1070
    19
1002
}
  0
LINE
  5
B4E
330
2
100
AcDbEntity
  8
0
100
AcDbLine
 10
734.8748261723508
 20
324.0084979616036
 30
0.0
 11
734.8748261723508
 21
260.4411758402471
 31
0.0
1001
ACAD
1000
ASC_BOUNDS
1002
{
1070
    19
1002
}
  0
ARC
  5
B4F
330
2
100
AcDbEntity
  8
0
100
AcDbCircle
 10
732.3748261723508
 20
260.4411758402471
 30
0.0
 40
2.5
100
AcDbArc
 50
270.0
 51
0.0
1001
ACAD
1000
ASC_BOUNDS
1002
{
1070
    19
1002
}
  0
ARC
  5
B50
330
2
100
AcDbEntity
  8
0
100
AcDbCircle
 10
716.6831819372673
 20
240.0476083202925
 30
0.0
 40
8.048268058334087
100
AcDbArc
 50
54.34252181018697
 51
125.657478189813
  0
ARC
  5
B51
330
2
100
AcDbEntity
  8
0
100
AcDbCircle
 10
716.6831819372673
 20
234.9894438985812
 30
0.0
 40
8.048268058334087
100
AcDbArc
 50
234.342521810187
 51
305.6574781898131
  0
LINE
  5
B52
330
2
100
AcDbEntity
  8
0
100
AcDbLine
 10
711.9915377021839
 20
246.5869579141131
 30
0.0
 11
708.1484446678464
 21
246.5869579141131
 31
0.0
  0
LINE
  5
B53
330
2
100
AcDbEntity
  8
0
100
AcDbLine
 10
711.9915377021839
 20
228.4500943047601
 30
0.0
 11
708.1484446678464
 21
228.4500943047601
 31
0.0
  0
LINE
  5
B54
330
2
100
AcDbEntity
  8
0
100
AcDbLine
 10
711.9915377021839
 20
228.4500943047601
 30
0.0
 11
711.9915377021839
 21
246.5869579141131
 31
0.0
  0
LINE
  5
B55
330
2
100
AcDbEntity
  8
0
100
AcDbLine
 10
708.1484446678464
 20
228.174744430331
 30
0.0
 11
708.1484446678464
 21
246.8623077885427
 31
0.0
  0
LINE
  5
B56
330
2
100
AcDbEntity
  8
0
100
AcDbLine
 10
721.3748261723508
 20
246.5869579141131
 30
0.0
 11
719.8659077078377
 21
248.0958763786262
 31
0.0
1001
ACAD
1000
ASC_BOUNDS
1002
{
1070
    19
1002
}
  0
LINE
  5
B57
330
2
100
AcDbEntity
  8
0
100
AcDbLine
 10
721.3748261723508
 20
248.0958763786262
 30
0.0
 11
721.3748261723508
 21
257.9411758402471
 31
0.0
1001
ACAD
1000
ASC_BOUNDS
1002
{
1070
    19
1002
}
  0
LINE
  5
B58
330
2
100
AcDbEntity
  8
0
100
AcDbLine
 10
721.3748261723508
 20
228.4500943047601
 30
0.0
 11
719.8659077078377
 21
226.9411758402471
 31
0.0
1001
ACAD
1000
ASC_BOUNDS
1002
{
1070
    19
1002
}
  0
LINE
  5
B59
330
2
100
AcDbEntity
  8
0
100
AcDbLine
 10
721.3748261723508
 20
228.4500943047601
 30
0.0
 11
721.3748261723508
 21
246.5869579141131
 31
0.0
  0
ARC
  5
B5A
330
2
100
AcDbEntity
  8
0
100
AcDbCircle
 10
744.8748261723508
 20
254.4411758402471
 30
0.0
 40
2.5
100
AcDbArc
 50
0.0
 51
90.0
1001
ACAD
1000
ASC_BOUNDS
1002
{
1070
    19
1002
}
  0
LINE
  5
B5B
330
2
100
AcDbEntity
  8
0
100
AcDbLine
 10
756.0529590216155
 20
256.9411758402471
 30
0.0
 11
741.8748261723504
 21
256.9411758402471
 31
0.0
1001
ACAD
1000
ASC_BOUNDS
1002
{
1070
    19
1002
}
  0
LINE
  5
B5C
330
2
100
AcDbEntity
  8
0
100
AcDbLine
 10
741.8748261723508
 20
257.9411758402471
 30
0.0
 11
741.8748261723504
 21
256.9411758402471
 31
0.0
1001
ACAD
1000
ASC_BOUNDS
1002
{
1070
    19
1002
}
  0
ARC
  5
B5D
330
2
100
AcDbEntity
  8
0
100
AcDbCircle
 10
749.8748261723508
 20
246.4411758402471
 30
0.0
 40
2.5
100
AcDbArc
 50
180.0
 51
191.5369590328181
1001
ACAD
1000
ASC_BOUNDS
1002
{
1070
    19
1002
}
  0
LINE
  5
B5E
330
2
100
AcDbEntity
  8
0
100
AcDbLine
 10
747.3748261723508
 20
254.4411758402471
 30
0.0
 11
747.3748261723508
 21
246.4411758402471
 31
0.0
1001
ACAD
1000
ASC_BOUNDS
1002
{
1070
    19
1002
}
  0
LINE
  5
B5F
330
2
100
AcDbEntity
  8
0
100
AcDbLine
 10
756.7293261723507
 20
257.0789645246209
 30
0.0
 11
756.7293261723502
 21
247.4201758402469
 31
0.0
1001
ACAD
1000
ASC_BOUNDS
1002
{
1070
    19
1002
}
  0
LINE
  5
B60
330
2
100
AcDbEntity
  8
0
100
AcDbLine
 10
756.7293261723507
 20
247.4201758402469
 30
0.0
 11
755.2503261723504
 21
245.9411758402471
 31
0.0
1001
ACAD
1000
ASC_BOUNDS
1002
{
1070
    19
1002
}
  0
LINE
  5
B61
330
2
100
AcDbEntity
  8
LINIE
 48
10.0
100
AcDbLine
 10
755.2503261723509
 20
256.7593653488825
 30
0.0
 11
755.2503261723504
 21
245.9411758402471
 31
0.0
1001
ACAD
1000
ASC_BOUNDS
1002
{
1070
    19
1002
}
  0
ARC
  5
B62
330
2
100
AcDbEntity
  8
0
100
AcDbCircle
 10
737.3748261723508
 20
324.0084979616036
 30
0.0
 40
2.5
100
AcDbArc
 50
90.0
 51
180.0
1001
ACAD
1000
ASC_BOUNDS
1002
{
1070
    19
1002
}
  0
LINE
  5
B67
330
2
100
AcDbEntity
  8
0
100
AcDbLine
 10
806.8748261723508
 20
387.9411758402471
 30
0.0
 11
864.3748261723509
 21
387.9411758402471
 31
0.0
1001
ACAD
1000
ASC_BOUNDS
1002
{
1070
    19
1002
}
  0
LINE
  5
B68
330
2
100
AcDbEntity
  8
0
 48
10.0
100
AcDbLine
 10
804.8748261723508
 20
257.9411758402471
 30
0.0
 11
804.8748261723508
 21
386.9411758402471
 31
0.0
  0
LINE
  5
B6A
330
2
100
AcDbEntity
  8
0
100
AcDbLine
 10
806.8748261723508
 20
387.9411758402471
 30
0.0
 11
806.8748261723508
 21
265.9411758402471
 31
0.0
  0
LINE
  5
B6B
330
2
100
AcDbEntity
  8
0
100
AcDbLine
 10
801.8748261723509
 20
256.9411758402471
 30
0.0
 11
770.9879737979413
 21
256.9411758402471
 31
0.0
1001
ACAD
1000
ASC_BOUNDS
1002
{
1070
    19
1002
}
  0
LINE
  5
B6C
330
2
100
AcDbEntity
  8
0
100
AcDbLine
 10
787.0203261723504
 20
247.4201758402469
 30
0.0
 11
788.4993261723507
 21
245.9411758402471
 31
0.0
1001
ACAD
1000
ASC_BOUNDS
1002
{
1070
    19
1002
}
  0
LINE
  5
B6D
330
2
100
AcDbEntity
  8
MITTE
 48
10.0
100
AcDbLine
 10
771.8748261723508
 20
262.6425201673082
 30
0.0
 11
771.8748261723508
 21
241.8420451167985
 31
0.0
  0
LINE
  5
B6E
330
2
100
AcDbEntity
  8
0
100
AcDbLine
 10
787.0203261723504
 20
256.5223238940435
 30
0.0
 11
787.0203261723504
 21
247.4201758402469
 31
0.0
1001
ACAD
1000
ASC_BOUNDS
1002
{
1070
    19
1002
}
  0
LINE
  5
B6F
330
2
100
AcDbEntity
  8
0
100
AcDbLine
 10
792.3748261723508
 20
254.4411758402471
 30
0.0
 11
792.3748261723508
 21
246.4411758402471
 31
0.0
1001
ACAD
1000
ASC_BOUNDS
1002
{
1070
    19
1002
}
  0
ARC
  5
B70
330
2
100
AcDbEntity
  8
0
100
AcDbCircle
 10
789.8748261723508
 20
246.4411758402471
 30
0.0
 40
2.5
100
AcDbArc
 50
348.4630409671819
 51
0.0
1001
ACAD
1000
ASC_BOUNDS
1002
{
1070
    19
1002
}
  0
LINE
  5
B71
330
2
100
AcDbEntity
  8
LINIE
 48
10.0
100
AcDbLine
 10
788.4993261723507
 20
256.526651294881
 30
0.0
 11
788.4993261723507
 21
245.9411758402471
 31
0.0
1001
ACAD
1000
ASC_BOUNDS
1002
{
1070
    19
1002
}
  0
ARC
  5
B72
330
2
100
AcDbEntity
  8
0
100
AcDbCircle
 10
794.8748261723508
 20
254.4411758402471
 30
0.0
 40
2.5
100
AcDbArc
 50
90.0
 51
180.0
1001
ACAD
1000
ASC_BOUNDS
1002
{
1070
    19
1002
}
  0
ARC
  5
B73
330
2
100
AcDbEntity
  8
0
100
AcDbCircle
 10
801.8748261723509
 20
261.941175840247
 30
0.0
 40
5.0
100
AcDbArc
 50
270.0
 51
306.8698976458538
1001
ACAD
1000
ASC_BOUNDS
1002
{
1070
    19
1002
}
  0
LINE
  5
B74
330
2
100
AcDbEntity
  8
0
100
AcDbLine
 10
806.8748261723508
 20
265.9411758402471
 30
0.0
 11
804.8748261723508
 21
267.9411758402471
 31
0.0
1001
ACAD
1000
ASC_BOUNDS
1002
{
1070
    19
1002
}
  0
LINE
  5
B75
330
2
100
AcDbEntity
  8
0
100
AcDbLine
 10
806.8748261723508
 20
387.9411758402471
 30
0.0
 11
804.8748261723508
 21
385.9411758402471
 31
0.0
1001
ACAD
1000
ASC_BOUNDS
1002
{
1070
    19
1002
}
  0
ARC
  5
B76
330
2
100
AcDbEntity
  8
0
100
AcDbCircle
 10
801.8748261723509
 20
382.9411758402471
 30
0.0
 40
5.0
100
AcDbArc
 50
53.1301023541462
 51
90.0
1001
ACAD
1000
ASC_BOUNDS
1002
{
1070
    19
1002
}
  0
LINE
  5
B77
330
2
100
AcDbEntity
  8
0
100
AcDbLine
 10
864.3748261723509
 20
387.9411758402471
 30
0.0
 11
864.3748261723509
 21
265.9411758402471
 31
0.0
1001
ACAD
1000
ASC_BOUNDS
1002
{
1070
    19
1002
}
  0
LINE
  5
B78
330
2
100
AcDbEntity
  8
LINIE
 48
10.0
100
AcDbLine
 10
869.0098261723511
 20
281.9411758402471
 30
0.0
 11
869.0098261723507
 21
266.4783544993156
 31
0.0
  0
LINE
  5
B79
330
2
100
AcDbEntity
  8
0
100
AcDbLine
 10
866.3748261723508
 20
266.4783544993156
 30
0.0
 11
866.3748261723508
 21
265.9411758402471
 31
0.0
1001
ACAD
1000
ASC_BOUNDS
1002
{
1070
    19
1002
}
  0
LINE
  5
B7A
330
2
100
AcDbEntity
  8
0
100
AcDbLine
 10
864.3748261723509
 20
387.9411758402471
 30
0.0
 11
864.3748261723509
 21
384.9411758402471
 31
0.0
1001
ACAD
1000
ASC_BOUNDS
1002
{
1070
    19
1002
}
  0
SPLINE
  5
B7B
330
2
100
AcDbEntity
  8
LINIE
 48
10.0
100
AcDbSpline
210
0.0
220
0.0
230
1.0
 70
     8
 71
     3
 72
    11
 73
     7
 74
     5
 42
0.0000000001
 43
0.0000000001
 44
0.0000000001
 40
0.0
 40
0.0
 40
0.0
 40
0.0
 40
2.62629010064643
 40
5.544780380777337
 40
8.310133457396172
 40
9.81545957471715
 40
9.81545957471715
 40
9.81545957471715
 40
9.81545957471715
 10
910.3748261723508
 20
300.8144413170605
 30
0.0
 10
911.1662743699465
 20
301.4516117057277
 30
0.0
 10
912.8372270333059
 20
302.7968438525588
 30
0.0
 10
915.3154856913822
 20
299.5965242852898
 30
0.0
 10
917.4344287512044
 20
302.1191405308965
 30
0.0
 10
918.8691253014846
 20
301.7332302999628
 30
0.0
 10
919.3748261723511
 20
301.597204922456
 30
0.0
 11
910.3748261723508
 21
300.8144413170605
 31
0.0
 11
912.7452713891129
 21
301.9451000485454
 31
0.0
 11
915.355939061647
 21
300.6404928974057
 31
0.0
 11
917.8795841629129
 21
301.7711533421109
 31
0.0
 11
919.3748261723511
 21
301.597204922456
 31
0.0
  0
LINE
  5
B81
330
2
100
AcDbEntity
  8
0
100
AcDbLine
 10
921.3748261723507
 20
372.4411758402471
 30
0.0
 11
921.3748261723507
 21
281.4411758402471
 31
0.0
1001
ACAD
1000
ASC_BOUNDS
1002
{
1070
    19
1002
}
  0
LINE
  5
B82
330
2
100
AcDbEntity
  8
0
100
AcDbLine
 10
910.3748261723508
 20
265.9411758402471
 30
0.0
 11
910.3748261723508
 21
386.9411758402471
 31
0.0
  0
LINE
  5
B83
330
2
100
AcDbEntity
  8
0
100
AcDbLine
 10
919.3748261723508
 20
374.4411758402471
 30
0.0
 11
919.3748261723508
 21
279.4411758402471
 31
0.0
  0
LINE
  5
B84
330
2
100
AcDbEntity
  8
0
100
AcDbLine
 10
883.3748261723508
 20
387.9411758402471
 30
0.0
 11
883.3748261723508
 21
265.9411758402471
 31
0.0
1001
ACAD
1000
ASC_BOUNDS
1002
{
1070
    19
1002
}
  0
LINE
  5
B85
330
2
100
AcDbEntity
  8
MITTE
 48
15.0
100
AcDbLine
 10
873.8748261723507
 20
264.4713435959216
 30
0.0
 11
873.8748261723507
 21
297.7724682069936
 31
0.0
  0
LINE
  5
B86
330
2
100
AcDbEntity
  8
0
100
AcDbLine
 10
878.1598261723509
 20
285.9411758402471
 30
0.0
 11
869.589826172351
 21
285.9411758402471
 31
0.0
  0
LINE
  5
B87
330
2
100
AcDbEntity
  8
0
100
AcDbLine
 10
878.1598261723509
 20
285.9411758402471
 30
0.0
 11
875.3748261723503
 21
287.5490963399404
 31
0.0
1001
ACAD
1000
ASC_BOUNDS
1002
{
1070
    19
1002
}
  0
LINE
  5
B88
330
2
100
AcDbEntity
  8
0
100
AcDbLine
 10
869.589826172351
 20
285.9411758402471
 30
0.0
 11
872.3748261723478
 21
287.5490963399382
 31
0.0
1001
ACAD
1000
ASC_BOUNDS
1002
{
1070
    19
1002
}
  0
LINE
  5
B89
330
2
100
AcDbEntity
  8
0
100
AcDbLine
 10
875.3748261723503
 20
287.5490963399404
 30
0.0
 11
872.3748261723478
 21
287.5490963399382
 31
0.0
  0
LINE
  5
B8A
330
2
100
AcDbEntity
  8
LINIE
 48
10.0
100
AcDbLine
 10
878.7398261723508
 20
281.9411758402471
 30
0.0
 11
878.7398261723508
 21
266.4783544993156
 31
0.0
  0
LINE
  5
B8B
330
2
100
AcDbEntity
  8
0
100
AcDbLine
 10
881.3748261723509
 20
266.4783544993156
 30
0.0
 11
881.3748261723509
 21
265.9411758402471
 31
0.0
1001
ACAD
1000
ASC_BOUNDS
1002
{
1070
    19
1002
}
  0
LINE
  5
B8C
330
2
100
AcDbEntity
  8
0
100
AcDbLine
 10
878.1598261723509
 20
267.0583544993158
 30
0.0
 11
869.5898261723508
 21
267.0583544993158
 31
0.0
  0
LINE
  5
B8D
330
2
100
AcDbEntity
  8
0
100
AcDbLine
 10
878.7398261723508
 20
266.4783544993156
 30
0.0
 11
878.1598261723509
 21
267.0583544993158
 31
0.0
1001
ACAD
1000
ASC_BOUNDS
1002
{
1070
    19
1002
}
  0
LINE
  5
B8E
330
2
100
AcDbEntity
  8
0
100
AcDbLine
 10
869.589826172351
 20
285.9411758402471
 30
0.0
 11
869.589826172351
 21
267.0583544993158
 31
0.0
1001
ACAD
1000
ASC_BOUNDS
1002
{
1070
    19
1002
}
  0
LINE
  5
B8F
330
2
100
AcDbEntity
  8
0
100
AcDbLine
 10
878.1598261723509
 20
285.9411758402471
 30
0.0
 11
878.1598261723509
 21
267.0583544993156
 31
0.0
1001
ACAD
1000
ASC_BOUNDS
1002
{
1070
    19
1002
}
  0
ARC
  5
B90
330
2
100
AcDbEntity
  8
0
100
AcDbCircle
 10
912.3748261723507
 20
277.4411758402471
 30
0.0
 40
2.0
100
AcDbArc
 50
90.0
 51
180.0
1001
ACAD
1000
ASC_BOUNDS
1002
{
1070
    19
1002
}
  0
LINE
  5
B91
330
2
100
AcDbEntity
  8
LINIE
 48
10.0
100
AcDbLine
 10
913.3748261723505
 20
298.4411758402471
 30
0.0
 11
917.3748261723506
 21
298.4411758402471
 31
0.0
1001
ACAD
1000
ASC_BOUNDS
1002
{
1070
    19
1002
}
  0
LINE
  5
B92
330
2
100
AcDbEntity
  8
LINIE
 48
10.0
100
AcDbLine
 10
912.1418261723507
 20
286.4411758402471
 30
0.0
 11
911.3748261723506
 21
285.674175840247
 31
0.0
  0
LINE
  5
B93
330
2
100
AcDbEntity
  8
0
 48
10.0
100
AcDbLine
 10
918.6078261723505
 20
286.4411758402471
 30
0.0
 11
919.3748261723506
 21
285.674175840247
 31
0.0
  0
LINE
  5
B94
330
2
100
AcDbEntity
  8
LINIE
 48
10.0
100
AcDbLine
 10
919.3748261723508
 20
286.4411758402471
 30
0.0
 11
919.3748261723506
 21
285.674175840247
 31
0.0
  0
LINE
  5
B95
330
2
100
AcDbEntity
  8
LINIE
 48
10.0
100
AcDbLine
 10
911.3748261723507
 20
286.4411758402471
 30
0.0
 11
911.3748261723506
 21
285.674175840247
 31
0.0
  0
LINE
  5
B96
330
2
100
AcDbEntity
  8
LINIE
 48
10.0
100
AcDbLine
 10
911.3748261723506
 20
285.674175840247
 30
0.0
 11
919.3748261723506
 21
285.674175840247
 31
0.0
  0
LINE
  5
B97
330
2
100
AcDbEntity
  8
LINIE
 48
10.0
100
AcDbLine
 10
911.3748261723507
 20
286.4411758402471
 30
0.0
 11
919.3748261723508
 21
286.4411758402471
 31
0.0
1001
ACAD
1000
ASC_BOUNDS
1002
{
1070
    19
1002
}
  0
LINE
  5
B98
330
2
100
AcDbEntity
  8
0
 48
10.0
100
AcDbLine
 10
912.1418261723507
 20
286.4411758402471
 30
0.0
 11
918.6078261723505
 21
286.4411758402471
 31
0.0
1001
ACAD
1000
ASC_BOUNDS
1002
{
1070
    19
1002
}
  0
INSERT
  5
B99
330
2
100
AcDbEntity
  8
SCHRAFF
 48
10.0
100
AcDbBlockReference
  2
*X0
 10
814.6478354374906
 20
125.0540074611483
 30
0.0
1001
ACAD
1000
HATCH
1002
{
1070
    19
1000
AR-CONC
1040
0.2
1040
0.0
1002
}
  0
LINE
  5
B9A
330
2
100
AcDbEntity
  8
LINIE
 48
10.0
100
AcDbLine
 10
917.3748261723506
 20
298.4411758402471
 30
0.0
 11
918.6078261723505
 21
286.4411758402471
 31
0.0
1001
ACAD
1000
ASC_BOUNDS
1002
{
1070
    19
1002
}
  0
LINE
  5
B9B
330
2
100
AcDbEntity
  8
LINIE
 48
10.0
100
AcDbLine
 10
913.3748261723505
 20
298.4411758402471
 30
0.0
 11
912.1418261723507
 21
286.4411758402471
 31
0.0
1001
ACAD
1000
ASC_BOUNDS
1002
{
1070
    19
1002
}
  0
LINE
  5
B9C
330
2
100
AcDbEntity
  8
0
100
AcDbLine
 10
912.3748261723507
 20
279.4411758402471
 30
0.0
 11
919.3748261723508
 21
279.4411758402471
 31
0.0
1001
ACAD
1000
ASC_BOUNDS
1002
{
1070
    19
1002
}
  0
LINE
  5
B9D
330
2
100
AcDbEntity
  8
LINIE
 48
10.0
100
AcDbLine
 10
912.3748261723507
 20
279.4411758402471
 30
0.0
 11
919.3748261723511
 21
279.4411758402471
 31
0.0
1001
ACAD
1000
ASC_BOUNDS
1002
{
1070
    19
1002
}
  0
LINE
  5
B9E
330
2
100
AcDbEntity
  8
LINIE
 48
10.0
100
AcDbLine
 10
911.3748261723507
 20
279.4411758402471
 30
0.0
 11
919.3748261723508
 21
279.4411758402471
 31
0.0
1001
ACAD
1000
ASC_BOUNDS
1002
{
1070
    19
1002
}
  0
LINE
  5
B9F
330
2
100
AcDbEntity
  8
LINIE
 48
10.0
100
AcDbLine
 10
911.3748261723506
 20
283.2081758402469
 30
0.0
 11
919.3748261723506
 21
283.2081758402469
 31
0.0
  0
LINE
  5
BA0
330
2
100
AcDbEntity
  8
LINIE
 48
10.0
100
AcDbLine
 10
918.6983261723508
 20
280.1176758402471
 30
0.0
 11
919.3748261723508
 21
279.4411758402471
 31
0.0
1001
ACAD
1000
ASC_BOUNDS
1002
{
1070
    19
1002
}
  0
LINE
  5
BA1
330
2
100
AcDbEntity
  8
0
 48
10.0
100
AcDbLine
 10
918.6078261723505
 20
282.4411758402471
 30
0.0
 11
919.3748261723506
 21
283.2081758402469
 31
0.0
  0
LINE
  5
BA2
330
2
100
AcDbEntity
  8
LINIE
 48
10.0
100
AcDbLine
 10
912.1418261723507
 20
282.4411758402471
 30
0.0
 11
918.6078261723505
 21
282.4411758402471
 31
0.0
  0
LINE
  5
BA3
330
2
100
AcDbEntity
  8
LINIE
 48
10.0
100
AcDbLine
 10
912.0513261723509
 20
280.1176758402471
 30
0.0
 11
918.6983261723508
 21
280.1176758402471
 31
0.0
1001
ACAD
1000
ASC_BOUNDS
1002
{
1070
    19
1002
}
  0
LINE
  5
BA4
330
2
100
AcDbEntity
  8
LINIE
 48
10.0
100
AcDbLine
 10
918.6983261723508
 20
282.5316758402469
 30
0.0
 11
918.6983261723508
 21
280.1176758402471
 31
0.0
1001
ACAD
1000
ASC_BOUNDS
1002
{
1070
    19
1002
}
  0
LINE
  5
BA5
330
2
100
AcDbEntity
  8
LINIE
 48
10.0
100
AcDbLine
 10
912.0513261723509
 20
282.5316758402466
 30
0.0
 11
912.0513261723509
 21
280.1176758402471
 31
0.0
1001
ACAD
1000
ASC_BOUNDS
1002
{
1070
    19
1002
}
  0
LINE
  5
BA6
330
2
100
AcDbEntity
  8
LINIE
 48
10.0
100
AcDbLine
 10
912.0513261723509
 20
280.1176758402471
 30
0.0
 11
911.3748261723507
 21
279.4411758402471
 31
0.0
1001
ACAD
1000
ASC_BOUNDS
1002
{
1070
    19
1002
}
  0
LINE
  5
BA7
330
2
100
AcDbEntity
  8
LINIE
 48
10.0
100
AcDbLine
 10
912.1418261723507
 20
282.4411758402471
 30
0.0
 11
911.3748261723506
 21
283.2081758402469
 31
0.0
  0
LINE
  5
BA8
330
2
100
AcDbEntity
  8
LINIE
 48
10.0
100
AcDbLine
 10
911.3748261723507
 20
283.2081758402467
 30
0.0
 11
911.3748261723507
 21
279.1732266478159
 31
0.0
1001
ACAD
1000
ASC_BOUNDS
1002
{
1070
    19
1002
}
  0
LINE
  5
BA9
330
2
100
AcDbEntity
  8
LINIE
 48
10.0
100
AcDbLine
 10
919.3748261723506
 20
283.2081758402469
 30
0.0
 11
919.3748261723508
 21
279.4411758402471
 31
0.0
1001
ACAD
1000
ASC_BOUNDS
1002
{
1070
    19
1002
}
  0
LINE
  5
BAA
330
2
100
AcDbEntity
  8
0
100
AcDbLine
 10
912.3748261723507
 20
279.4411758402471
 30
0.0
 11
919.3748261723511
 21
279.4411758402471
 31
0.0
1001
ACAD
1000
ASC_BOUNDS
1002
{
1070
    19
1002
}
  0
LINE
  5
BAB
330
2
100
AcDbEntity
  8
LINIE
 48
10.0
100
AcDbLine
 10
912.1418261723507
 20
286.4411758402471
 30
0.0
 11
912.1418261723507
 21
282.4411758402471
 31
0.0
  0
LINE
  5
BAC
330
2
100
AcDbEntity
  8
LINIE
 48
10.0
100
AcDbLine
 10
918.6078261723505
 20
286.4411758402471
 30
0.0
 11
918.6078261723505
 21
282.4411758402471
 31
0.0
  0
LINE
  5
BAD
330
2
100
AcDbEntity
  8
LINIE
 48
10.0
100
AcDbLine
 10
911.3748261723506
 20
285.674175840247
 30
0.0
 11
911.3748261723506
 21
283.2081758402469
 31
0.0
  0
LINE
  5
BAE
330
2
100
AcDbEntity
  8
LINIE
 48
10.0
100
AcDbLine
 10
919.3748261723506
 20
285.674175840247
 30
0.0
 11
919.3748261723506
 21
283.2081758402469
 31
0.0
  0
LINE
  5
BAF
330
2
100
AcDbEntity
  8
0
100
AcDbLine
 10
912.3748261723507
 20
279.4411758402471
 30
0.0
 11
919.3748261723508
 21
279.4411758402471
 31
0.0
1001
ACAD
1000
ASC_BOUNDS
1002
{
1070
    19
1002
}
  0
LINE
  5
BB0
330
2
100
AcDbEntity
  8
0
100
AcDbLine
 10
921.3748261723507
 20
281.4411758402471
 30
0.0
 11
919.3748261723508
 21
279.4411758402471
 31
0.0
1001
ACAD
1000
ASC_BOUNDS
1002
{
1070
    19
1002
}
  0
LINE
  5
BB1
330
2
100
AcDbEntity
  8
0
100
AcDbLine
 10
883.3748261723508
 20
387.9411758402471
 30
0.0
 11
910.3748261723508
 21
387.9411758402471
 31
0.0
1001
ACAD
1000
ASC_BOUNDS
1002
{
1070
    19
1002
}
  0
LINE
  5
BB2
330
2
100
AcDbEntity
  8
0
100
AcDbLine
 10
883.3748261723508
 20
387.9411758402471
 30
0.0
 11
883.3748261723508
 21
384.9411758402471
 31
0.0
1001
ACAD
1000
ASC_BOUNDS
1002
{
1070
    19
1002
}
  0
LINE
  5
BB3
330
2
100
AcDbEntity
  8
0
100
AcDbLine
 10
910.3748261723508
 20
386.9411758402471
 30
0.0
 11
915.8748261723507
 21
386.9411758402471
 31
0.0
  0
LINE
  5
BB4
330
2
100
AcDbEntity
  8
0
100
AcDbLine
 10
910.3748261723508
 20
376.9411758402471
 30
0.0
 11
915.8748261723507
 21
376.9411758402471
 31
0.0
  0
ARC
  5
BB5
330
2
100
AcDbEntity
  8
0
100
AcDbCircle
 10
912.3748261723507
 20
376.441175840247
 30
0.0
 40
2.0
100
AcDbArc
 50
180.0
 51
270.0
1001
ACAD
1000
ASC_BOUNDS
1002
{
1070
    19
1002
}
  0
LINE
  5
BB6
330
2
100
AcDbEntity
  8
0
100
AcDbLine
 10
910.3748261723508
 20
387.9411758402471
 30
0.0
 11
910.3748261723508
 21
376.441175840247
 31
0.0
1001
ACAD
1000
ASC_BOUNDS
1002
{
1070
    19
1002
}
  0
ARC
  5
BB7
330
2
100
AcDbEntity
  8
0
100
AcDbCircle
 10
915.8748261723507
 20
386.4411758402471
 30
0.0
 40
0.5
100
AcDbArc
 50
0.0
 51
90.0
  0
ARC
  5
BB8
330
2
100
AcDbEntity
  8
0
100
AcDbCircle
 10
915.8748261723507
 20
377.4411758402471
 30
0.0
 40
0.5
100
AcDbArc
 50
270.0
 51
0.0
  0
LINE
  5
BB9
330
2
100
AcDbEntity
  8
0
100
AcDbLine
 10
912.3748261723507
 20
374.4411758402471
 30
0.0
 11
919.3748261723508
 21
374.4411758402471
 31
0.0
1001
ACAD
1000
ASC_BOUNDS
1002
{
1070
    19
1002
}
  0
LINE
  5
BBA
330
2
100
AcDbEntity
  8
0
100
AcDbLine
 10
919.3748261723508
 20
374.4411758402471
 30
0.0
 11
921.3748261723507
 21
372.4411758402471
 31
0.0
1001
ACAD
1000
ASC_BOUNDS
1002
{
1070
    19
1002
}
  0
LINE
  5
BBB
330
2
100
AcDbEntity
  8
0
100
AcDbLine
 10
916.3748261723508
 20
377.4411758402471
 30
0.0
 11
916.3748261723508
 21
386.4411758402471
 31
0.0
  0
ARC
  5
BBE
330
2
100
AcDbEntity
  8
0
100
AcDbCircle
 10
1077.013360854506
 20
347.497525026351
 30
0.0
 40
90.0
100
AcDbArc
 50
346.7968803211761
 51
218.3212863366516
  0
LINE
  5
BBF
330
2
100
AcDbEntity
  8
MITTE
 48
20.0
100
AcDbLine
 10
1077.013360854506
 20
449.1368874056002
 30
0.0
 11
1077.013360854506
 21
211.9307527404494
 31
0.0
  0
LINE
  5
BC1
330
2
100
AcDbEntity
  8
MITTE
 48
10.0
100
AcDbLine
 10
1146.039863608362
 20
326.9411758402471
 30
0.0
 11
1009.495082085817
 21
326.9411758402471
 31
0.0
  0
LINE
  5
BC2
330
2
100
AcDbEntity
  8
MITTE
 48
20.0
100
AcDbLine
 10
978.697662066032
 20
347.497525026351
 30
0.0
 11
1175.490938902935
 21
347.497525026351
 31
0.0
  0
LINE
  5
BC3
330
2
100
AcDbEntity
  8
0
100
AcDbLine
 10
1077.013360854506
 20
244.497525026351
 30
0.0
 11
1104.013360854506
 21
244.497525026351
 31
0.0
  0
ARC
  5
BC4
330
2
100
AcDbEntity
  8
0
100
AcDbCircle
 10
1077.013360854506
 20
347.497525026351
 30
0.0
 40
90.0
100
AcDbArc
 50
218.3212863366516
 51
346.7968803211761
  0
CIRCLE
  5
BC5
330
2
100
AcDbEntity
  8
0
100
AcDbCircle
 10
1025.748119218481
 20
398.7627666623753
 30
0.0
 40
5.75
  0
ARC
  5
BC6
330
2
100
AcDbEntity
  8
MITTE
 48
15.0
100
AcDbCircle
 10
1077.013360854506
 20
347.497525026351
 30
0.0
 40
72.5
100
AcDbArc
 50
126.4882836599108
 51
143.5766557743763
  0
LINE
  5
BC7
330
2
100
AcDbEntity
  8
MITTE
 48
10.0
100
AcDbLine
 10
1032.227038415821
 20
392.2838474650357
 30
0.0
 11
1019.348858898733
 21
405.1620269821237
 31
0.0
  0
LINE
  5
BC8
330
2
100
AcDbEntity
  8
MITTE
 48
10.0
100
AcDbLine
 10
1032.227038415821
 20
302.7112025876654
 30
0.0
 11
1019.348858898733
 21
289.8330230705779
 31
0.0
  0
CIRCLE
  5
BC9
330
2
100
AcDbEntity
  8
0
100
AcDbCircle
 10
1025.748119218481
 20
296.2322833903258
 30
0.0
 40
5.75
  0
ARC
  5
BCA
330
2
100
AcDbEntity
  8
MITTE
 48
15.0
100
AcDbCircle
 10
1077.013360854506
 20
347.497525026351
 30
0.0
 40
72.5
100
AcDbArc
 50
187.4328260304683
 51
233.5117163400892
  0
LINE
  5
BCB
330
2
100
AcDbEntity
  8
0
100
AcDbLine
 10
1016.513360854506
 20
256.9411758402471
 30
0.0
 11
1036.24660266538
 21
256.9411758402471
 31
0.0
1001
ACAD
1000
ASC_BOUNDS
1002
{
1070
    19
1002
}
  0
LINE
  5
BCC
330
2
100
AcDbEntity
  8
0
100
AcDbLine
 10
1036.24660266538
 20
256.9411758402471
 30
0.0
 11
1018.513360854506
 21
256.9411758402471
 31
0.0
1001
ACAD
1000
ASC_BOUNDS
1002
{
1070
    19
1005
0
1002
}
  0
ARC
  5
BCD
330
2
100
AcDbEntity
  8
0
100
AcDbCircle
 10
1028.763360854506
 20
224.4458763786265
 30
0.0
 40
23.65000000000001
100
AcDbArc
 50
70.14839776841552
 51
109.8516022315845
  0
LINE
  5
BCE
330
2
100
AcDbEntity
  8
0
100
AcDbLine
 10
1054.513360854506
 20
248.0958763786266
 30
0.0
 11
1016.513360854506
 21
248.0958763786262
 31
0.0
  0
ARC
  5
BCF
330
2
100
AcDbEntity
  8
0
100
AcDbCircle
 10
1028.763360854506
 20
250.5911758402472
 30
0.0
 40
23.65000000000001
100
AcDbArc
 50
250.1483977684155
 51
289.8516022315845
  0
LINE
  5
BD0
330
2
100
AcDbEntity
  8
0
100
AcDbLine
 10
1019.513360854506
 20
226.9411758402471
 30
0.0
 11
1058.513360854506
 21
226.9411758402471
 31
0.0
1001
ACAD
1000
ASC_BOUNDS
1002
{
1070
    19
1005
0
1002
}
  0
ARC
  5
BD1
330
2
100
AcDbEntity
  8
0
100
AcDbCircle
 10
1077.013360854506
 20
317.497525026351
 30
0.0
 40
73.0
100
AcDbArc
 50
205.2880282852026
 51
270.0
  0
LINE
  5
BD2
330
2
100
AcDbEntity
  8
0
100
AcDbLine
 10
1016.013360854506
 20
277.3976497148237
 30
0.0
 11
1016.013360854506
 21
259.4411758402471
 31
0.0
  0
LINE
  5
BD3
330
2
100
AcDbEntity
  8
0
100
AcDbLine
 10
1016.013360854506
 20
277.3976497148237
 30
0.0
 11
1016.013360854506
 21
259.4411758402471
 31
0.0
  0
LINE
  5
BD4
330
2
100
AcDbEntity
  8
0
100
AcDbLine
 10
1016.513360854506
 20
248.0958763786262
 30
0.0
 11
1016.513360854506
 21
256.9411758402471
 31
0.0
1001
ACAD
1000
ASC_BOUNDS
1002
{
1070
    19
1002
}
  0
LINE
  5
BD5
330
2
100
AcDbEntity
  8
0
100
AcDbLine
 10
1018.513360854506
 20
246.9411758402471
 30
0.0
 11
1016.513360854506
 21
248.0958763786262
 31
0.0
1001
ACAD
1000
ASC_BOUNDS
1002
{
1070
    19
1002
}
  0
LINE
  5
BD6
330
2
100
AcDbEntity
  8
0
100
AcDbLine
 10
1018.513360854506
 20
246.9411758402471
 30
0.0
 11
1020.732171652401
 21
246.6904824663952
 31
0.0
  0
ARC
  5
BD7
330
2
100
AcDbEntity
  8
0
100
AcDbCircle
 10
1018.513360854506
 20
259.4411758402471
 30
0.0
 40
2.5
100
AcDbArc
 50
180.0
 51
270.0
  0
ARC
  5
BD8
330
2
100
AcDbEntity
  8
0
100
AcDbCircle
 10
1018.513360854506
 20
259.4411758402471
 30
0.0
 40
2.5
100
AcDbArc
 50
180.0
 51
270.0
  0
LINE
  5
BD9
330
2
100
AcDbEntity
  8
0
100
AcDbLine
 10
1018.513360854506
 20
227.9411758402471
 30
0.0
 11
1019.513360854506
 21
226.9411758402471
 31
0.0
1001
ACAD
1000
ASC_BOUNDS
1002
{
1070
    19
1002
}
  0
LINE
  5
BDA
330
2
100
AcDbEntity
  8
0
100
AcDbLine
 10
1020.732171652401
 20
228.3465697524785
 30
0.0
 11
1018.513360854506
 21
227.9411758402471
 31
0.0
  0
LINE
  5
BDB
330
2
100
AcDbEntity
  8
0
100
AcDbLine
 10
1018.513360854506
 20
227.9411758402471
 30
0.0
 11
1018.513360854506
 21
246.9411758402471
 31
0.0
1001
ACAD
1000
ASC_BOUNDS
1002
{
1070
    19
1002
}
  0
LINE
  5
BDC
330
2
100
AcDbEntity
  8
0
100
AcDbLine
 10
1020.732171652401
 20
228.3465697524785
 30
0.0
 11
1020.732171652401
 21
246.6904824663952
 31
0.0
  0
ARC
  5
BDD
330
2
100
AcDbEntity
  8
0
100
AcDbCircle
 10
1049.263360854506
 20
224.4458763786265
 30
0.0
 40
23.65000000000001
100
AcDbArc
 50
77.17421556953353
 51
109.8516022315845
  0
ARC
  5
BDE
330
2
100
AcDbEntity
  8
0
100
AcDbCircle
 10
1049.263360854506
 20
250.5911758402472
 30
0.0
 40
23.65000000000001
100
AcDbArc
 50
250.1483977684155
 51
289.8516022315845
  0
LINE
  5
BDF
330
2
100
AcDbEntity
  8
0
100
AcDbLine
 10
1041.232171652401
 20
246.6904824663952
 30
0.0
 11
1036.79455005661
 21
246.6904824663952
 31
0.0
  0
LINE
  5
BE0
330
2
100
AcDbEntity
  8
0
100
AcDbLine
 10
1041.232171652401
 20
228.3465697524785
 30
0.0
 11
1036.79455005661
 21
228.3465697524785
 31
0.0
  0
LINE
  5
BE1
330
2
100
AcDbEntity
  8
0
100
AcDbLine
 10
1036.79455005661
 20
228.3465697524785
 30
0.0
 11
1036.79455005661
 21
246.6904824663952
 31
0.0
  0
LINE
  5
BE2
330
2
100
AcDbEntity
  8
MITTE
 48
7.0
100
AcDbLine
 10
1039.013360854506
 20
223.8834152326408
 30
0.0
 11
1039.013360854506
 21
260.2744500707377
 31
0.0
  0
LINE
  5
BE3
330
2
100
AcDbEntity
  8
0
100
AcDbLine
 10
1041.232171652401
 20
228.3465697524785
 30
0.0
 11
1041.232171652401
 21
246.6904824663952
 31
0.0
  0
LINE
  5
BE4
330
2
100
AcDbEntity
  8
0
100
AcDbLine
 10
1054.513360854506
 20
248.0515028220516
 30
0.0
 11
1054.513360854506
 21
246.4411758402471
 31
0.0
  0
ARC
  5
BE5
330
2
100
AcDbEntity
  8
0
100
AcDbCircle
 10
1057.013360854506
 20
246.4411758402471
 30
0.0
 40
2.5
100
AcDbArc
 50
180.0
 51
191.5369590328436
  0
LINE
  5
BE6
330
2
100
AcDbEntity
  8
0
100
AcDbLine
 10
1059.513360854506
 20
227.9411758402471
 30
0.0
 11
1057.29455005661
 21
228.3465697524785
 31
0.0
  0
LINE
  5
BE7
330
2
100
AcDbEntity
  8
0
100
AcDbLine
 10
1059.513360854506
 20
227.9411758402471
 30
0.0
 11
1058.513360854506
 21
226.9411758402471
 31
0.0
1001
ACAD
1000
ASC_BOUNDS
1002
{
1070
    19
1002
}
  0
LINE
  5
BE8
330
2
100
AcDbEntity
  8
0
100
AcDbLine
 10
1059.513360854506
 20
227.9411758402471
 30
0.0
 11
1059.513360854506
 21
245.9411758402461
 31
0.0
1001
ACAD
1000
ASC_BOUNDS
1002
{
1070
    19
1002
}
  0
LINE
  5
BE9
330
2
100
AcDbEntity
  8
0
100
AcDbLine
 10
1057.29455005661
 20
228.3465697524785
 30
0.0
 11
1057.29455005661
 21
245.9411758402461
 31
0.0
  0
LINE
  5
BEA
330
2
100
AcDbEntity
  8
0
100
AcDbLine
 10
1062.567292491236
 20
245.9411758402461
 30
0.0
 11
1054.563871111723
 21
245.9411758402461
 31
0.0
  0
CIRCLE
  5
BEB
330
2
100
AcDbEntity
  8
0
100
AcDbCircle
 10
1128.27860249053
 20
398.7627666623753
 30
0.0
 40
5.75
  0
LINE
  5
BEC
330
2
100
AcDbEntity
  8
MITTE
 48
10.0
100
AcDbLine
 10
1121.905048604519
 20
392.3892127763634
 30
0.0
 11
1135.888771401036
 21
406.3729355728805
 31
0.0
  0
LINE
  5
BED
330
2
100
AcDbEntity
  8
MITTE
 48
10.0
100
AcDbLine
 10
1121.905048604519
 20
302.6058372763382
 30
0.0
 11
1135.888771401036
 21
288.622114479821
 31
0.0
  0
ARC
  5
BEE
330
2
100
AcDbEntity
  8
MITTE
 48
15.0
100
AcDbCircle
 10
1077.013360854506
 20
347.497525026351
 30
0.0
 40
72.5
100
AcDbArc
 50
306.5931189888047
 51
324.1811683713748
  0
CIRCLE
  5
BEF
330
2
100
AcDbEntity
  8
0
100
AcDbCircle
 10
1128.27860249053
 20
296.2322833903258
 30
0.0
 40
5.75
  0
ARC
  5
BF0
330
2
100
AcDbEntity
  8
MITTE
 48
15.0
100
AcDbCircle
 10
1077.013360854506
 20
347.497525026351
 30
0.0
 40
72.5
100
AcDbArc
 50
13.38326018537864
 51
53.40688101119542
  0
LINE
  5
BF1
330
2
100
AcDbEntity
  8
0
100
AcDbLine
 10
1135.513360854506
 20
246.9411758402471
 30
0.0
 11
1133.29455005661
 21
246.6904824663952
 31
0.0
  0
LINE
  5
BF2
330
2
100
AcDbEntity
  8
0
100
AcDbLine
 10
1137.513360854506
 20
248.0958763786266
 30
0.0
 11
1123.953405281686
 21
248.0958763786266
 31
0.0
  0
LINE
  5
BF3
330
2
100
AcDbEntity
  8
0
100
AcDbLine
 10
1121.342600578558
 20
247.2462578997715
 30
0.0
 11
1157.726769366803
 21
259.0865392135124
 31
0.0
  0
LINE
  5
BF4
330
2
100
AcDbEntity
  8
0
100
AcDbLine
 10
1135.513360854506
 20
227.9411758402471
 30
0.0
 11
1133.29455005661
 21
228.3465697524785
 31
0.0
  0
LINE
  5
BF5
330
2
100
AcDbEntity
  8
0
100
AcDbLine
 10
1095.513360854506
 20
226.9411758402471
 30
0.0
 11
1134.513360854506
 21
226.9411758402471
 31
0.0
1001
ACAD
1000
ASC_BOUNDS
1002
{
1070
    19
1005
0
1002
}
  0
ARC
  5
BF6
330
2
100
AcDbEntity
  8
0
100
AcDbCircle
 10
1104.013360854506
 20
300.497525026351
 30
0.0
 40
56.0
100
AcDbArc
 50
270.0
 51
288.0261308132883
  0
ARC
  5
BF7
330
2
100
AcDbEntity
  8
0
100
AcDbCircle
 10
1104.763360854506
 20
250.5911758402472
 30
0.0
 40
23.65000000000001
100
AcDbArc
 50
250.1483977684155
 51
289.8516022315845
  0
LINE
  5
BF8
330
2
100
AcDbEntity
  8
0
100
AcDbLine
 10
1096.732171652401
 20
228.3465697524785
 30
0.0
 11
1094.513360854506
 21
227.9411758402471
 31
0.0
  0
LINE
  5
BF9
330
2
100
AcDbEntity
  8
0
100
AcDbLine
 10
1094.513360854506
 20
227.9411758402471
 30
0.0
 11
1095.513360854506
 21
226.9411758402471
 31
0.0
1001
ACAD
1000
ASC_BOUNDS
1002
{
1070
    19
1002
}
  0
LINE
  5
BFA
330
2
100
AcDbEntity
  8
0
100
AcDbLine
 10
1096.732171652401
 20
228.3465697524785
 30
0.0
 11
1096.732171652401
 21
244.497525026351
 31
0.0
  0
LINE
  5
BFB
330
2
100
AcDbEntity
  8
0
100
AcDbLine
 10
1094.513360854506
 20
227.9411758402471
 30
0.0
 11
1094.513360854506
 21
244.497525026351
 31
0.0
1001
ACAD
1000
ASC_BOUNDS
1002
{
1070
    19
1002
}
  0
ARC
  5
BFC
330
2
100
AcDbEntity
  8
0
100
AcDbCircle
 10
1125.263360854506
 20
250.5911758402472
 30
0.0
 40
23.65000000000001
100
AcDbArc
 50
250.1483977684155
 51
289.8516022315845
  0
LINE
  5
BFD
330
2
100
AcDbEntity
  8
0
100
AcDbLine
 10
1117.232171652401
 20
228.3465697524785
 30
0.0
 11
1112.79455005661
 21
228.3465697524785
 31
0.0
  0
LINE
  5
BFE
330
2
100
AcDbEntity
  8
MITTE
 48
7.0
100
AcDbLine
 10
1115.013360854506
 20
223.8834152326408
 30
0.0
 11
1115.013360854506
 21
260.2744500707377
 31
0.0
  0
LINE
  5
BFF
330
2
100
AcDbEntity
  8
0
100
AcDbLine
 10
1117.232171652401
 20
228.3465697524785
 30
0.0
 11
1117.232171652401
 21
246.0800366509265
 31
0.0
  0
LINE
  5
C00
330
2
100
AcDbEntity
  8
0
100
AcDbLine
 10
1112.79455005661
 20
228.3465697524785
 30
0.0
 11
1112.79455005661
 21
245.1902857515793
 31
0.0
  0
ARC
  5
C01
330
2
100
AcDbEntity
  8
0
100
AcDbCircle
 10
1125.263360854506
 20
224.4458763786265
 30
0.0
 40
23.65000000000001
100
AcDbArc
 50
70.14839776841552
 51
93.50511215251323
  0
LINE
  5
C02
330
2
100
AcDbEntity
  8
0
100
AcDbLine
 10
1133.29455005661
 20
228.3465697524785
 30
0.0
 11
1133.29455005661
 21
246.6904824663952
 31
0.0
  0
ARC
  5
C03
330
2
100
AcDbEntity
  8
0
100
AcDbCircle
 10
1154.013360854506
 20
270.497525026351
 30
0.0
 40
12.0
100
AcDbArc
 50
288.0261308132883
 51
10.35332004393006
  0
LINE
  5
C04
330
2
100
AcDbEntity
  8
0
100
AcDbLine
 10
1158.947912987833
 20
310.2587123880417
 30
0.0
 11
1165.817979455273
 21
272.6541380399526
 31
0.0
  0
LINE
  5
C05
330
2
100
AcDbEntity
  8
MITTE
 48
10.0
100
AcDbLine
 10
1154.013360854506
 20
276.543467269189
 30
0.0
 11
1154.013360854506
 21
264.8003735232237
 31
0.0
  0
LINE
  5
C06
330
2
100
AcDbEntity
  8
0
100
AcDbLine
 10
1137.513360854506
 20
248.0958763786266
 30
0.0
 11
1137.513360854506
 21
252.508611200698
 31
0.0
1001
ACAD
1000
ASC_BOUNDS
1002
{
1070
    19
1002
}
  0
LINE
  5
C07
330
2
100
AcDbEntity
  8
0
100
AcDbLine
 10
1135.513360854506
 20
246.9411758402471
 30
0.0
 11
1137.513360854506
 21
248.0958763786266
 31
0.0
1001
ACAD
1000
ASC_BOUNDS
1002
{
1070
    19
1002
}
  0
LINE
  5
C08
330
2
100
AcDbEntity
  8
0
100
AcDbLine
 10
1135.513360854506
 20
227.9411758402471
 30
0.0
 11
1134.513360854506
 21
226.9411758402471
 31
0.0
1001
ACAD
1000
ASC_BOUNDS
1002
{
1070
    19
1002
}
  0
LINE
  5
C09
330
2
100
AcDbEntity
  8
0
100
AcDbLine
 10
1135.513360854506
 20
227.9411758402471
 30
0.0
 11
1135.513360854506
 21
246.9411758402471
 31
0.0
1001
ACAD
1000
ASC_BOUNDS
1002
{
1070
    19
1002
}
  0
LINE
  5
C0A
330
2
100
AcDbEntity
  8
MITTE
 48
10.0
100
AcDbLine
 10
1149.276417952947
 20
270.497525026351
 30
0.0
 11
1160.128681361298
 21
270.497525026351
 31
0.0
  0
CIRCLE
  5
C0B
330
2
100
AcDbEntity
  8
0
100
AcDbCircle
 10
1154.013360854506
 20
270.497525026351
 30
0.0
 40
3.3235
  0
ARC
  5
C0C
330
2
100
AcDbEntity
  8
LINIE
 48
10.0
100
AcDbCircle
 10
1154.013360854506
 20
270.497525026351
 30
0.0
 40
4.0
100
AcDbArc
 50
163.3492982195179
 51
98.85437576424896
  0
ENDSEC
  0
SECTION
  2
OBJECTS
  0
DICTIONARY
  5
1B
330
0
100
AcDbDictionary
281
     1
  3
ACAD_COLOR
350
177C
  3
ACAD_GROUP
350
19
  3
ACAD_LAYOUT
350
3B0
  3
ACAD_MATERIAL
350
1752
  3
ACAD_MLEADERSTYLE
350
17A1
  3
ACAD_MLINESTYLE
350
1A
  3
ACAD_PLOTSETTINGS
350
3B1
  3
ACAD_PLOTSTYLENAME
350
3AE
  3
ACAD_SCALELIST
350
177F
  3
ACAD_TABLESTYLE
350
177D
  3
ACAD_VISUALSTYLE
350
176B
  3
ACDB_RECOMPOSE_DATA
350
189E
  3
ACDBVARIABLEDICTIONARY
350
37B
  3
ACMDICTIONARY
350
359
  3
AMG
350
3BA
  3
AMGSNAPSETTINGS
350
9CD
  3
ASE_INDEX_DICTIONARY
350
1896
  0
DICTIONARY
  5
188D
330
5
100
AcDbDictionary
280
     1
281
     1
  3
ADSK_XREC_LAYER_RECONCILED
360
188E
  0
DICTIONARY
  5
188F
330
41
100
AcDbDictionary
280
     1
281
     1
  3
ADSK_XREC_LAYER_RECONCILED
360
1890
  0
DICTIONARY
  5
1891
330
6E
100
AcDbDictionary
280
     1
281
     1
  3
ADSK_XREC_LAYER_RECONCILED
360
1892
  0
DICTIONARY
  5
1893
330
7C2
100
AcDbDictionary
280
     1
281
     1
  3
ADSK_XREC_LAYER_RECONCILED
360
1894
  0
DICTIONARY
  5
3
330
2
100
AcDbDictionary
280
     1
281
     1
  0
DICTIONARY
  5
177C
102
{ACAD_REACTORS
330
1B
102
}
330
1B
100
AcDbDictionary
281
     1
  0
DICTIONARY
  5
19
102
{ACAD_REACTORS
330
1B
102
}
330
1B
100
AcDbDictionary
281
     1
  0
DICTIONARY
  5
3B0
102
{ACAD_REACTORS
330
1B
102
}
330
1B
100
AcDbDictionary
281
     1
  3
Layout1
350
3B3
  3
Model
350
3B2
  0
DICTIONARY
  5
1752
102
{ACAD_REACTORS
330
1B
102
}
330
1B
100
AcDbDictionary
281
     1
  3
ByBlock
350
175B
  3
ByLayer
350
1753
  3
Global
350
1763
  0
DICTIONARY
  5
17A1
102
{ACAD_REACTORS
330
1B
102
}
330
1B
100
AcDbDictionary
281
     1
  3
Standard
350
17A2
  0
DICTIONARY
  5
1A
102
{ACAD_REACTORS
330
1B
102
}
330
1B
100
AcDbDictionary
281
     1
  3
STANDARD
350
1C
  0
DICTIONARY
  5
3B1
102
{ACAD_REACTORS
330
1B
102
}
330
1B
100
AcDbDictionary
281
     1
  0
ACDBDICTIONARYWDFLT
  5
3AE
102
{ACAD_REACTORS
330
1B
102
}
330
1B
100
AcDbDictionary
281
     1
  3
Normal
350
3AF
100
AcDbDictionaryWithDefault
340
3AF
  0
DICTIONARY
  5
177F
102
{ACAD_REACTORS
330
1B
102
}
330
1B
100
AcDbDictionary
281
     1
  3
A0
350
1780
  3
A1
350
1781
  3
A2
350
1782
  3
A3
350
1783
  3
A4
350
1784
  3
A5
350
1785
  3
A6
350
1786
  3
A7
350
1787
  3
A8
350
1788
  3
A9
350
1789
  3
B0
350
178A
  3
B1
350
178B
  3
B2
350
178C
  3
B3
350
178D
  3
B4
350
178E
  3
B5
350
178F
  3
B6
350
1790
  3
B7
350
1791
  3
B8
350
1792
  3
B9
350
1793
  3
C0
350
1794
  3
C1
350
1795
  3
C2
350
1796
  3
C3
350
1797
  3
C4
350
1798
  3
C5
350
1799
  3
C6
350
179A
  3
C7
350
179B
  3
C8
350
179C
  3
C9
350
179D
  3
D0
350
179E
  3
D1
350
179F
  3
D2
350
17A0
  0
DICTIONARY
  5
177D
102
{ACAD_REACTORS
330
1B
102
}
330
1B
100
AcDbDictionary
281
     1
  3
Standard
350
177E
  0
DICTIONARY
  5
176B
102
{ACAD_REACTORS
330
1B
102
}
330
1B
100
AcDbDictionary
281
     1
  3
2dWireframe
350
1771
  3
3D Hidden
350
1773
  3
3dWireframe
350
1772
  3
Basic
350
1770
  3
Brighten
350
1777
  3
ColorChange
350
177B
  3
Conceptual
350
1774
  3
Dim
350
1776
  3
Facepattern
350
177A
  3
Flat
350
176C
  3
FlatWithEdges
350
176D
  3
Gouraud
350
176E
  3
GouraudWithEdges
350
176F
  3
Linepattern
350
1779
  3
Realistic
350
1775
  3
Thicken
350
1778
  0
XRECORD
  5
189E
102
{ACAD_REACTORS
330
1B
102
}
330
1B
100
AcDbXrecord
280
     1
 90
        1
330
177E
  0
DICTIONARY
  5
37B
102
{ACAD_REACTORS
330
1B
102
}
330
1B
100
AcDbDictionary
281
     1
  3
CANNOSCALE
350
189B
  3
CMLEADERSTYLE
350
189A
  3
CTABLESTYLE
350
1899
  3
INDEXCTL
350
37C
  0
DICTIONARY
  5
359
102
{ACAD_REACTORS
330
1B
102
}
330
1B
100
AcDbDictionary
280
     1
281
     1
  3
ACMSTDDICTIONARY
360
35A
  0
DICTIONARY
  5
3BA
102
{ACAD_REACTORS
330
1B
102
}
330
1B
100
AcDbDictionary
281
     1
  0
DICTIONARY
  5
9CD
102
{ACAD_REACTORS
330
1B
102
}
330
1B
100
AcDbDictionary
281
     1
  0
DICTIONARY
  5
1896
102
{ACAD_REACTORS
330
1B
102
}
330
1B
100
AcDbDictionary
281
     1
  3
ASEBlockHierarchyIndexRecord
350
1898
1001
DCO15
1040
1732966458.63
  0
XRECORD
  5
188E
102
{ACAD_REACTORS
330
188D
102
}
330
188D
100
AcDbXrecord
280
     1
290
     1
  0
XRECORD
  5
1890
102
{ACAD_REACTORS
330
188F
102
}
330
188F
100
AcDbXrecord
280
     1
290
     1
  0
XRECORD
  5
1892
102
{ACAD_REACTORS
330
1891
102
}
330
1891
100
AcDbXrecord
280
     1
290
     1
  0
XRECORD
  5
1894
102
{ACAD_REACTORS
330
1893
102
}
330
1893
100
AcDbXrecord
280
     1
290
     1
  0
LAYOUT
  5
3B3
102
{ACAD_REACTORS
330
3B0
102
}
330
3B0
100
AcDbPlotSettings
  1

  2
Kein
  4

  6

 40
0.0
 41
0.0
 42
0.0
 43
0.0
 44
0.0
 45
0.0
 46
0.0
 47
0.0
 48
0.0
 49
0.0
140
0.0
141
0.0
142
1.0
143
1.0
 70
   688
 72
     0
 73
     0
 74
     5
  7
Test.ctb
 75
    16
147
1.0
 76
     0
 77
     2
 78
   300
148
0.0
149
0.0
100
AcDbLayout
  1
Layout1
 70
     0
 71
     1
 10
0.0
 20
0.0
 11
420.0
 21
297.0
 12
0.0
 22
0.0
 32
0.0
 14
1.000000000000000E+20
 24
1.000000000000000E+20
 34
1.000000000000000E+20
 15
-1.000000000000000E+20
 25
-1.000000000000000E+20
 35
-1.000000000000000E+20
146
0.0
 13
0.0
 23
0.0
 33
0.0
 16
1.0
 26
0.0
 36
0.0
 17
0.0
 27
1.0
 37
0.0
 76
     0
330
8
  0
LAYOUT
  5
3B2
102
{ACAD_REACTORS
330
3B0
102
}
330
3B0
100
AcDbPlotSettings
  1

  2
Kein
  4

  6

 40
0.0
 41
0.0
 42
0.0
 43
0.0
 44
0.0
 45
0.0
 46
0.0
 47
0.0
 48
0.0
 49
0.0
140
0.0
141
0.0
142
1.0
143
1.0
 70
  1712
 72
     0
 73
     0
 74
     0
  7
Test.ctb
 75
     0
147
1.0
 76
     0
 77
     2
 78
   300
148
0.0
149
0.0
100
AcDbLayout
  1
Model
 70
     1
 71
     0
 10
0.0
 20
0.0
 11
12.0
 21
9.0
 12
0.0
 22
0.0
 32
0.0
 14
0.0
 24
0.0
 34
0.0
 15
0.0
 25
0.0
 35
0.0
146
0.0
 13
0.0
 23
0.0
 33
0.0
 16
1.0
 26
0.0
 36
0.0
 17
0.0
 27
1.0
 37
0.0
 76
     0
330
2
331
1750
  0
MATERIAL
  5
175B
102
{ACAD_XDICTIONARY
360
175C
102
}
102
{ACAD_REACTORS
330
1752
102
}
330
1752
100
AcDbMaterial
  1
ByBlock
 72
     0
 43
0.0208333333333333
 43
0.0
 43
0.0
 43
0.0
 43
0.0
 43
0.0208333333333333
 43
0.0
 43
0.0
 43
0.0
 43
0.0
 43
1.0
 43
0.0
 43
0.0
 43
0.0
 43
0.0
 43
1.0
 77
     0
 47
0.0208333333333333
 47
0.0
 47
0.0
 47
0.0
 47
0.0
 47
0.0208333333333333
 47
0.0
 47
0.0
 47
0.0
 47
0.0
 47
1.0
 47
0.0
 47
0.0
 47
0.0
 47
0.0
 47
1.0
171
     0
 49
0.0208333333333333
 49
0.0
 49
0.0
 49
0.0
 49
0.0
 49
0.0208333333333333
 49
0.0
 49
0.0
 49
0.0
 49
0.0
 49
1.0
 49
0.0
 49
0.0
 49
0.0
 49
0.0
 49
1.0
175
     0
142
0.0208333333333333
142
0.0
142
0.0
142
0.0
142
0.0
142
0.0208333333333333
142
0.0
142
0.0
142
0.0
142
0.0
142
1.0
142
0.0
142
0.0
142
0.0
142
0.0
142
1.0
179
     0
144
0.0208333333333333
144
0.0
144
0.0
144
0.0
144
0.0
144
0.0208333333333333
144
0.0
144
0.0
144
0.0
144
0.0
144
1.0
144
0.0
144
0.0
144
0.0
144
0.0
144
1.0
147
0.0208333333333333
147
0.0
147
0.0
147
0.0
147
0.0
147
0.0208333333333333
147
0.0
147
0.0
147
0.0
147
0.0
147
1.0
147
0.0
147
0.0
147
0.0
147
0.0
147
1.0
  0
MATERIAL
  5
1753
102
{ACAD_XDICTIONARY
360
1754
102
}
102
{ACAD_REACTORS
330
1752
102
}
330
1752
100
AcDbMaterial
  1
ByLayer
 72
     0
 43
0.0208333333333333
 43
0.0
 43
0.0
 43
0.0
 43
0.0
 43
0.0208333333333333
 43
0.0
 43
0.0
 43
0.0
 43
0.0
 43
1.0
 43
0.0
 43
0.0
 43
0.0
 43
0.0
 43
1.0
 77
     0
 47
0.0208333333333333
 47
0.0
 47
0.0
 47
0.0
 47
0.0
 47
0.0208333333333333
 47
0.0
 47
0.0
 47
0.0
 47
0.0
 47
1.0
 47
0.0
 47
0.0
 47
0.0
 47
0.0
 47
1.0
171
     0
 49
0.0208333333333333
 49
0.0
 49
0.0
 49
0.0
 49
0.0
 49
0.0208333333333333
 49
0.0
 49
0.0
 49
0.0
 49
0.0
 49
1.0
 49
0.0
 49
0.0
 49
0.0
 49
0.0
 49
1.0
175
     0
142
0.0208333333333333
142
0.0
142
0.0
142
0.0
142
0.0
142
0.0208333333333333
142
0.0
142
0.0
142
0.0
142
0.0
142
1.0
142
0.0
142
0.0
142
0.0
142
0.0
142
1.0
179
     0
144
0.0208333333333333
144
0.0
144
0.0
144
0.0
144
0.0
144
0.0208333333333333
144
0.0
144
0.0
144
0.0
144
0.0
144
1.0
144
0.0
144
0.0
144
0.0
144
0.0
144
1.0
147
0.0208333333333333
147
0.0
147
0.0
147
0.0
147
0.0
147
0.0208333333333333
147
0.0
147
0.0
147
0.0
147
0.0
147
1.0
147
0.0
147
0.0
147
0.0
147
0.0
147
1.0
  0
MATERIAL
  5
1763
102
{ACAD_XDICTIONARY
360
1764
102
}
102
{ACAD_REACTORS
330
1752
102
}
330
1752
100
AcDbMaterial
  1
Global
 72
     0
 43
0.0208333333333333
 43
0.0
 43
0.0
 43
0.0
 43
0.0
 43
0.0208333333333333
 43
0.0
 43
0.0
 43
0.0
 43
0.0
 43
1.0
 43
0.0
 43
0.0
 43
0.0
 43
0.0
 43
1.0
 77
     0
 47
0.0208333333333333
 47
0.0
 47
0.0
 47
0.0
 47
0.0
 47
0.0208333333333333
 47
0.0
 47
0.0
 47
0.0
 47
0.0
 47
1.0
 47
0.0
 47
0.0
 47
0.0
 47
0.0
 47
1.0
171
     0
 49
0.0208333333333333
 49
0.0
 49
0.0
 49
0.0
 49
0.0
 49
0.0208333333333333
 49
0.0
 49
0.0
 49
0.0
 49
0.0
 49
1.0
 49
0.0
 49
0.0
 49
0.0
 49
0.0
 49
1.0
175
     0
142
0.0208333333333333
142
0.0
142
0.0
142
0.0
142
0.0
142
0.0208333333333333
142
0.0
142
0.0
142
0.0
142
0.0
142
1.0
142
0.0
142
0.0
142
0.0
142
0.0
142
1.0
179
     0
144
0.0208333333333333
144
0.0
144
0.0
144
0.0
144
0.0
144
0.0208333333333333
144
0.0
144
0.0
144
0.0
144
0.0
144
1.0
144
0.0
144
0.0
144
0.0
144
0.0
144
1.0
147
0.0208333333333333
147
0.0
147
0.0
147
0.0
147
0.0
147
0.0208333333333333
147
0.0
147
0.0
147
0.0
147
0.0
147
1.0
147
0.0
147
0.0
147
0.0
147
0.0
147
1.0
  0
MLEADERSTYLE
  5
17A2
102
{ACAD_REACTORS
330
17A1
102
}
330
17A1
100
AcDbMLeaderStyle
170
     2
171
     1
172
     0
 90
        2
 40
0.0
 41
0.0
173
     1
 91
-1056964608
340
F
 92
       -2
290
     1
 42
0.09
291
     1
 43
0.36
  3
Standard
 44
0.18
300

342
D
174
     1
178
     6
175
     1
176
     0
 93
-1056964608
 45
0.18
292
     0
297
     0
 46
0.18
 94
-1056964608
 47
1.0
 49
1.0
140
1.0
293
     1
141
0.0
294
     1
177
     0
142
1.0
295
     0
296
     0
143
0.125
1001
ACAD_MLEADERVER
1070
     2
  0
MLINESTYLE
  5
1C
102
{ACAD_REACTORS
330
1A
102
}
330
1A
100
AcDbMlineStyle
  2
STANDARD
 70
     0
  3

 62
     0
 51
90.0
 52
90.0
 71
     2
 49
0.5
 62
   256
  6
BYLAYER
 49
-0.5
 62
   256
  6
BYLAYER
  0
ACDBPLACEHOLDER
  5
3AF
102
{ACAD_REACTORS
330
3AE
102
}
330
3AE
  0
SCALE
  5
1780
102
{ACAD_REACTORS
330
177F
102
}
330
177F
100
AcDbScale
 70
     0
300
1:1
140
1.0
141
1.0
290
     1
  0
SCALE
  5
1781
102
{ACAD_REACTORS
330
177F
102
}
330
177F
100
AcDbScale
 70
     0
300
1:2
140
1.0
141
2.0
290
     0
  0
SCALE
  5
1782
102
{ACAD_REACTORS
330
177F
102
}
330
177F
100
AcDbScale
 70
     0
300
1:4
140
1.0
141
4.0
290
     0
  0
SCALE
  5
1783
102
{ACAD_REACTORS
330
177F
102
}
330
177F
100
AcDbScale
 70
     0
300
1:5
140
1.0
141
5.0
290
     0
  0
SCALE
  5
1784
102
{ACAD_REACTORS
330
177F
102
}
330
177F
100
AcDbScale
 70
     0
300
1:8
140
1.0
141
8.0
290
     0
  0
SCALE
  5
1785
102
{ACAD_REACTORS
330
177F
102
}
330
177F
100
AcDbScale
 70
     0
300
1:10
140
1.0
141
10.0
290
     0
  0
SCALE
  5
1786
102
{ACAD_REACTORS
330
177F
102
}
330
177F
100
AcDbScale
 70
     0
300
1:16
140
1.0
141
16.0
290
     0
  0
SCALE
  5
1787
102
{ACAD_REACTORS
330
177F
102
}
330
177F
100
AcDbScale
 70
     0
300
1:20
140
1.0
141
20.0
290
     0
  0
SCALE
  5
1788
102
{ACAD_REACTORS
330
177F
102
}
330
177F
100
AcDbScale
 70
     0
300
1:30
140
1.0
141
30.0
290
     0
  0
SCALE
  5
1789
102
{ACAD_REACTORS
330
177F
102
}
330
177F
100
AcDbScale
 70
     0
300
1:40
140
1.0
141
40.0
290
     0
  0
SCALE
  5
178A
102
{ACAD_REACTORS
330
177F
102
}
330
177F
100
AcDbScale
 70
     0
300
1:50
140
1.0
141
50.0
290
     0
  0
SCALE
  5
178B
102
{ACAD_REACTORS
330
177F
102
}
330
177F
100
AcDbScale
 70
     0
300
1:100
140
1.0
141
100.0
290
     0
  0
SCALE
  5
178C
102
{ACAD_REACTORS
330
177F
102
}
330
177F
100
AcDbScale
 70
     0
300
2:1
140
2.0
141
1.0
290
     0
  0
SCALE
  5
178D
102
{ACAD_REACTORS
330
177F
102
}
330
177F
100
AcDbScale
 70
     0
300
4:1
140
4.0
141
1.0
290
     0
  0
SCALE
  5
178E
102
{ACAD_REACTORS
330
177F
102
}
330
177F
100
AcDbScale
 70
     0
300
8:1
140
8.0
141
1.0
290
     0
  0
SCALE
  5
178F
102
{ACAD_REACTORS
330
177F
102
}
330
177F
100
AcDbScale
 70
     0
300
10:1
140
10.0
141
1.0
290
     0
  0
SCALE
  5
1790
102
{ACAD_REACTORS
330
177F
102
}
330
177F
100
AcDbScale
 70
     0
300
100:1
140
100.0
141
1.0
290
     0
  0
SCALE
  5
1791
102
{ACAD_REACTORS
330
177F
102
}
330
177F
100
AcDbScale
 70
     0
300
1/128" = 1'-0"
140
0.0078125
141
12.0
290
     0
  0
SCALE
  5
1792
102
{ACAD_REACTORS
330
177F
102
}
330
177F
100
AcDbScale
 70
     0
300
1/64" = 1'-0"
140
0.015625
141
12.0
290
     0
  0
SCALE
  5
1793
102
{ACAD_REACTORS
330
177F
102
}
330
177F
100
AcDbScale
 70
     0
300
1/32" = 1'-0"
140
0.03125
141
12.0
290
     0
  0
SCALE
  5
1794
102
{ACAD_REACTORS
330
177F
102
}
330
177F
100
AcDbScale
 70
     0
300
1/16" = 1'-0"
140
0.0625
141
12.0
290
     0
  0
SCALE
  5
1795
102
{ACAD_REACTORS
330
177F
102
}
330
177F
100
AcDbScale
 70
     0
300
3/32" = 1'-0"
140
0.09375
141
12.0
290
     0
  0
SCALE
  5
1796
102
{ACAD_REACTORS
330
177F
102
}
330
177F
100
AcDbScale
 70
     0
300
1/8" = 1'-0"
140
0.125
141
12.0
290
     0
  0
SCALE
  5
1797
102
{ACAD_REACTORS
330
177F
102
}
330
177F
100
AcDbScale
 70
     0
300
3/16" = 1'-0"
140
0.1875
141
12.0
290
     0
  0
SCALE
  5
1798
102
{ACAD_REACTORS
330
177F
102
}
330
177F
100
AcDbScale
 70
     0
300
1/4" = 1'-0"
140
0.25
141
12.0
290
     0
  0
SCALE
  5
1799
102
{ACAD_REACTORS
330
177F
102
}
330
177F
100
AcDbScale
 70
     0
300
3/8" = 1'-0"
140
0.375
141
12.0
290
     0
  0
SCALE
  5
179A
102
{ACAD_REACTORS
330
177F
102
}
330
177F
100
AcDbScale
 70
     0
300
1/2" = 1'-0"
140
0.5
141
12.0
290
     0
  0
SCALE
  5
179B
102
{ACAD_REACTORS
330
177F
102
}
330
177F
100
AcDbScale
 70
     0
300
3/4" = 1'-0"
140
0.75
141
12.0
290
     0
  0
SCALE
  5
179C
102
{ACAD_REACTORS
330
177F
102
}
330
177F
100
AcDbScale
 70
     0
300
1" = 1'-0"
140
1.0
141
12.0
290
     0
  0
SCALE
  5
179D
102
{ACAD_REACTORS
330
177F
102
}
330
177F
100
AcDbScale
 70
     0
300
1-1/2" = 1'-0"
140
1.5
141
12.0
290
     0
  0
SCALE
  5
179E
102
{ACAD_REACTORS
330
177F
102
}
330
177F
100
AcDbScale
 70
     0
300
3" = 1'-0"
140
3.0
141
12.0
290
     0
  0
SCALE
  5
179F
102
{ACAD_REACTORS
330
177F
102
}
330
177F
100
AcDbScale
 70
     0
300
6" = 1'-0"
140
6.0
141
12.0
290
     0
  0
SCALE
  5
17A0
102
{ACAD_REACTORS
330
177F
102
}
330
177F
100
AcDbScale
 70
     0
300
1'-0" = 1'-0"
140
12.0
141
12.0
290
     0
  0
TABLESTYLE
  5
177E
102
{ACAD_XDICTIONARY
360
189C
102
}
102
{ACAD_REACTORS
330
177D
102
}
330
177D
100
AcDbTableStyle
  3
Standard
 70
     0
 71
     0
 40
0.06
 41
0.06
280
     0
281
     0
  7
STANDARD
140
0.18
170
     2
 62
     0
 63
     7
283
     0
274
    -2
284
     1
 64
     0
275
    -2
285
     1
 65
     0
276
    -2
286
     1
 66
     0
277
    -2
287
     1
 67
     0
278
    -2
288
     1
 68
     0
279
    -2
289
     1
 69
     0
  7
STANDARD
140
0.25
170
     5
 62
     0
 63
     7
283
     0
274
    -2
284
     1
 64
     0
275
    -2
285
     1
 65
     0
276
    -2
286
     1
 66
     0
277
    -2
287
     1
 67
     0
278
    -2
288
     1
 68
     0
279
    -2
289
     1
 69
     0
  7
STANDARD
140
0.18
170
     5
 62
     0
 63
     7
283
     0
274
    -2
284
     1
 64
     0
275
    -2
285
     1
 65
     0
276
    -2
286
     1
 66
     0
277
    -2
287
     1
 67
     0
278
    -2
288
     1
 68
     0
279
    -2
289
     1
 69
     0
  0
VISUALSTYLE
  5
1771
102
{ACAD_REACTORS
330
176B
102
}
330
176B
100
AcDbVisualStyle
  2
2dWireframe
 70
     4
 71
     0
 72
     2
 73
     0
 90
        0
 40
-0.6
 41
-30.0
 62
     5
 63
     7
421
 16777215
 74
     1
 91
        4
 64
     7
 65
   257
 75
     1
175
     1
 42
1.0
 92
        0
 66
   257
 43
1.0
 76
     1
 77
     6
 78
     2
 67
     7
 79
     5
170
     0
171
     0
290
     0
174
     0
 93
        1
 44
0.0
173
     0
291
     0
 45
0.0
1001
ACAD
1000
AcDbSavedByObjectVersion
1070
     0
  0
VISUALSTYLE
  5
1773
102
{ACAD_REACTORS
330
176B
102
}
330
176B
100
AcDbVisualStyle
  2
3D Hidden
 70
     6
 71
     1
 72
     2
 73
     2
 90
        0
 40
-0.6
 41
-30.0
 62
     5
 63
     7
421
 16777215
 74
     2
 91
        2
 64
     7
 65
   257
 75
     2
175
     1
 42
40.0
 92
        0
 66
   257
 43
1.0
 76
     1
 77
     6
 78
     2
 67
     7
 79
     3
170
     0
171
     0
290
     0
174
     0
 93
        1
 44
0.0
173
     0
291
     0
 45
0.0
1001
ACAD
1000
AcDbSavedByObjectVersion
1070
     0
  0
VISUALSTYLE
  5
1772
102
{ACAD_REACTORS
330
176B
102
}
330
176B
100
AcDbVisualStyle
  2
3dWireframe
 70
     5
 71
     0
 72
     2
 73
     0
 90
        0
 40
-0.6
 41
-30.0
 62
     5
 63
     7
421
 16777215
 74
     1
 91
        4
 64
     7
 65
   257
 75
     1
175
     1
 42
1.0
 92
        0
 66
   257
 43
1.0
 76
     1
 77
     6
 78
     2
 67
     7
 79
     5
170
     0
171
     0
290
     0
174
     0
 93
        1
 44
0.0
173
     0
291
     0
 45
0.0
1001
ACAD
1000
AcDbSavedByObjectVersion
1070
     0
  0
VISUALSTYLE
  5
1770
102
{ACAD_REACTORS
330
176B
102
}
330
176B
100
AcDbVisualStyle
  2
Basic
 70
     7
 71
     1
 72
     0
 73
     1
 90
        0
 40
-0.6
 41
-30.0
 62
     5
 63
     7
421
 16777215
 74
     0
 91
        4
 64
     7
 65
   257
 75
     1
175
     1
 42
1.0
 92
        8
 66
     7
 43
1.0
 76
     1
 77
     6
 78
     2
 67
     7
 79
     5
170
     0
171
     0
290
     0
174
     0
 93
        1
 44
0.0
173
     0
291
     1
 45
0.0
1001
ACAD
1000
AcDbSavedByObjectVersion
1070
     0
  0
VISUALSTYLE
  5
1777
102
{ACAD_REACTORS
330
176B
102
}
330
176B
100
AcDbVisualStyle
  2
Brighten
 70
    12
 71
     2
 72
     2
 73
     0
 90
        0
 40
-0.6
 41
-30.0
 62
     5
 63
     7
421
 16777215
 74
     1
 91
        4
 64
     7
 65
   257
 75
     1
175
     1
 42
1.0
 92
        8
 66
     7
 43
1.0
 76
     1
 77
     6
 78
     2
 67
     7
 79
     5
170
     0
171
     0
290
     0
174
     0
 93
        1
 44
50.0
173
     0
291
     1
 45
0.0
1001
ACAD
1000
AcDbSavedByObjectVersion
1070
     0
  0
VISUALSTYLE
  5
177B
102
{ACAD_REACTORS
330
176B
102
}
330
176B
100
AcDbVisualStyle
  2
ColorChange
 70
    16
 71
     2
 72
     2
 73
     3
 90
        0
 40
-0.6
 41
-30.0
 62
     5
 63
     8
421
  8421504
 74
     1
 91
        4
 64
     7
 65
   257
 75
     1
175
     1
 42
1.0
 92
        8
 66
     8
424
  8421504
 43
1.0
 76
     1
 77
     6
 78
     2
 67
     7
 79
     5
170
     0
171
     0
290
     0
174
     0
 93
        1
 44
0.0
173
     0
291
     1
 45
0.0
1001
ACAD
1000
AcDbSavedByObjectVersion
1070
     0
  0
VISUALSTYLE
  5
1774
102
{ACAD_REACTORS
330
176B
102
}
330
176B
100
AcDbVisualStyle
  2
Conceptual
 70
     9
 71
     3
 72
     2
 73
     0
 90
        0
 40
-0.6
 41
-30.0
 62
     5
 63
     7
421
 16777215
 74
     2
 91
        2
 64
     7
 65
   257
 75
     1
175
     1
 42
40.0
 92
        8
 66
     7
 43
1.0
 76
     1
 77
     6
 78
     2
 67
     7
 79
     3
170
     0
171
     0
290
     0
174
     0
 93
        1
 44
0.0
173
     0
291
     0
 45
0.0
1001
ACAD
1000
AcDbSavedByObjectVersion
1070
     0
  0
VISUALSTYLE
  5
1776
102
{ACAD_REACTORS
330
176B
102
}
330
176B
100
AcDbVisualStyle
  2
Dim
 70
    11
 71
     2
 72
     2
 73
     0
 90
        0
 40
-0.6
 41
-30.0
 62
     5
 63
     7
421
 16777215
 74
     1
 91
        4
 64
     7
 65
   257
 75
     1
175
     1
 42
1.0
 92
        8
 66
     7
 43
1.0
 76
     1
 77
     6
 78
     2
 67
     7
 79
     5
170
     0
171
     0
290
     0
174
     0
 93
        1
 44
-50.0
173
     0
291
     1
 45
0.0
1001
ACAD
1000
AcDbSavedByObjectVersion
1070
     0
  0
VISUALSTYLE
  5
177A
102
{ACAD_REACTORS
330
176B
102
}
330
176B
100
AcDbVisualStyle
  2
Facepattern
 70
    15
 71
     2
 72
     2
 73
     0
 90
        0
 40
-0.6
 41
-30.0
 62
     5
 63
     7
421
 16777215
 74
     1
 91
        4
 64
     7
 65
   257
 75
     1
175
     1
 42
1.0
 92
        8
 66
     7
 43
1.0
 76
     1
 77
     6
 78
     2
 67
     7
 79
     5
170
     0
171
     0
290
     0
174
     0
 93
        1
 44
0.0
173
     0
291
     1
 45
0.0
1001
ACAD
1000
AcDbSavedByObjectVersion
1070
     0
  0
VISUALSTYLE
  5
176C
102
{ACAD_REACTORS
330
176B
102
}
330
176B
100
AcDbVisualStyle
  2
Flat
 70
     0
 71
     2
 72
     1
 73
     1
 90
        2
 40
-0.6
 41
30.0
 62
     5
 63
     7
421
 16777215
 74
     0
 91
        4
 64
     7
 65
   257
 75
     1
175
     1
 42
1.0
 92
        8
 66
     7
 43
1.0
 76
     1
 77
     6
 78
     2
 67
     7
 79
     5
170
     0
171
     0
290
     0
174
     0
 93
       13
 44
0.0
173
     0
291
     1
 45
0.0
1001
ACAD
1000
AcDbSavedByObjectVersion
1070
     0
  0
VISUALSTYLE
  5
176D
102
{ACAD_REACTORS
330
176B
102
}
330
176B
100
AcDbVisualStyle
  2
FlatWithEdges
 70
     1
 71
     2
 72
     1
 73
     1
 90
        2
 40
-0.6
 41
30.0
 62
     5
 63
     7
421
 16777215
 74
     1
 91
        4
 64
     7
 65
   257
 75
     1
175
     1
 42
1.0
 92
        0
 66
   257
 43
1.0
 76
     1
 77
     6
 78
     2
 67
     7
 79
     5
170
     0
171
     0
290
     0
174
     0
 93
       13
 44
0.0
173
     0
291
     1
 45
0.0
1001
ACAD
1000
AcDbSavedByObjectVersion
1070
     0
  0
VISUALSTYLE
  5
176E
102
{ACAD_REACTORS
330
176B
102
}
330
176B
100
AcDbVisualStyle
  2
Gouraud
 70
     2
 71
     2
 72
     2
 73
     1
 90
        2
 40
-0.6
 41
30.0
 62
     5
 63
     7
421
 16777215
 74
     0
 91
        4
 64
     7
 65
   257
 75
     1
175
     1
 42
1.0
 92
        0
 66
     7
 43
1.0
 76
     1
 77
     6
 78
     2
 67
     7
 79
     5
170
     0
171
     0
290
     0
174
     0
 93
       13
 44
0.0
173
     0
291
     1
 45
0.0
1001
ACAD
1000
AcDbSavedByObjectVersion
1070
     0
  0
VISUALSTYLE
  5
176F
102
{ACAD_REACTORS
330
176B
102
}
330
176B
100
AcDbVisualStyle
  2
GouraudWithEdges
 70
     3
 71
     2
 72
     2
 73
     1
 90
        2
 40
-0.6
 41
30.0
 62
     5
 63
     7
421
 16777215
 74
     1
 91
        4
 64
     7
 65
   257
 75
     1
175
     1
 42
1.0
 92
        0
 66
   257
 43
1.0
 76
     1
 77
     6
 78
     2
 67
     7
 79
     5
170
     0
171
     0
290
     0
174
     0
 93
       13
 44
0.0
173
     0
291
     1
 45
0.0
1001
ACAD
1000
AcDbSavedByObjectVersion
1070
     0
  0
VISUALSTYLE
  5
1779
102
{ACAD_REACTORS
330
176B
102
}
330
176B
100
AcDbVisualStyle
  2
Linepattern
 70
    14
 71
     2
 72
     2
 73
     0
 90
        0
 40
-0.6
 41
-30.0
 62
     5
 63
     7
421
 16777215
 74
     1
 91
        4
 64
     7
 65
   257
 75
     7
175
     7
 42
1.0
 92
        8
 66
     7
 43
1.0
 76
     1
 77
     6
 78
     2
 67
     7
 79
     5
170
     0
171
     0
290
     0
174
     0
 93
        1
 44
0.0
173
     0
291
     1
 45
0.0
1001
ACAD
1000
AcDbSavedByObjectVersion
1070
     0
  0
VISUALSTYLE
  5
1775
102
{ACAD_REACTORS
330
176B
102
}
330
176B
100
AcDbVisualStyle
  2
Realistic
 70
     8
 71
     2
 72
     2
 73
     0
 90
        0
 40
-0.6
 41
-30.0
 62
     5
 63
     7
421
 16777215
 74
     1
 91
        0
 64
     7
 65
   257
 75
     1
175
     1
 42
1.0
 92
        8
 66
     8
424
  7895160
 43
1.0
 76
     1
 77
     6
 78
     2
 67
     7
 79
     5
170
     0
171
     0
290
     0
174
     0
 93
       13
 44
0.0
173
     0
291
     0
 45
0.0
1001
ACAD
1000
AcDbSavedByObjectVersion
1070
     0
  0
VISUALSTYLE
  5
1778
102
{ACAD_REACTORS
330
176B
102
}
330
176B
100
AcDbVisualStyle
  2
Thicken
 70
    13
 71
     2
 72
     2
 73
     0
 90
        0
 40
-0.6
 41
-30.0
 62
     5
 63
     7
421
 16777215
 74
     1
 91
        4
 64
     7
 65
   257
 75
     1
175
     1
 42
1.0
 92
       12
 66
     7
 43
1.0
 76
     1
 77
     6
 78
     2
 67
     7
 79
     5
170
     0
171
     0
290
     0
174
     0
 93
        1
 44
0.0
173
     0
291
     1
 45
0.0
1001
ACAD
1000
AcDbSavedByObjectVersion
1070
     0
  0
DICTIONARYVAR
  5
189B
102
{ACAD_REACTORS
330
37B
102
}
330
37B
100
DictionaryVariables
280
     0
  1
1:1
  0
DICTIONARYVAR
  5
189A
102
{ACAD_REACTORS
330
37B
102
}
330
37B
100
DictionaryVariables
280
     0
  1
STANDARD
  0
DICTIONARYVAR
  5
1899
102
{ACAD_REACTORS
330
37B
102
}
330
37B
100
DictionaryVariables
280
     0
  1
STANDARD
  0
DICTIONARYVAR
  5
37C
102
{ACAD_REACTORS
330
37B
102
}
330
37B
100
DictionaryVariables
280
     0
  1
1
  0
DICTIONARY
  5
35A
102
{ACAD_REACTORS
330
359
102
}
330
359
100
AcDbDictionary
281
     1
  0
XRECORD
  5
1898
102
{ACAD_REACTORS
330
1896
102
}
330
1896
100
AcDbXrecord
280
     1
330
B99
  0
DICTIONARY
  5
175C
330
175B
100
AcDbDictionary
280
     1
281
     1
  3
ACAD_XREC_ROUNDTRIP
360
18A0
  3
BUMPTILE
360
175E
  3
DIFFUSETILE
360
175D
  3
OPACITYTILE
360
1761
  3
REFLECTIONTILE
360
1760
  3
REFRACTIONTILE
360
1762
  3
SPECULARTILE
360
175F
  0
DICTIONARY
  5
1754
330
1753
100
AcDbDictionary
280
     1
281
     1
  3
ACAD_XREC_ROUNDTRIP
360
189F
  3
BUMPTILE
360
1756
  3
DIFFUSETILE
360
1755
  3
OPACITYTILE
360
1759
  3
REFLECTIONTILE
360
1758
  3
REFRACTIONTILE
360
175A
  3
SPECULARTILE
360
1757
  0
DICTIONARY
  5
1764
330
1763
100
AcDbDictionary
280
     1
281
     1
  3
ACAD_XREC_ROUNDTRIP
360
18A1
  3
BUMPTILE
360
1766
  3
DIFFUSETILE
360
1765
  3
OPACITYTILE
360
1769
  3
REFLECTIONTILE
360
1768
  3
REFRACTIONTILE
360
176A
  3
SPECULARTILE
360
1767
  0
DICTIONARY
  5
189C
330
177E
100
AcDbDictionary
280
     1
281
     1
  3
ACAD_ROUNDTRIP_2008_TABLESTYLE_CELLSTYLEMAP
360
189D
  3
ACAD_XREC_ROUNDTRIP
360
18A2
  0
XRECORD
  5
18A0
102
{ACAD_REACTORS
330
175C
102
}
330
175C
100
AcDbXrecord
280
     1
102
MATERIAL
148
0.0
149
0.0
149
0.0
 93
        0
 94
      127
282
     0
 72
     0
 77
     0
171
     0
175
     0
179
     0
273
     0
  0
XRECORD
  5
175E
102
{ACAD_REACTORS
330
175C
102
}
330
175C
100
AcDbXrecord
280
     1
270
     1
271
     1
  0
XRECORD
  5
175D
102
{ACAD_REACTORS
330
175C
102
}
330
175C
100
AcDbXrecord
280
     1
270
     1
271
     1
  0
XRECORD
  5
1761
102
{ACAD_REACTORS
330
175C
102
}
330
175C
100
AcDbXrecord
280
     1
270
     1
271
     1
  0
XRECORD
  5
1760
102
{ACAD_REACTORS
330
175C
102
}
330
175C
100
AcDbXrecord
280
     1
270
     1
271
     1
  0
XRECORD
  5
1762
102
{ACAD_REACTORS
330
175C
102
}
330
175C
100
AcDbXrecord
280
     1
270
     1
271
     1
  0
XRECORD
  5
175F
102
{ACAD_REACTORS
330
175C
102
}
330
175C
100
AcDbXrecord
280
     1
270
     1
271
     1
  0
XRECORD
  5
189F
102
{ACAD_REACTORS
330
1754
102
}
330
1754
100
AcDbXrecord
280
     1
102
MATERIAL
148
0.0
149
0.0
149
0.0
 93
        0
 94
      127
282
     0
 72
     0
 77
     0
171
     0
175
     0
179
     0
273
     0
  0
XRECORD
  5
1756
102
{ACAD_REACTORS
330
1754
102
}
330
1754
100
AcDbXrecord
280
     1
270
     1
271
     1
  0
XRECORD
  5
1755
102
{ACAD_REACTORS
330
1754
102
}
330
1754
100
AcDbXrecord
280
     1
270
     1
271
     1
  0
XRECORD
  5
1759
102
{ACAD_REACTORS
330
1754
102
}
330
1754
100
AcDbXrecord
280
     1
270
     1
271
     1
  0
XRECORD
  5
1758
102
{ACAD_REACTORS
330
1754
102
}
330
1754
100
AcDbXrecord
280
     1
270
     1
271
     1
  0
XRECORD
  5
175A
102
{ACAD_REACTORS
330
1754
102
}
330
1754
100
AcDbXrecord
280
     1
270
     1
271
     1
  0
XRECORD
  5
1757
102
{ACAD_REACTORS
330
1754
102
}
330
1754
100
AcDbXrecord
280
     1
270
     1
271
     1
  0
XRECORD
  5
18A1
102
{ACAD_REACTORS
330
1764
102
}
330
1764
100
AcDbXrecord
280
     1
102
MATERIAL
148
0.0
149
0.0
149
0.0
 93
        0
 94
      127
282
     0
 72
     0
 77
     0
171
     0
175
     0
179
     0
273
     0
  0
XRECORD
  5
1766
102
{ACAD_REACTORS
330
1764
102
}
330
1764
100
AcDbXrecord
280
     1
270
     1
271
     1
  0
XRECORD
  5
1765
102
{ACAD_REACTORS
330
1764
102
}
330
1764
100
AcDbXrecord
280
     1
270
     1
271
     1
  0
XRECORD
  5
1769
102
{ACAD_REACTORS
330
1764
102
}
330
1764
100
AcDbXrecord
280
     1
270
     1
271
     1
  0
XRECORD
  5
1768
102
{ACAD_REACTORS
330
1764
102
}
330
1764
100
AcDbXrecord
280
     1
270
     1
271
     1
  0
XRECORD
  5
176A
102
{ACAD_REACTORS
330
1764
102
}
330
1764
100
AcDbXrecord
280
     1
270
     1
271
     1
  0
XRECORD
  5
1767
102
{ACAD_REACTORS
330
1764
102
}
330
1764
100
AcDbXrecord
280
     1
270
     1
271
     1
  0
CELLSTYLEMAP
  5
189D
102
{ACAD_REACTORS
330
189C
102
}
330
189C
100
AcDbCellStyleMap
 90
        3
300
CELLSTYLE
  1
TABLEFORMAT_BEGIN
 90
        5
170
     1
 91
        0
 92
    32768
 62
   257
 93
        1
300
CONTENTFORMAT
  1
CONTENTFORMAT_BEGIN
 90
        0
 91
        0
 92
      512
 93
        0
300

 40
0.0
140
1.0
 94
        5
 62
     0
340
D
144
0.25
309
CONTENTFORMAT_END
171
     0
 94
        0
309
TABLEFORMAT_END
  1
CELLSTYLE_BEGIN
 90
        1
 91
        1
300
_TITLE
309
CELLSTYLE_END
300
CELLSTYLE
  1
TABLEFORMAT_BEGIN
 90
        5
170
     1
 91
        0
 92
        0
 62
   257
 93
        1
300
CONTENTFORMAT
  1
CONTENTFORMAT_BEGIN
 90
        0
 91
        0
 92
      512
 93
        0
300

 40
0.0
140
1.0
 94
        5
 62
     0
340
D
144
0.18
309
CONTENTFORMAT_END
171
     0
 94
        0
309
TABLEFORMAT_END
  1
CELLSTYLE_BEGIN
 90
        2
 91
        1
300
_HEADER
309
CELLSTYLE_END
300
CELLSTYLE
  1
TABLEFORMAT_BEGIN
 90
        5
170
     1
 91
        0
 92
        0
 62
   257
 93
        1
300
CONTENTFORMAT
  1
CONTENTFORMAT_BEGIN
 90
        0
 91
        0
 92
      512
 93
        0
300

 40
0.0
140
1.0
 94
        2
 62
     0
340
D
144
0.18
309
CONTENTFORMAT_END
171
     0
 94
        0
309
TABLEFORMAT_END
  1
CELLSTYLE_BEGIN
 90
        3
 91
        2
300
_DATA
309
CELLSTYLE_END
  0
XRECORD
  5
18A2
102
{ACAD_REACTORS
330
189C
102
}
330
189C
100
AcDbXrecord
280
     1
102
ACAD_ROUNDTRIP_PRE2007_TABLESTYLE
 90
      512
 91
        0
  1

 92
      512
 93
        0
  2

 94
      512
 95
        0
  3

  0
ENDSEC
  0
EOF
