  0
SECTION
  2
HEADER
  9
$ACADVER
  1
AC1032
  9
$ACADMAINTVER
 90
        5
  9
$DWGCODEPAGE
  3
ANSI_1252
  9
$AUTHOR
  1
Lambert
  9
$REVISIONNUMBER
  1
-
  9
$CUSTOMPROPERTYTAG
  1
Manager
  9
$CUSTOMPROPERTY
  1

  9
$CUSTOMPROPERTYTAG
  1
Firma
  9
$CUSTOMPROPERTY
  1

  9
$CUSTOMPROPERTYTAG
  1
Kategorie
  9
$CUSTOMPROPERTY
  1

  9
$CUSTOMPROPERTYTAG
  1
Bauteilnummer
  9
$CUSTOMPROPERTY
  1
60002427
  9
$CUSTOMPROPERTYTAG
  1
Beschreibung
  9
$CUSTOMPROPERTY
  1
MUD 82-65
  9
$CUSTOMPROPERTYTAG
  1
Projekt
  9
$CUSTOMPROPERTY
  1
MUD 82-65
  9
$CUSTOMPROPERTYTAG
  1
Konstrukteur
  9
$CUSTOMPROPERTY
  1
Lambert
  9
$CUSTOMPROPERTYTAG
  1
Ingenieur
  9
$CUSTOMPROPERTY
  1

  9
$CUSTOMPROPERTYTAG
  1
Bevollmächtigter
  9
$CUSTOMPROPERTY
  1

  9
$CUSTOMPROPERTYTAG
  1
Kostenstelle
  9
$CUSTOMPROPERTY
  1

  9
$CUSTOMPROPERTYTAG
  1
Kosten
  9
$CUSTOMPROPERTY
  1

  9
$CUSTOMPROPERTYTAG
  1
Zulieferer
  9
$CUSTOMPROPERTY
  1

  9
$CUSTOMPROPERTYTAG
  1
Benutzerstatus
  9
$CUSTOMPROPERTY
  1

  9
$CUSTOMPROPERTYTAG
  1
Konstruktionsstatus
  9
$CUSTOMPROPERTY
  1
InBearbeitung
  9
$CUSTOMPROPERTYTAG
  1
Kontrolliert von
  9
$CUSTOMPROPERTY
  1
Basyouni
  9
$CUSTOMPROPERTYTAG
  1
Datum Überprüfung
  9
$CUSTOMPROPERTY
  1
10/09/2018
  9
$CUSTOMPROPERTYTAG
  1
Konstruktion genehmigt von
  9
$CUSTOMPROPERTY
  1

  9
$CUSTOMPROPERTYTAG
  1
Fertigung genehmigt von
  9
$CUSTOMPROPERTY
  1

  9
$CUSTOMPROPERTYTAG
  1
Erstellungsdatum
  9
$CUSTOMPROPERTY
  1
10/09/2018
  9
$CUSTOMPROPERTYTAG
  1
Bestandsnummer
  9
$CUSTOMPROPERTY
  1
Motor
  9
$REQUIREDVERSIONS
160
                 0
  9
$INSBASE
 10
0.0
 20
0.0
 30
0.0
  9
$EXTMIN
 10
0.0
 20
0.0
 30
0.0
  9
$EXTMAX
 10
594.0
 20
420.0
 30
0.0
  9
$LIMMIN
 10
0.0
 20
0.0
  9
$LIMMAX
 10
594.0
 20
420.0
  9
$ORTHOMODE
 70
     0
  9
$REGENMODE
 70
     1
  9
$FILLMODE
 70
     1
  9
$QTEXTMODE
 70
     0
  9
$MIRRTEXT
 70
     0
  9
$LTSCALE
 40
1.0
  9
$ATTMODE
 70
     1
  9
$TEXTSIZE
 40
0.2
  9
$TRACEWID
 40
0.05
  9
$TEXTSTYLE
  7
Standard
  9
$CLAYER
  8
0
  9
$CELTYPE
  6
ByLayer
  9
$CECOLOR
 62
   256
  9
$CELTSCALE
 40
1.0
  9
$DISPSILH
 70
     0
  9
$DIMSCALE
 40
1.0
  9
$DIMASZ
 40
0.18
  9
$DIMEXO
 40
0.0625
  9
$DIMDLI
 40
0.38
  9
$DIMRND
 40
0.0
  9
$DIMDLE
 40
0.0
  9
$DIMEXE
 40
0.18
  9
$DIMTP
 40
0.0
  9
$DIMTM
 40
0.0
  9
$DIMTXT
 40
0.18
  9
$DIMCEN
 40
0.09
  9
$DIMTSZ
 40
0.0
  9
$DIMTOL
 70
     0
  9
$DIMLIM
 70
     0
  9
$DIMTIH
 70
     1
  9
$DIMTOH
 70
     1
  9
$DIMSE1
 70
     0
  9
$DIMSE2
 70
     0
  9
$DIMTAD
 70
     0
  9
$DIMZIN
 70
     0
  9
$DIMBLK
  1

  9
$DIMASO
 70
     1
  9
$DIMSHO
 70
     1
  9
$DIMPOST
  1

  9
$DIMAPOST
  1

  9
$DIMALT
 70
     0
  9
$DIMALTD
 70
     2
  9
$DIMALTF
 40
25.4
  9
$DIMLFAC
 40
1.0
  9
$DIMTOFL
 70
     0
  9
$DIMTVP
 40
0.0
  9
$DIMTIX
 70
     0
  9
$DIMSOXD
 70
     0
  9
$DIMSAH
 70
     0
  9
$DIMBLK1
  1

  9
$DIMBLK2
  1

  9
$DIMSTYLE
  2
Standard
  9
$DIMCLRD
 70
     0
  9
$DIMCLRE
 70
     0
  9
$DIMCLRT
 70
     0
  9
$DIMTFAC
 40
1.0
  9
$DIMGAP
 40
0.09
  9
$DIMJUST
 70
     0
  9
$DIMSD1
 70
     0
  9
$DIMSD2
 70
     0
  9
$DIMTOLJ
 70
     1
  9
$DIMTZIN
 70
     0
  9
$DIMALTZ
 70
     0
  9
$DIMALTTZ
 70
     0
  9
$DIMUPT
 70
     0
  9
$DIMDEC
 70
     4
  9
$DIMTDEC
 70
     4
  9
$DIMALTU
 70
     2
  9
$DIMALTTD
 70
     2
  9
$DIMTXSTY
  7
Standard
  9
$DIMAUNIT
 70
     0
  9
$DIMADEC
 70
     0
  9
$DIMALTRND
 40
0.0
  9
$DIMAZIN
 70
     0
  9
$DIMDSEP
 70
    46
  9
$DIMATFIT
 70
     3
  9
$DIMFRAC
 70
     0
  9
$DIMLDRBLK
  1

  9
$DIMLUNIT
 70
     2
  9
$DIMLWD
 70
    -2
  9
$DIMLWE
 70
    -2
  9
$DIMTMOVE
 70
     0
  9
$DIMFXL
 40
1.0
  9
$DIMFXLON
 70
     0
  9
$DIMJOGANG
 40
0.7853981633974483
  9
$DIMTFILL
 70
     0
  9
$DIMTFILLCLR
 70
     0
  9
$DIMARCSYM
 70
     0
  9
$DIMLTYPE
  6

  9
$DIMLTEX1
  6

  9
$DIMLTEX2
  6

  9
$DIMTXTDIRECTION
 70
     0
  9
$LUNITS
 70
     2
  9
$LUPREC
 70
     4
  9
$SKETCHINC
 40
0.1
  9
$FILLETRAD
 40
0.0
  9
$AUNITS
 70
     0
  9
$AUPREC
 70
     0
  9
$MENU
  1
.
  9
$ELEVATION
 40
0.0
  9
$PELEVATION
 40
0.0
  9
$THICKNESS
 40
0.0
  9
$LIMCHECK
 70
     0
  9
$CHAMFERA
 40
0.0
  9
$CHAMFERB
 40
0.0
  9
$CHAMFERC
 40
0.0
  9
$CHAMFERD
 40
0.0
  9
$SKPOLY
 70
     0
  9
$TDCREATE
 40
2458401.611585648
  9
$TDUCREATE
 40
2458401.528252315
  9
$TDUPDATE
 40
2458401.611585648
  9
$TDUUPDATE
 40
2458401.528252315
  9
$TDINDWG
 40
0.0000231481
  9
$TDUSRTIMER
 40
0.0000231481
  9
$USRTIMER
 70
     1
  9
$ANGBASE
 50
0.0
  9
$ANGDIR
 70
     0
  9
$PDMODE
 70
     0
  9
$PDSIZE
 40
0.0
  9
$PLINEWID
 40
0.0
  9
$SPLFRAME
 70
     0
  9
$SPLINETYPE
 70
     6
  9
$SPLINESEGS
 70
     8
  9
$HANDSEED
  5
348
  9
$SURFTAB1
 70
     6
  9
$SURFTAB2
 70
     6
  9
$SURFTYPE
 70
     6
  9
$SURFU
 70
     6
  9
$SURFV
 70
     6
  9
$UCSBASE
  2

  9
$UCSNAME
  2

  9
$UCSORG
 10
0.0
 20
0.0
 30
0.0
  9
$UCSXDIR
 10
1.0
 20
0.0
 30
0.0
  9
$UCSYDIR
 10
0.0
 20
1.0
 30
0.0
  9
$UCSORTHOREF
  2

  9
$UCSORTHOVIEW
 70
     0
  9
$UCSORGTOP
 10
0.0
 20
0.0
 30
0.0
  9
$UCSORGBOTTOM
 10
0.0
 20
0.0
 30
0.0
  9
$UCSORGLEFT
 10
0.0
 20
0.0
 30
0.0
  9
$UCSORGRIGHT
 10
0.0
 20
0.0
 30
0.0
  9
$UCSORGFRONT
 10
0.0
 20
0.0
 30
0.0
  9
$UCSORGBACK
 10
0.0
 20
0.0
 30
0.0
  9
$PUCSBASE
  2

  9
$PUCSNAME
  2

  9
$PUCSORG
 10
0.0
 20
0.0
 30
0.0
  9
$PUCSXDIR
 10
1.0
 20
0.0
 30
0.0
  9
$PUCSYDIR
 10
0.0
 20
1.0
 30
0.0
  9
$PUCSORTHOREF
  2

  9
$PUCSORTHOVIEW
 70
     0
  9
$PUCSORGTOP
 10
0.0
 20
0.0
 30
0.0
  9
$PUCSORGBOTTOM
 10
0.0
 20
0.0
 30
0.0
  9
$PUCSORGLEFT
 10
0.0
 20
0.0
 30
0.0
  9
$PUCSORGRIGHT
 10
0.0
 20
0.0
 30
0.0
  9
$PUCSORGFRONT
 10
0.0
 20
0.0
 30
0.0
  9
$PUCSORGBACK
 10
0.0
 20
0.0
 30
0.0
  9
$USERI1
 70
     0
  9
$USERI2
 70
     0
  9
$USERI3
 70
     0
  9
$USERI4
 70
     0
  9
$USERI5
 70
     0
  9
$USERR1
 40
0.0
  9
$USERR2
 40
0.0
  9
$USERR3
 40
0.0
  9
$USERR4
 40
0.0
  9
$USERR5
 40
0.0
  9
$WORLDVIEW
 70
     1
  9
$SHADEDGE
 70
     3
  9
$SHADEDIF
 70
    70
  9
$TILEMODE
 70
     1
  9
$MAXACTVP
 70
    64
  9
$PINSBASE
 10
0.0
 20
0.0
 30
0.0
  9
$PLIMCHECK
 70
     0
  9
$PEXTMIN
 10
0.0
 20
0.0
 30
0.0
  9
$PEXTMAX
 10
594.0
 20
420.0
 30
0.0
  9
$PLIMMIN
 10
0.0
 20
0.0
  9
$PLIMMAX
 10
594.0
 20
420.0
  9
$UNITMODE
 70
     0
  9
$VISRETAIN
 70
     1
  9
$PLINEGEN
 70
     0
  9
$PSLTSCALE
 70
     1
  9
$TREEDEPTH
 70
  3020
  9
$CMLSTYLE
  2
Standard
  9
$CMLJUST
 70
     0
  9
$CMLSCALE
 40
1.0
  9
$PROXYGRAPHICS
 70
     1
  9
$MEASUREMENT
 70
     1
  9
$CELWEIGHT
370
    -1
  9
$ENDCAPS
280
     0
  9
$JOINSTYLE
280
     0
  9
$LWDISPLAY
290
     0
  9
$INSUNITS
 70
     4
  9
$HYPERLINKBASE
  1

  9
$STYLESHEET
  1

  9
$XEDIT
290
     1
  9
$CEPSNTYPE
380
     0
  9
$PSTYLEMODE
290
     1
  9
$FINGERPRINTGUID
  2
{7F700EBC-6621-5344-8463-D2C5392723DA}
  9
$VERSIONGUID
  2
{D901E3D1-83C4-1A47-974A-A122E2A6AEFF}
  9
$EXTNAMES
290
     1
  9
$PSVPSCALE
 40
0.0
  9
$OLESTARTUP
290
     0
  9
$SORTENTS
280
   127
  9
$INDEXCTL
280
     0
  9
$HIDETEXT
280
     1
  9
$XCLIPFRAME
280
     2
  9
$HALOGAP
280
     0
  9
$OBSCOLOR
 70
   257
  9
$OBSLTYPE
280
     0
  9
$INTERSECTIONDISPLAY
280
     0
  9
$INTERSECTIONCOLOR
 70
   257
  9
$DIMASSOC
280
     1
  9
$PROJECTNAME
  1

  9
$CAMERADISPLAY
290
     0
  9
$LENSLENGTH
 40
50.0
  9
$CAMERAHEIGHT
 40
0.0
  9
$STEPSPERSEC
 40
2.0
  9
$STEPSIZE
 40
6.0
  9
$3DDWFPREC
 40
2.0
  9
$PSOLWIDTH
 40
0.25
  9
$PSOLHEIGHT
 40
4.0
  9
$LOFTANG1
 40
1.570796326794896
  9
$LOFTANG2
 40
1.570796326794896
  9
$LOFTMAG1
 40
0.0
  9
$LOFTMAG2
 40
0.0
  9
$LOFTPARAM
 70
     7
  9
$LOFTNORMALS
280
     1
  9
$LATITUDE
 40
37.795
  9
$LONGITUDE
 40
-122.394
  9
$NORTHDIRECTION
 40
0.0
  9
$TIMEZONE
 70
 -8000
  9
$LIGHTGLYPHDISPLAY
280
     1
  9
$TILEMODELIGHTSYNCH
280
     1
  9
$CMATERIAL
347
11
  9
$SOLIDHIST
280
     0
  9
$SHOWHIST
280
     1
  9
$DWFFRAME
280
     2
  9
$DGNFRAME
280
     0
  9
$REALWORLDSCALE
290
     1
  9
$INTERFERECOLOR
 62
     1
  9
$INTERFEREOBJVS
345
33
  9
$INTERFEREVPVS
346
30
  9
$CSHADOW
280
     0
  9
$SHADOWPLANELOCATION
 40
0.0
  0
ENDSEC
  0
SECTION
  2
CLASSES
  0
CLASS
  1
ACDBDICTIONARYWDFLT
  2
AcDbDictionaryWithDefault
  3
ObjectDBX Classes
 90
        0
 91
        1
280
     0
281
     0
  0
CLASS
  1
MATERIAL
  2
AcDbMaterial
  3
ObjectDBX Classes
 90
     1153
 91
        3
280
     0
281
     0
  0
CLASS
  1
VISUALSTYLE
  2
AcDbVisualStyle
  3
ObjectDBX Classes
 90
     4095
 91
       24
280
     0
281
     0
  0
CLASS
  1
SCALE
  2
AcDbScale
  3
ObjectDBX Classes
 90
     1153
 91
       17
280
     0
281
     0
  0
CLASS
  1
TABLESTYLE
  2
AcDbTableStyle
  3
ObjectDBX Classes
 90
     4095
 91
        1
280
     0
281
     0
  0
CLASS
  1
MLEADERSTYLE
  2
AcDbMLeaderStyle
  3
ACDB_MLEADERSTYLE_CLASS
 90
     4095
 91
        1
280
     0
281
     0
  0
CLASS
  1
ACDBSECTIONVIEWSTYLE
  2
AcDbSectionViewStyle
  3
ObjectDBX Classes
 90
     1025
 91
        1
280
     0
281
     0
  0
CLASS
  1
ACDBDETAILVIEWSTYLE
  2
AcDbDetailViewStyle
  3
ObjectDBX Classes
 90
     1025
 91
        1
280
     0
281
     0
  0
CLASS
  1
DICTIONARYVAR
  2
AcDbDictionaryVar
  3
ObjectDBX Classes
 90
        0
 91
        5
280
     0
281
     0
  0
CLASS
  1
CELLSTYLEMAP
  2
AcDbCellStyleMap
  3
ObjectDBX Classes
 90
     1152
 91
        1
280
     0
281
     0
  0
ENDSEC
  0
SECTION
  2
TABLES
  0
TABLE
  2
VPORT
  5
8
330
0
100
AcDbSymbolTable
 70
     1
  0
VPORT
  5
57
330
8
100
AcDbSymbolTableRecord
100
AcDbViewportTableRecord
  2
*Active
 70
     0
 10
0.0
 20
0.0
 11
1.0
 21
1.0
 12
297.0
 22
210.0
 13
0.0
 23
0.0
 14
1.0
 24
1.0
 15
0.0
 25
0.0
 16
0.0
 26
0.0
 36
1.0
 17
0.0
 27
0.0
 37
0.0
 40
420.0
 41
1.414285714285714
 42
50.0
 43
0.0
 44
0.0
 50
0.0
 51
0.0
 71
     0
 72
   100
 73
     1
 74
     1
 75
     0
 76
     0
 77
     0
 78
     0
281
     0
 65
     1
110
0.0
120
0.0
130
0.0
111
1.0
121
0.0
131
0.0
112
0.0
122
1.0
132
0.0
 79
     0
146
0.0
 60
     3
 61
     5
292
     1
282
     1
141
0.0
142
0.0
 63
   250
421
  3355443
  0
ENDTAB
  0
TABLE
  2
LTYPE
  5
5
330
0
100
AcDbSymbolTable
 70
    59
  0
LTYPE
  5
5B
330
5
100
AcDbSymbolTableRecord
100
AcDbLinetypeTableRecord
  2
ByBlock
 70
     0
  3

 72
    65
 73
     0
 40
0.0
  0
LTYPE
  5
5C
330
5
100
AcDbSymbolTableRecord
100
AcDbLinetypeTableRecord
  2
ByLayer
 70
     0
  3

 72
    65
 73
     0
 40
0.0
  0
LTYPE
  5
5D
330
5
100
AcDbSymbolTableRecord
100
AcDbLinetypeTableRecord
  2
Continuous
 70
     0
  3
Solid line
 72
    65
 73
     0
 40
0.0
  0
LTYPE
  5
78
330
5
100
AcDbSymbolTableRecord
100
AcDbLinetypeTableRecord
  2
Section_View_Lines
 70
     0
  3
Section View Lines
 72
    65
 73
     4
 40
0.8406
 49
0.6614
 74
     0
 49
-0.0827
 74
     0
 49
0.0138
 74
     0
 49
-0.0827
 74
     0
  0
LTYPE
  5
79
330
5
100
AcDbSymbolTableRecord
100
AcDbLinetypeTableRecord
  2
CHAIN
 70
     0
  3
Chain ____ _ ____ _ ____ _ ____ _ ____ _ ____
 72
    65
 73
     4
 40
0.3543
 49
0.2362
 74
     0
 49
-0.0295
 74
     0
 49
0.0591
 74
     0
 49
-0.0295
 74
     0
  0
LTYPE
  5
7A
330
5
100
AcDbSymbolTableRecord
100
AcDbLinetypeTableRecord
  2
DASH_DOT
 70
     0
  3
Dash dot _._._._._._._._._._._._._._._.
 72
    65
 73
     4
 40
0.37
 49
0.24
 74
     0
 49
-0.06
 74
     0
 49
0.01
 74
     0
 49
-0.06
 74
     0
  0
LTYPE
  5
7B
330
5
100
AcDbSymbolTableRecord
100
AcDbLinetypeTableRecord
  2
DASH_DOUBLE_DOT
 70
     0
  3
Dash Double Dot __ __ . __ __ . __ __ . __ _
 72
    65
 73
     6
 40
0.4398
 49
0.24
 74
     0
 49
-0.06
 74
     0
 49
0.0098
 74
     0
 49
-0.06
 74
     0
 49
0.01
 74
     0
 49
-0.06
 74
     0
  0
LTYPE
  5
7C
330
5
100
AcDbSymbolTableRecord
100
AcDbLinetypeTableRecord
  2
DASH_TRIPLE_DOT
 70
     0
  3
Dash Triple-Dot _ . . . _ . . . _ . . . _
 72
    65
 73
     8
 40
0.51
 49
0.24
 74
     0
 49
-0.06
 74
     0
 49
0.01
 74
     0
 49
-0.06
 74
     0
 49
0.01
 74
     0
 49
-0.06
 74
     0
 49
0.01
 74
     0
 49
-0.06
 74
     0
  0
LTYPE
  5
7D
330
5
100
AcDbSymbolTableRecord
100
AcDbLinetypeTableRecord
  2
DASHED
 70
     0
  3
Dashed __ __ __ __ __ __ __ __ __ __ __ __ __ _
 72
    65
 73
     2
 40
0.2067
 49
0.1654
 74
     0
 49
-0.0413
 74
     0
  0
LTYPE
  5
7E
330
5
100
AcDbSymbolTableRecord
100
AcDbLinetypeTableRecord
  2
DASHED_SPACE
 70
     0
  3
Dashed Space _._._._._._._._._._._._._._._.
 72
    65
 73
     2
 40
0.2067
 49
0.1654
 74
     0
 49
-0.0413
 74
     0
  0
LTYPE
  5
7F
330
5
100
AcDbSymbolTableRecord
100
AcDbLinetypeTableRecord
  2
DOTTED
 70
     0
  3
Dotted . . . . . . . . . . . . . . . . . . . . 
 72
    65
 73
     2
 40
0.0482
 49
0.0069
 74
     0
 49
-0.0413
 74
     0
  0
LTYPE
  5
80
330
5
100
AcDbSymbolTableRecord
100
AcDbLinetypeTableRecord
  2
DOUBLE_DASH_CHAIN
 70
     0
  3
Double Dash Chain ___ _ _ ___ _ _ ___ _ _ ___ _
 72
    65
 73
     6
 40
1.240299999999999
 49
0.6614
 74
     0
 49
-0.0827
 74
     0
 49
0.1654
 74
     0
 49
-0.0827
 74
     0
 49
0.1654
 74
     0
 49
-0.0827
 74
     0
  0
LTYPE
  5
81
330
5
100
AcDbSymbolTableRecord
100
AcDbLinetypeTableRecord
  2
DOUBLE_DASH_DOT
 70
     0
  3
Double Dash Dot __ __ . __ __ . __ __ . __ _
 72
    65
 73
     6
 40
0.67
 49
0.24
 74
     0
 49
-0.06
 74
     0
 49
0.24
 74
     0
 49
-0.06
 74
     0
 49
0.01
 74
     0
 49
-0.06
 74
     0
  0
LTYPE
  5
82
330
5
100
AcDbSymbolTableRecord
100
AcDbLinetypeTableRecord
  2
DOUBLE_DASH_DOUBLE_DOT
 70
     0
  3
Double-dash double-dot _ _ . . _ _ . . _
 72
    65
 73
     8
 40
0.7400000000000001
 49
0.24
 74
     0
 49
-0.06
 74
     0
 49
0.24
 74
     0
 49
-0.06
 74
     0
 49
0.01
 74
     0
 49
-0.06
 74
     0
 49
0.01
 74
     0
 49
-0.06
 74
     0
  0
LTYPE
  5
83
330
5
100
AcDbSymbolTableRecord
100
AcDbLinetypeTableRecord
  2
DOUBLE_DASH_TRIPLE_DOT
 70
     0
  3
Double Dash Triple Dot __ __ . . . __ __ . . .
 72
    65
 73
    10
 40
0.8100000000000001
 49
0.24
 74
     0
 49
-0.06
 74
     0
 49
0.24
 74
     0
 49
-0.06
 74
     0
 49
0.01
 74
     0
 49
-0.06
 74
     0
 49
0.01
 74
     0
 49
-0.06
 74
     0
 49
0.01
 74
     0
 49
-0.06
 74
     0
  0
LTYPE
  5
84
330
5
100
AcDbSymbolTableRecord
100
AcDbLinetypeTableRecord
  2
LONG_DASH_DOTTED
 70
     0
  3
Long-Dash Dot ____ . ____ . ____ . ____ . _
 72
    65
 73
     4
 40
0.3001
 49
0.2362
 74
     0
 49
-0.0295
 74
     0
 49
0.0049
 74
     0
 49
-0.0295
 74
     0
  0
LTYPE
  5
85
330
5
100
AcDbSymbolTableRecord
100
AcDbLinetypeTableRecord
  2
LONG_DASH_DOUBLE_DOT
 70
     0
  3
Long Dash Double Dot ____ . . ____ . . ____ . .
 72
    65
 73
     6
 40
0.3345
 49
0.2362
 74
     0
 49
-0.0295
 74
     0
 49
0.0049
 74
     0
 49
-0.0295
 74
     0
 49
0.0049
 74
     0
 49
-0.0295
 74
     0
  0
LTYPE
  5
86
330
5
100
AcDbSymbolTableRecord
100
AcDbLinetypeTableRecord
  2
LONG_DASH_TRIPLE_DOT
 70
     0
  3
Long Dash Triple Dot ____ ... ____ ... ____
 72
    65
 73
     8
 40
0.75
 49
0.48
 74
     0
 49
-0.06
 74
     0
 49
0.01
 74
     0
 49
-0.06
 74
     0
 49
0.01
 74
     0
 49
-0.06
 74
     0
 49
0.01
 74
     0
 49
-0.06
 74
     0
  0
LTYPE
  5
87
330
5
100
AcDbSymbolTableRecord
100
AcDbLinetypeTableRecord
  2
BORDER
 70
     0
  3
Border __ __ . __ __ . __ __ . __ __ . __ __ .
 72
    65
 73
     6
 40
44.45
 49
12.7
 74
     0
 49
-6.349999999999999
 74
     0
 49
12.7
 74
     0
 49
-6.349999999999999
 74
     0
 49
0.0
 74
     0
 49
-6.349999999999999
 74
     0
  0
LTYPE
  5
88
330
5
100
AcDbSymbolTableRecord
100
AcDbLinetypeTableRecord
  2
BORDER2
 70
     0
  3
Border (.5x) __.__.__.__.__.__.__.__.__.__.__.
 72
    65
 73
     6
 40
22.225
 49
6.349999999999999
 74
     0
 49
-3.174999999999999
 74
     0
 49
6.349999999999999
 74
     0
 49
-3.174999999999999
 74
     0
 49
0.0
 74
     0
 49
-3.174999999999999
 74
     0
  0
LTYPE
  5
89
330
5
100
AcDbSymbolTableRecord
100
AcDbLinetypeTableRecord
  2
BORDERX2
 70
     0
  3
Border (2x) ____  ____  .  ____  ____  .  ___
 72
    65
 73
     6
 40
88.9
 49
25.4
 74
     0
 49
-12.7
 74
     0
 49
25.4
 74
     0
 49
-12.7
 74
     0
 49
0.0
 74
     0
 49
-12.7
 74
     0
  0
LTYPE
  5
8A
330
5
100
AcDbSymbolTableRecord
100
AcDbLinetypeTableRecord
  2
CENTER
 70
     0
  3
Center ____ _ ____ _ ____ _ ____ _ ____ _ ____
 72
    65
 73
     4
 40
50.8
 49
31.75
 74
     0
 49
-6.349999999999999
 74
     0
 49
6.349999999999999
 74
     0
 49
-6.349999999999999
 74
     0
  0
LTYPE
  5
8B
330
5
100
AcDbSymbolTableRecord
100
AcDbLinetypeTableRecord
  2
CENTER2
 70
     0
  3
Center (.5x) ___ _ ___ _ ___ _ ___ _ ___ _ ___
 72
    65
 73
     4
 40
28.575
 49
19.05
 74
     0
 49
-3.174999999999999
 74
     0
 49
3.174999999999999
 74
     0
 49
-3.174999999999999
 74
     0
  0
LTYPE
  5
8C
330
5
100
AcDbSymbolTableRecord
100
AcDbLinetypeTableRecord
  2
CENTERX2
 70
     0
  3
Center (2x) ________  __  ________  __  _____
 72
    65
 73
     4
 40
101.6
 49
63.5
 74
     0
 49
-12.7
 74
     0
 49
12.7
 74
     0
 49
-12.7
 74
     0
  0
LTYPE
  5
8D
330
5
100
AcDbSymbolTableRecord
100
AcDbLinetypeTableRecord
  2
DASHDOT2
 70
     0
  3
Dash dot (.5x) _._._._._._._._._._._._._._._.
 72
    65
 73
     4
 40
12.7
 49
6.349999999999999
 74
     0
 49
-3.174999999999999
 74
     0
 49
0.0
 74
     0
 49
-3.174999999999999
 74
     0
  0
LTYPE
  5
8E
330
5
100
AcDbSymbolTableRecord
100
AcDbLinetypeTableRecord
  2
DASHDOTX2
 70
     0
  3
Dash dot (2x) ____  .  ____  .  ____  .  ___
 72
    65
 73
     4
 40
50.8
 49
25.4
 74
     0
 49
-12.7
 74
     0
 49
0.0
 74
     0
 49
-12.7
 74
     0
  0
LTYPE
  5
8F
330
5
100
AcDbSymbolTableRecord
100
AcDbLinetypeTableRecord
  2
DASHED2
 70
     0
  3
Dashed (.5x) _ _ _ _ _ _ _ _ _ _ _ _ _ _ _ _ _
 72
    65
 73
     2
 40
9.524999999999998
 49
6.349999999999999
 74
     0
 49
-3.174999999999999
 74
     0
  0
LTYPE
  5
90
330
5
100
AcDbSymbolTableRecord
100
AcDbLinetypeTableRecord
  2
DASHEDX2
 70
     0
  3
Dashed (2x) ____  ____  ____  ____  ____  ___
 72
    65
 73
     2
 40
38.1
 49
25.4
 74
     0
 49
-12.7
 74
     0
  0
LTYPE
  5
91
330
5
100
AcDbSymbolTableRecord
100
AcDbLinetypeTableRecord
  2
DIVIDE
 70
     0
  3
Divide ____ . . ____ . . ____ . . ____ . . ____
 72
    65
 73
     6
 40
31.75
 49
12.7
 74
     0
 49
-6.349999999999999
 74
     0
 49
0.0
 74
     0
 49
-6.349999999999999
 74
     0
 49
0.0
 74
     0
 49
-6.349999999999999
 74
     0
  0
LTYPE
  5
92
330
5
100
AcDbSymbolTableRecord
100
AcDbLinetypeTableRecord
  2
DIVIDE2
 70
     0
  3
Divide (.5x) __..__..__..__..__..__..__..__.._
 72
    65
 73
     6
 40
15.875
 49
6.349999999999999
 74
     0
 49
-3.174999999999999
 74
     0
 49
0.0
 74
     0
 49
-3.174999999999999
 74
     0
 49
0.0
 74
     0
 49
-3.174999999999999
 74
     0
  0
LTYPE
  5
93
330
5
100
AcDbSymbolTableRecord
100
AcDbLinetypeTableRecord
  2
DIVIDEX2
 70
     0
  3
Divide (2x) ________  .  .  ________  .  .  _
 72
    65
 73
     6
 40
63.49999999999999
 49
25.4
 74
     0
 49
-12.7
 74
     0
 49
0.0
 74
     0
 49
-12.7
 74
     0
 49
0.0
 74
     0
 49
-12.7
 74
     0
  0
LTYPE
  5
94
330
5
100
AcDbSymbolTableRecord
100
AcDbLinetypeTableRecord
  2
DOT
 70
     0
  3
Dot . . . . . . . . . . . . . . . . . . . . . .
 72
    65
 73
     2
 40
6.349999999999999
 49
0.0
 74
     0
 49
-6.349999999999999
 74
     0
  0
LTYPE
  5
95
330
5
100
AcDbSymbolTableRecord
100
AcDbLinetypeTableRecord
  2
DOT2
 70
     0
  3
Dot (.5x) .....................................
 72
    65
 73
     2
 40
3.174999999999999
 49
0.0
 74
     0
 49
-3.174999999999999
 74
     0
  0
LTYPE
  5
96
330
5
100
AcDbSymbolTableRecord
100
AcDbLinetypeTableRecord
  2
DOTX2
 70
     0
  3
Dot (2x) .  .  .  .  .  .  .  .  .  .  .  .  . 
 72
    65
 73
     2
 40
12.7
 49
0.0
 74
     0
 49
-12.7
 74
     0
  0
LTYPE
  5
97
330
5
100
AcDbSymbolTableRecord
100
AcDbLinetypeTableRecord
  2
HIDDEN
 70
     0
  3
Hidden __ __ __ __ __ __ __ __ __ __ __ __ __ _
 72
    65
 73
     2
 40
9.524999999999998
 49
6.349999999999999
 74
     0
 49
-3.174999999999999
 74
     0
  0
LTYPE
  5
98
330
5
100
AcDbSymbolTableRecord
100
AcDbLinetypeTableRecord
  2
HIDDEN2
 70
     0
  3
Hidden (.5x) _ _ _ _ _ _ _ _ _ _ _ _ _ _ _ _ _
 72
    65
 73
     2
 40
4.762499999999999
 49
3.174999999999999
 74
     0
 49
-1.587499999999999
 74
     0
  0
LTYPE
  5
99
330
5
100
AcDbSymbolTableRecord
100
AcDbLinetypeTableRecord
  2
HIDDENX2
 70
     0
  3
Hidden (2x) ____ ____ ____ ____ ____ ____ ____
 72
    65
 73
     2
 40
19.05
 49
12.7
 74
     0
 49
-6.349999999999999
 74
     0
  0
LTYPE
  5
9A
330
5
100
AcDbSymbolTableRecord
100
AcDbLinetypeTableRecord
  2
PHANTOM
 70
     0
  3
Phantom ______  __  __  ______  __  __  ______
 72
    65
 73
     6
 40
63.5
 49
31.75
 74
     0
 49
-6.349999999999999
 74
     0
 49
6.349999999999999
 74
     0
 49
-6.349999999999999
 74
     0
 49
6.349999999999999
 74
     0
 49
-6.349999999999999
 74
     0
  0
LTYPE
  5
9B
330
5
100
AcDbSymbolTableRecord
100
AcDbLinetypeTableRecord
  2
PHANTOM2
 70
     0
  3
Phantom (.5x) ___ _ _ ___ _ _ ___ _ _ ___ _ _
 72
    65
 73
     6
 40
31.75
 49
15.875
 74
     0
 49
-3.174999999999999
 74
     0
 49
3.174999999999999
 74
     0
 49
-3.174999999999999
 74
     0
 49
3.174999999999999
 74
     0
 49
-3.174999999999999
 74
     0
  0
LTYPE
  5
9C
330
5
100
AcDbSymbolTableRecord
100
AcDbLinetypeTableRecord
  2
PHANTOMX2
 70
     0
  3
Phantom (2x) ____________    ____    ____   _
 72
    65
 73
     6
 40
127.0
 49
63.5
 74
     0
 49
-12.7
 74
     0
 49
12.7
 74
     0
 49
-12.7
 74
     0
 49
12.7
 74
     0
 49
-12.7
 74
     0
  0
LTYPE
  5
9D
330
5
100
AcDbSymbolTableRecord
100
AcDbLinetypeTableRecord
  2
ACAD_ISO02W100
 70
     0
  3
ISO dash __ __ __ __ __ __ __ __ __ __ __ __ __
 72
    65
 73
     2
 40
15.0
 49
12.0
 74
     0
 49
-3.0
 74
     0
  0
LTYPE
  5
9E
330
5
100
AcDbSymbolTableRecord
100
AcDbLinetypeTableRecord
  2
ACAD_ISO03W100
 70
     0
  3
ISO dash space __    __    __    __    __    __
 72
    65
 73
     2
 40
30.0
 49
12.0
 74
     0
 49
-18.0
 74
     0
  0
LTYPE
  5
9F
330
5
100
AcDbSymbolTableRecord
100
AcDbLinetypeTableRecord
  2
ACAD_ISO04W100
 70
     0
  3
ISO long-dash dot ____ . ____ . ____ . ____ . _
 72
    65
 73
     4
 40
30.0
 49
24.0
 74
     0
 49
-3.0
 74
     0
 49
0.0
 74
     0
 49
-3.0
 74
     0
  0
LTYPE
  5
A0
330
5
100
AcDbSymbolTableRecord
100
AcDbLinetypeTableRecord
  2
ACAD_ISO05W100
 70
     0
  3
ISO long-dash double-dot ____ .. ____ .. ____ .
 72
    65
 73
     6
 40
33.0
 49
24.0
 74
     0
 49
-3.0
 74
     0
 49
0.0
 74
     0
 49
-3.0
 74
     0
 49
0.0
 74
     0
 49
-3.0
 74
     0
  0
LTYPE
  5
A1
330
5
100
AcDbSymbolTableRecord
100
AcDbLinetypeTableRecord
  2
ACAD_ISO06W100
 70
     0
  3
ISO long-dash triple-dot ____ ... ____ ... ____
 72
    65
 73
     8
 40
36.0
 49
24.0
 74
     0
 49
-3.0
 74
     0
 49
0.0
 74
     0
 49
-3.0
 74
     0
 49
0.0
 74
     0
 49
-3.0
 74
     0
 49
0.0
 74
     0
 49
-3.0
 74
     0
  0
LTYPE
  5
A2
330
5
100
AcDbSymbolTableRecord
100
AcDbLinetypeTableRecord
  2
ACAD_ISO07W100
 70
     0
  3
ISO dot . . . . . . . . . . . . . . . . . . . .
 72
    65
 73
     2
 40
3.0
 49
0.0
 74
     0
 49
-3.0
 74
     0
  0
LTYPE
  5
A3
330
5
100
AcDbSymbolTableRecord
100
AcDbLinetypeTableRecord
  2
ACAD_ISO08W100
 70
     0
  3
ISO long-dash short-dash ____ __ ____ __ ____ _
 72
    65
 73
     4
 40
36.0
 49
24.0
 74
     0
 49
-3.0
 74
     0
 49
6.0
 74
     0
 49
-3.0
 74
     0
  0
LTYPE
  5
A4
330
5
100
AcDbSymbolTableRecord
100
AcDbLinetypeTableRecord
  2
ACAD_ISO09W100
 70
     0
  3
ISO long-dash double-short-dash ____ __ __ ____
 72
    65
 73
     6
 40
45.0
 49
24.0
 74
     0
 49
-3.0
 74
     0
 49
6.0
 74
     0
 49
-3.0
 74
     0
 49
6.0
 74
     0
 49
-3.0
 74
     0
  0
LTYPE
  5
A5
330
5
100
AcDbSymbolTableRecord
100
AcDbLinetypeTableRecord
  2
ACAD_ISO10W100
 70
     0
  3
ISO dash dot __ . __ . __ . __ . __ . __ . __ .
 72
    65
 73
     4
 40
18.0
 49
12.0
 74
     0
 49
-3.0
 74
     0
 49
0.0
 74
     0
 49
-3.0
 74
     0
  0
LTYPE
  5
A6
330
5
100
AcDbSymbolTableRecord
100
AcDbLinetypeTableRecord
  2
ACAD_ISO11W100
 70
     0
  3
ISO double-dash dot __ __ . __ __ . __ __ . __ 
 72
    65
 73
     6
 40
33.0
 49
12.0
 74
     0
 49
-3.0
 74
     0
 49
12.0
 74
     0
 49
-3.0
 74
     0
 49
0.0
 74
     0
 49
-3.0
 74
     0
  0
LTYPE
  5
A7
330
5
100
AcDbSymbolTableRecord
100
AcDbLinetypeTableRecord
  2
ACAD_ISO12W100
 70
     0
  3
ISO dash double-dot __ . . __ . . __ . . __ . .
 72
    65
 73
     6
 40
21.0
 49
12.0
 74
     0
 49
-3.0
 74
     0
 49
0.0
 74
     0
 49
-3.0
 74
     0
 49
0.0
 74
     0
 49
-3.0
 74
     0
  0
LTYPE
  5
A8
330
5
100
AcDbSymbolTableRecord
100
AcDbLinetypeTableRecord
  2
ACAD_ISO13W100
 70
     0
  3
ISO double-dash double-dot __ __ . . __ __ . . 
 72
    65
 73
     8
 40
36.0
 49
12.0
 74
     0
 49
-3.0
 74
     0
 49
12.0
 74
     0
 49
-3.0
 74
     0
 49
0.0
 74
     0
 49
-3.0
 74
     0
 49
0.0
 74
     0
 49
-3.0
 74
     0
  0
LTYPE
  5
A9
330
5
100
AcDbSymbolTableRecord
100
AcDbLinetypeTableRecord
  2
ACAD_ISO14W100
 70
     0
  3
ISO dash triple-dot __ . . . __ . . . __ . . . 
 72
    65
 73
     8
 40
24.0
 49
12.0
 74
     0
 49
-3.0
 74
     0
 49
0.0
 74
     0
 49
-3.0
 74
     0
 49
0.0
 74
     0
 49
-3.0
 74
     0
 49
0.0
 74
     0
 49
-3.0
 74
     0
  0
LTYPE
  5
AA
330
5
100
AcDbSymbolTableRecord
100
AcDbLinetypeTableRecord
  2
ACAD_ISO15W100
 70
     0
  3
ISO double-dash triple-dot __ __ . . . __ __ . 
 72
    65
 73
    10
 40
39.0
 49
12.0
 74
     0
 49
-3.0
 74
     0
 49
12.0
 74
     0
 49
-3.0
 74
     0
 49
0.0
 74
     0
 49
-3.0
 74
     0
 49
0.0
 74
     0
 49
-3.0
 74
     0
 49
0.0
 74
     0
 49
-3.0
 74
     0
  0
LTYPE
  5
AD
330
5
100
AcDbSymbolTableRecord
100
AcDbLinetypeTableRecord
  2
FENCELINE1
 70
     0
  3
Fenceline circle ----0-----0----0-----0----0---
 72
    65
 73
     4
 40
36.83
 49
6.349999999999999
 74
     0
 49
-2.54
 74
     4
 75
   133
340
AC
 46
2.54
 50
0.0
 44
-2.54
 45
0.0
 49
-2.54
 74
     0
 49
25.4
 74
     0
  0
LTYPE
  5
AE
330
5
100
AcDbSymbolTableRecord
100
AcDbLinetypeTableRecord
  2
FENCELINE2
 70
     0
  3
Fenceline square ----[]-----[]----[]-----[]----
 72
    65
 73
     4
 40
36.83
 49
6.349999999999999
 74
     0
 49
-2.54
 74
     4
 75
   132
340
AC
 46
2.54
 50
0.0
 44
-2.54
 45
0.0
 49
-2.54
 74
     0
 49
25.4
 74
     0
  0
LTYPE
  5
AF
330
5
100
AcDbSymbolTableRecord
100
AcDbLinetypeTableRecord
  2
TRACKS
 70
     0
  3
Tracks -|-|-|-|-|-|-|-|-|-|-|-|-|-|-|-|-|-|-|-|
 72
    65
 73
     2
 40
7.62
 49
3.81
 74
     4
 75
   130
340
AC
 46
6.349999999999999
 50
0.0
 44
0.0
 45
0.0
 49
3.81
 74
     0
  0
LTYPE
  5
B0
330
5
100
AcDbSymbolTableRecord
100
AcDbLinetypeTableRecord
  2
BATTING
 70
     0
  3
Batting SSSSSSSSSSSSSSSSSSSSSSSSSSSSSSSSSSSSSSS
 72
    65
 73
     4
 40
10.16254
 49
0.00254
 74
     0
 49
-2.54
 74
     4
 75
   134
340
AC
 46
2.54
 50
0.0
 44
-2.54
 45
0.0
 49
-5.08
 74
     4
 75
   134
340
AC
 46
2.54
 50
180.0
 44
2.54
 45
0.0
 49
-2.54
 74
     0
  0
LTYPE
  5
B1
330
5
100
AcDbSymbolTableRecord
100
AcDbLinetypeTableRecord
  2
HOT_WATER_SUPPLY
 70
     0
  3
Hot water supply ---- HW ---- HW ---- HW ----
 72
    65
 73
     3
 40
22.86
 49
12.7
 74
     0
 49
-5.08
 74
     2
 75
     0
340
55
 46
2.54
 50
0.0
 44
-2.54
 45
-1.27
  9
HW
 49
-5.08
 74
     0
  0
LTYPE
  5
B2
330
5
100
AcDbSymbolTableRecord
100
AcDbLinetypeTableRecord
  2
GAS_LINE
 70
     0
  3
Gas line ----GAS----GAS----GAS----GAS----GAS---
 72
    65
 73
     3
 40
24.13
 49
12.7
 74
     0
 49
-5.08
 74
     2
 75
     0
340
55
 46
2.54
 50
0.0
 44
-2.54
 45
-1.27
  9
GAS
 49
-6.349999999999999
 74
     0
  0
LTYPE
  5
B3
330
5
100
AcDbSymbolTableRecord
100
AcDbLinetypeTableRecord
  2
ZIGZAG
 70
     0
  3
Zig zag /\/\/\/\/\/\/\/\/\/\/\/\/\/\/\/\/\/\/\/
 72
    65
 73
     4
 40
20.32254
 49
0.00254
 74
     0
 49
-5.08
 74
     4
 75
   131
340
AC
 46
5.08
 50
0.0
 44
-5.08
 45
0.0
 49
-10.16
 74
     4
 75
   131
340
AC
 46
5.08
 50
180.0
 44
5.08
 45
0.0
 49
-5.08
 74
     0
  0
ENDTAB
  0
TABLE
  2
LAYER
  5
2
330
0
100
AcDbSymbolTable
 70
    28
  0
LAYER
  5
54
330
2
100
AcDbSymbolTableRecord
100
AcDbLayerTableRecord
  2
0
 70
     0
 62
     7
  6
Continuous
370
    -3
390
F
347
21
348
0
  0
LAYER
  5
C0
330
2
100
AcDbSymbolTableRecord
100
AcDbLayerTableRecord
  2
Mittellinie MD
 70
     0
 62
     7
  6
Continuous
370
    18
390
F
347
21
348
0
  0
LAYER
  5
C1
330
2
100
AcDbSymbolTableRecord
100
AcDbLayerTableRecord
  2
Mittelpunktmarkierung MD
 70
     0
 62
     7
  6
Continuous
370
    18
390
F
347
21
348
0
  0
LAYER
  5
C6
330
2
100
AcDbSymbolTableRecord
100
AcDbLayerTableRecord
  2
Schraffur MD
 70
     0
 62
     7
  6
Continuous
370
    18
390
F
347
21
348
0
  0
LAYER
  5
C7
330
2
100
AcDbSymbolTableRecord
100
AcDbLayerTableRecord
  2
Sichtbar MD
 70
     0
 62
     7
  6
Continuous
370
    35
390
F
347
21
348
0
  0
LAYER
  5
C8
330
2
100
AcDbSymbolTableRecord
100
AcDbLayerTableRecord
  2
Sichtbar schmal MD
 70
     0
 62
     7
  6
Continuous
370
    25
390
F
347
21
348
0
  0
LAYER
  5
C9
330
2
100
AcDbSymbolTableRecord
100
AcDbLayerTableRecord
  2
Skizziergeometrie MD
 70
     0
 62
     7
  6
Continuous
370
    25
390
F
347
21
348
0
  0
LAYER
  5
CA
330
2
100
AcDbSymbolTableRecord
100
AcDbLayerTableRecord
  2
Symbol MD
 70
     0
 62
     7
  6
Continuous
370
    25
390
F
347
21
348
0
  0
ENDTAB
  0
TABLE
  2
STYLE
  5
3
330
0
100
AcDbSymbolTable
 70
    13
  0
STYLE
  5
55
330
3
100
AcDbSymbolTableRecord
100
AcDbTextStyleTableRecord
  2
Standard
 70
     0
 40
0.0
 41
1.0
 50
0.0
 71
     0
 42
0.2
  3
isocpeur.ttf
  4

1001
ACAD
1000
ISOCPEUR
1071
      256
  0
STYLE
  5
5A
330
3
100
AcDbSymbolTableRecord
100
AcDbTextStyleTableRecord
  2
Annotative
 70
     0
 40
0.0
 41
1.0
 50
0.0
 71
     0
 42
0.2
  3
txt
  4

1001
AcadAnnotative
1000
AnnotativeData
1002
{
1070
     1
1070
     1
1002
}
  0
STYLE
  5
AC
330
3
100
AcDbSymbolTableRecord
100
AcDbTextStyleTableRecord
  2

 70
     1
 40
0.0
 41
1.0
 50
0.0
 71
     0
 42
0.2
  3
ltypeshp.shx
  4

  0
STYLE
  5
CF
330
3
100
AcDbSymbolTableRecord
100
AcDbTextStyleTableRecord
  2
Artikelnummer MD
 70
     0
 40
0.0
 41
1.0
 50
0.0
 71
     0
 42
0.2
  3
isocpeur.ttf
  4

1001
ACAD
1000
ISOCPEUR
1071
      256
  0
STYLE
  5
D0
330
3
100
AcDbSymbolTableRecord
100
AcDbTextStyleTableRecord
  2
Bemaßung MD 5mm
 70
     0
 40
0.0
 41
1.0
 50
0.0
 71
     0
 42
0.2
  3
isocpeur.ttf
  4

1001
ACAD
1000
ISOCPEUR
1071
      256
  0
STYLE
  5
D1
330
3
100
AcDbSymbolTableRecord
100
AcDbTextStyleTableRecord
  2
Bezeichnungstext MD
 70
     0
 40
0.0
 41
1.0
 50
0.0
 71
     0
 42
0.2
  3
isocpeur.ttf
  4

1001
ACAD
1000
ISOCPEUR
1071
      256
  0
STYLE
  5
D2
330
3
100
AcDbSymbolTableRecord
100
AcDbTextStyleTableRecord
  2
Ersatzteilliste MD
 70
     0
 40
0.0
 41
1.0
 50
0.0
 71
     0
 42
0.2
  3
isocpeur.ttf
  4

1001
ACAD
1000
ISOCPEUR
1071
      256
  0
STYLE
  5
D3
330
3
100
AcDbSymbolTableRecord
100
AcDbTextStyleTableRecord
  2
Ersatzteilliste MD_2
 70
     0
 40
0.0
 41
1.0
 50
0.0
 71
     0
 42
0.2
  3
isocpeur.ttf
  4

1001
ACAD
1000
ISOCPEUR
1071
      256
  0
STYLE
  5
D4
330
3
100
AcDbSymbolTableRecord
100
AcDbTextStyleTableRecord
  2
Notiztext MD
 70
     0
 40
0.0
 41
1.0
 50
0.0
 71
     0
 42
0.2
  3
isocpeur.ttf
  4

1001
ACAD
1000
ISOCPEUR
1071
      256
  0
STYLE
  5
D5
330
3
100
AcDbSymbolTableRecord
100
AcDbTextStyleTableRecord
  2
Positionsnummer MD
 70
     0
 40
0.0
 41
1.0
 50
0.0
 71
     0
 42
0.2
  3
isocpeur.ttf
  4

1001
ACAD
1000
ISOCPEUR
1071
      256
  0
STYLE
  5
1D8
330
3
100
AcDbSymbolTableRecord
100
AcDbTextStyleTableRecord
  2
Textstil51
 70
     0
 40
0.0
 41
1.0
 50
0.0
 71
     0
 42
0.2
  3
isocpeur.ttf
  4

1001
ACAD
1000
ISOCPEUR
1071
      256
  0
STYLE
  5
1FF
330
3
100
AcDbSymbolTableRecord
100
AcDbTextStyleTableRecord
  2
Textstil33
 70
     0
 40
0.0
 41
1.0
 50
0.0
 71
     0
 42
0.2
  3
isocpeur.ttf
  4

1001
ACAD
1000
ISOCPEUR
1071
      256
  0
STYLE
  5
202
330
3
100
AcDbSymbolTableRecord
100
AcDbTextStyleTableRecord
  2
Textstil34
 70
     0
 40
0.0
 41
1.0
 50
0.0
 71
     0
 42
0.2
  3
isocpeur.ttf
  4

1001
ACAD
1000
ISOCPEUR
1071
      256
  0
ENDTAB
  0
TABLE
  2
VIEW
  5
6
330
0
100
AcDbSymbolTable
 70
     0
  0
ENDTAB
  0
TABLE
  2
UCS
  5
7
330
0
100
AcDbSymbolTable
 70
     0
  0
ENDTAB
  0
TABLE
  2
APPID
  5
9
330
0
100
AcDbSymbolTable
 70
     3
  0
APPID
  5
56
330
9
100
AcDbSymbolTableRecord
100
AcDbRegAppTableRecord
  2
ACAD
 70
     0
  0
APPID
  5
5E
330
9
100
AcDbSymbolTableRecord
100
AcDbRegAppTableRecord
  2
AcadAnnotative
 70
     0
  0
APPID
  5
1DB
330
9
100
AcDbSymbolTableRecord
100
AcDbRegAppTableRecord
  2
AcadAnnoPO
 70
     0
  0
ENDTAB
  0
TABLE
  2
DIMSTYLE
  5
A
330
0
100
AcDbSymbolTable
 70
    30
100
AcDbDimStyleTable
 71
     0
  0
DIMSTYLE
105
58
330
A
100
AcDbSymbolTableRecord
100
AcDbDimStyleTableRecord
  2
Standard
 70
     0
340
55
  0
DIMSTYLE
105
59
330
A
100
AcDbSymbolTableRecord
100
AcDbDimStyleTableRecord
  2
Annotative
 70
     0
340
55
1001
AcadAnnotative
1000
AnnotativeData
1002
{
1070
     1
1070
     1
1002
}
  0
DIMSTYLE
105
D6
330
A
100
AcDbSymbolTableRecord
100
AcDbDimStyleTableRecord
  2
Bemaßung allgemein MD
 70
     0
 41
2.5
 42
0.8
 43
5.999999999999999
 44
3.174999999999999
 45
0.00000001
 46
10.0
 73
     0
 74
     0
 77
     1
 78
     8
 79
     2
140
3.5
143
0.03937
146
0.7142857313156128
147
0.8
171
     3
172
     1
176
   256
177
   256
178
   256
271
     3
272
     3
274
     3
275
     1
278
    44
284
     8
340
D4
371
    -1
372
    -1
  0
DIMSTYLE
105
D7
330
A
100
AcDbSymbolTableRecord
100
AcDbDimStyleTableRecord
  2
Bemaßung allgemein MD$7
 70
     0
 41
2.5
 42
0.8
 43
5.999999999999999
 44
3.174999999999999
 45
0.00000001
 46
10.0
 73
     0
 74
     0
 77
     1
 78
     8
 79
     2
140
3.5
143
0.03937
146
0.7142857313156128
147
0.8
171
     3
172
     1
176
   256
177
   256
178
   256
271
     3
272
     3
274
     3
275
     1
278
    44
284
     8
340
D4
371
    -1
372
    -1
  0
DIMSTYLE
105
D8
330
A
100
AcDbSymbolTableRecord
100
AcDbDimStyleTableRecord
  2
Bemaßung allgemein MD-01
 70
     0
 41
2.5
 42
0.8
 43
5.999999999999999
 44
3.174999999999999
 45
0.00000001
 46
10.0
 73
     0
 74
     0
 77
     1
 78
     8
 79
     2
140
3.5
143
0.03937
146
1.428571462631225
147
0.8
171
     3
172
     1
176
   256
177
   256
178
   256
271
     3
272
     3
274
     3
275
     1
278
    44
284
     8
340
D4
371
    -1
372
    -1
  0
DIMSTYLE
105
D9
330
A
100
AcDbSymbolTableRecord
100
AcDbDimStyleTableRecord
  2
Bemaßung allgemein MD-01$7
 70
     0
 41
2.5
 42
0.8
 43
5.999999999999999
 44
3.174999999999999
 45
0.00000001
 46
10.0
 73
     0
 74
     0
 77
     1
 78
     8
 79
     2
140
3.5
143
0.03937
146
1.428571462631225
147
0.8
171
     3
172
     1
176
   256
177
   256
178
   256
271
     3
272
     3
274
     3
275
     1
278
    44
284
     8
340
D4
371
    -1
372
    -1
  0
DIMSTYLE
105
DA
330
A
100
AcDbSymbolTableRecord
100
AcDbDimStyleTableRecord
  2
Bemaßung allgemein MD-02
 70
     0
 41
2.5
 42
0.8
 43
5.999999999999999
 44
3.174999999999999
 45
0.00000001
 46
10.0
 73
     0
 74
     0
 77
     1
 78
     8
 79
     2
140
3.5
143
0.03937
146
0.8571428656578063
147
0.8
171
     3
172
     1
176
   256
177
   256
178
   256
271
     3
272
     3
274
     3
275
     1
278
    44
284
     8
340
D4
371
    -1
372
    -1
  0
DIMSTYLE
105
DB
330
A
100
AcDbSymbolTableRecord
100
AcDbDimStyleTableRecord
  2
Bemaßung allgemein MD-02$7
 70
     0
 41
2.5
 42
0.8
 43
5.999999999999999
 44
3.174999999999999
 45
0.00000001
 46
10.0
 73
     0
 74
     0
 77
     1
 78
     8
 79
     2
140
3.5
143
0.03937
146
0.8571428656578063
147
0.8
171
     3
172
     1
176
   256
177
   256
178
   256
271
     3
272
     3
274
     3
275
     1
278
    44
284
     8
340
D4
371
    -1
372
    -1
  0
DIMSTYLE
105
DC
330
A
100
AcDbSymbolTableRecord
100
AcDbDimStyleTableRecord
  2
Bemaßung allgemein MD-03
 70
     0
 41
2.5
 42
0.8
 43
5.999999999999999
 44
3.174999999999999
 45
0.00000001
 46
10.0
 73
     0
 74
     0
 77
     1
 78
     8
 79
     2
140
3.5
143
0.03937
146
0.8571428656578063
147
0.8
171
     3
172
     1
176
   256
177
   256
178
   256
271
     3
272
     3
274
     3
275
     1
278
    44
284
     8
340
D4
371
    -1
372
    -1
  0
DIMSTYLE
105
DD
330
A
100
AcDbSymbolTableRecord
100
AcDbDimStyleTableRecord
  2
Bemaßung allgemein MD-03$7
 70
     0
 41
2.5
 42
0.8
 43
5.999999999999999
 44
3.174999999999999
 45
0.00000001
 46
10.0
 73
     0
 74
     0
 77
     1
 78
     8
 79
     2
140
3.5
143
0.03937
146
0.8571428656578063
147
0.8
171
     3
172
     1
176
   256
177
   256
178
   256
271
     3
272
     3
274
     3
275
     1
278
    44
284
     8
340
D4
371
    -1
372
    -1
  0
DIMSTYLE
105
DE
330
A
100
AcDbSymbolTableRecord
100
AcDbDimStyleTableRecord
  2
Bemaßung allgemein MD 5mm
 70
     0
 41
2.5
 42
0.8
 43
5.999999999999999
 44
3.174999999999999
 45
0.00000001
 46
10.0
 73
     0
 74
     0
 77
     1
 78
     8
 79
     2
140
5.0
143
0.03937
147
0.8
171
     3
172
     1
176
   256
177
   256
178
   256
271
     2
272
     3
274
     3
275
     1
278
    44
284
     8
340
D0
371
    -1
372
    -1
  0
DIMSTYLE
105
DF
330
A
100
AcDbSymbolTableRecord
100
AcDbDimStyleTableRecord
  2
Bemaßung allgemein MD 5mm$7
 70
     0
 41
2.5
 42
0.8
 43
5.999999999999999
 44
3.174999999999999
 45
0.00000001
 46
10.0
 73
     0
 74
     0
 77
     1
 78
     8
 79
     2
140
5.0
143
0.03937
147
0.8
171
     3
172
     1
176
   256
177
   256
178
   256
271
     2
272
     3
274
     3
275
     1
278
    44
284
     8
340
D0
371
    -1
372
    -1
  0
DIMSTYLE
105
E0
330
A
100
AcDbSymbolTableRecord
100
AcDbDimStyleTableRecord
  2
Durchmesser MD
 70
     0
 41
2.5
 42
0.8
 43
5.999999999999999
 44
3.174999999999999
 45
0.00000001
 46
10.0
 73
     0
 74
     0
 77
     1
 78
     8
 79
     2
140
3.5
143
0.03937
146
1.428571462631225
147
0.8
171
     3
172
     1
176
   256
177
   256
178
   256
271
     3
272
     3
274
     3
275
     1
278
    44
284
     8
340
D4
371
    -1
372
    -1
  0
DIMSTYLE
105
E1
330
A
100
AcDbSymbolTableRecord
100
AcDbDimStyleTableRecord
  2
Durchmesser MD$7
 70
     0
 41
2.5
 42
0.8
 43
5.999999999999999
 44
3.174999999999999
 45
0.00000001
 46
10.0
 73
     0
 74
     0
 77
     1
 78
     8
 79
     2
140
3.5
143
0.03937
146
1.428571462631225
147
0.8
171
     3
172
     1
176
   256
177
   256
178
   256
271
     3
272
     3
274
     3
275
     1
278
    44
284
     8
340
D4
371
    -1
372
    -1
  0
DIMSTYLE
105
E2
330
A
100
AcDbSymbolTableRecord
100
AcDbDimStyleTableRecord
  2
Fase 45° MD
 70
     0
 41
2.5
 42
0.8
 43
5.999999999999999
 44
3.174999999999999
 45
0.00000001
 46
10.0
 73
     0
 74
     0
 77
     1
 78
     8
 79
     2
140
3.5
143
0.03937
146
0.7142857313156128
147
0.8
171
     3
172
     1
176
   256
177
   256
178
   256
271
     3
272
     3
274
     3
275
     1
278
    44
284
     8
340
D4
371
    -1
372
    -1
  0
DIMSTYLE
105
E3
330
A
100
AcDbSymbolTableRecord
100
AcDbDimStyleTableRecord
  2
Fase 45° MD$7
 70
     0
 41
2.5
 42
0.8
 43
5.999999999999999
 44
3.174999999999999
 45
0.00000001
 46
10.0
 73
     0
 74
     0
 77
     1
 78
     8
 79
     2
140
3.5
143
0.03937
146
0.7142857313156128
147
0.8
171
     3
172
     1
176
   256
177
   256
178
   256
271
     3
272
     3
274
     3
275
     1
278
    44
284
     8
340
D4
371
    -1
372
    -1
  0
DIMSTYLE
105
E4
330
A
100
AcDbSymbolTableRecord
100
AcDbDimStyleTableRecord
  2
Gewinde MD
 70
     0
 41
2.5
 42
0.8
 43
5.999999999999999
 44
3.174999999999999
 45
0.00000001
 46
10.0
 73
     0
 74
     0
 77
     1
 78
     8
 79
     2
140
3.5
143
0.03937
146
1.428571462631225
147
0.8
171
     3
172
     1
176
   256
177
   256
178
   256
271
     3
272
     3
274
     3
275
     1
278
    44
284
     8
340
D4
371
    -1
372
    -1
  0
DIMSTYLE
105
E5
330
A
100
AcDbSymbolTableRecord
100
AcDbDimStyleTableRecord
  2
Gewinde MD$7
 70
     0
 41
2.5
 42
0.8
 43
5.999999999999999
 44
3.174999999999999
 45
0.00000001
 46
10.0
 73
     0
 74
     0
 77
     1
 78
     8
 79
     2
140
3.5
143
0.03937
146
1.428571462631225
147
0.8
171
     3
172
     1
176
   256
177
   256
178
   256
271
     3
272
     3
274
     3
275
     1
278
    44
284
     8
340
D4
371
    -1
372
    -1
  0
DIMSTYLE
105
E6
330
A
100
AcDbSymbolTableRecord
100
AcDbDimStyleTableRecord
  2
Schlüsselweite MD
 70
     0
 41
2.5
 42
0.8
 43
5.999999999999999
 44
3.174999999999999
 45
0.00000001
 46
10.0
 48
0.000000001
 71
     1
 73
     0
 74
     0
 77
     1
 78
     8
 79
     2
140
3.5
143
0.03937
146
0.7142857313156128
147
0.8
171
     3
172
     1
176
   256
177
   256
178
   256
271
     3
272
     3
274
     3
275
     1
278
    44
284
     8
340
D4
371
    -1
372
    -1
  0
DIMSTYLE
105
E7
330
A
100
AcDbSymbolTableRecord
100
AcDbDimStyleTableRecord
  2
Schlüsselweite MD$7
 70
     0
 41
2.5
 42
0.8
 43
5.999999999999999
 44
3.174999999999999
 45
0.00000001
 46
10.0
 48
0.000000001
 71
     1
 73
     0
 74
     0
 77
     1
 78
     8
 79
     2
140
3.5
143
0.03937
146
0.7142857313156128
147
0.8
171
     3
172
     1
176
   256
177
   256
178
   256
271
     3
272
     3
274
     3
275
     1
278
    44
284
     8
340
D4
371
    -1
372
    -1
  0
DIMSTYLE
105
F7
330
A
100
AcDbSymbolTableRecord
100
AcDbDimStyleTableRecord
  2
Sonstiges Objekt MD
 70
     0
 41
5.0
 42
0.0
 43
5.999999999999999
 44
3.174999999999999
 45
0.00000001
 46
10.0
 77
     1
 78
     8
 79
     2
140
3.5
143
0.03937
147
0.8
171
     3
172
     1
176
   256
177
   256
178
   256
271
     2
272
     2
274
     3
278
    44
284
     8
286
     8
340
D4
341
E8
371
    -1
372
    -1
  0
DIMSTYLE
105
F8
330
A
100
AcDbSymbolTableRecord
100
AcDbDimStyleTableRecord
  2
Sonstiges Objekt MD$7
 70
     0
 41
5.0
 42
0.0
 43
5.999999999999999
 44
3.174999999999999
 45
0.00000001
 46
10.0
 77
     1
 78
     8
 79
     2
140
3.5
143
0.03937
147
0.8
171
     3
172
     1
176
   256
177
   256
178
   256
271
     2
272
     2
274
     3
278
    44
284
     8
286
     8
340
D4
341
E8
371
    25
372
    -1
  0
DIMSTYLE
105
F9
330
A
100
AcDbSymbolTableRecord
100
AcDbDimStyleTableRecord
  2
Winkel Dezimal MD
 70
     0
 41
2.5
 42
0.8
 43
5.999999999999999
 44
3.174999999999999
 45
0.00000001
 46
10.0
 73
     0
 74
     0
 77
     1
 78
     8
 79
     2
140
3.5
143
0.03937
146
0.7142857313156128
147
0.8
171
     3
172
     1
176
   256
177
   256
178
   256
271
     3
272
     3
274
     3
278
    44
284
     8
340
D4
371
    -1
372
    -1
  0
DIMSTYLE
105
FA
330
A
100
AcDbSymbolTableRecord
100
AcDbDimStyleTableRecord
  2
Winkel Dezimal MD$7
 70
     0
 41
2.5
 42
0.8
 43
5.999999999999999
 44
3.174999999999999
 45
0.00000001
 46
10.0
 73
     0
 74
     0
 77
     1
 78
     8
 79
     2
140
3.5
143
0.03937
146
0.7142857313156128
147
0.8
171
     3
172
     1
176
   256
177
   256
178
   256
271
     3
272
     3
274
     3
278
    44
284
     8
340
D4
371
    -1
372
    -1
  0
DIMSTYLE
105
FB
330
A
100
AcDbSymbolTableRecord
100
AcDbDimStyleTableRecord
  2
Allgemein (ANSI)
 70
     0
 41
2.5
340
55
  0
DIMSTYLE
105
FC
330
A
100
AcDbSymbolTableRecord
100
AcDbDimStyleTableRecord
  2
Alternativ MD
 70
     0
 41
2.5
340
55
  0
DIMSTYLE
105
107
330
A
100
AcDbSymbolTableRecord
100
AcDbDimStyleTableRecord
  2
Bezug MD
 70
     0
 41
2.5
340
55
  0
DIMSTYLE
105
108
330
A
100
AcDbSymbolTableRecord
100
AcDbDimStyleTableRecord
  2
keine Pfeilspitze MD
 70
     0
 41
2.5
340
55
  0
DIMSTYLE
105
109
330
A
100
AcDbSymbolTableRecord
100
AcDbDimStyleTableRecord
  2
kleiner Punkt MD
 70
     0
 41
2.5
340
55
  0
DIMSTYLE
105
10A
330
A
100
AcDbSymbolTableRecord
100
AcDbDimStyleTableRecord
  2
Pfeil MD
 70
     0
 41
2.5
340
55
  0
ENDTAB
  0
TABLE
  2
BLOCK_RECORD
  5
1
330
0
100
AcDbSymbolTable
 70
    10
  0
BLOCK_RECORD
  5
70
330
1
100
AcDbSymbolTableRecord
100
AcDbBlockTableRecord
  2
*Model_Space
340
73
 70
     0
280
     1
281
     0
  0
BLOCK_RECORD
  5
6C
330
1
100
AcDbSymbolTableRecord
100
AcDbBlockTableRecord
  2
*Paper_Space
340
6F
 70
     0
280
     1
281
     0
  0
BLOCK_RECORD
  5
74
330
1
100
AcDbSymbolTableRecord
100
AcDbBlockTableRecord
  2
*Paper_Space0
340
77
 70
     0
280
     1
281
     0
  0
BLOCK_RECORD
  5
E8
330
1
100
AcDbSymbolTableRecord
100
AcDbBlockTableRecord
  2
Filled-1
340
0
 70
     0
280
     1
281
     0
  0
BLOCK_RECORD
  5
FD
330
1
100
AcDbSymbolTableRecord
100
AcDbBlockTableRecord
  2
DatumFilled45
340
0
 70
     0
280
     1
281
     0
  0
BLOCK_RECORD
  5
10B
330
1
100
AcDbSymbolTableRecord
100
AcDbBlockTableRecord
  2
Logo MD
340
0
 70
     0
280
     1
281
     0
  0
BLOCK_RECORD
  5
1D5
330
1
100
AcDbSymbolTableRecord
100
AcDbBlockTableRecord
  2
Beschriftung Motor variabel
340
0
 70
     0
280
     1
281
     0
  0
BLOCK_RECORD
  5
1E1
330
1
100
AcDbSymbolTableRecord
100
AcDbBlockTableRecord
  2
Anzugsmoment + Loctite ETL
340
0
 70
     0
280
     1
281
     0
  0
BLOCK_RECORD
  5
205
330
1
100
AcDbSymbolTableRecord
100
AcDbBlockTableRecord
  2
Text 5 Zeilen
340
0
 70
     0
280
     1
281
     0
  0
BLOCK_RECORD
  5
20D
330
1
100
AcDbSymbolTableRecord
100
AcDbBlockTableRecord
  2
Kopie von Text 5 Zeilen
340
0
 70
     0
280
     1
281
     0
  0
BLOCK_RECORD
  5
215
330
1
100
AcDbSymbolTableRecord
100
AcDbBlockTableRecord
  2
Zuluft
340
0
 70
     0
280
     1
281
     0
  0
BLOCK_RECORD
  5
219
330
1
100
AcDbSymbolTableRecord
100
AcDbBlockTableRecord
  2
Abluft
340
0
 70
     0
280
     1
281
     0
  0
ENDTAB
  0
ENDSEC
  0
SECTION
  2
BLOCKS
  0
BLOCK
  5
71
330
70
100
AcDbEntity
  8
0
100
AcDbBlockBegin
  2
*Model_Space
 70
     0
 10
0.0
 20
0.0
 30
0.0
  3
*Model_Space
  1

  0
ENDBLK
  5
72
330
70
100
AcDbEntity
  8
0
100
AcDbBlockEnd
  0
BLOCK
  5
6D
330
6C
100
AcDbEntity
 67
     1
  8
0
100
AcDbBlockBegin
  2
*Paper_Space
 70
     0
 10
0.0
 20
0.0
 30
0.0
  3
*Paper_Space
  1

  0
ENDBLK
  5
6E
330
6C
100
AcDbEntity
 67
     1
  8
0
100
AcDbBlockEnd
  0
BLOCK
  5
75
330
74
100
AcDbEntity
 67
     1
  8
0
100
AcDbBlockBegin
  2
*Paper_Space0
 70
     0
 10
0.0
 20
0.0
 30
0.0
  3
*Paper_Space0
  1

  0
ENDBLK
  5
76
330
74
100
AcDbEntity
 67
     1
  8
0
100
AcDbBlockEnd
  0
BLOCK
  5
E9
330
E8
100
AcDbEntity
  8
0
100
AcDbBlockBegin
  2
Filled-1
 70
     0
 10
0.0
 20
0.0
 30
0.0
  3
Filled-1
  1

  0
LINE
  5
EB
330
E8
100
AcDbEntity
  8
0
 62
     0
100
AcDbLine
 10
-1.0
 20
0.0
 30
0.0
 11
0.0
 21
0.0
 31
0.0
  0
POLYLINE
  5
ED
330
E8
100
AcDbEntity
  8
0
 62
     0
100
AcDb2dPolyline
 66
     1
 10
0.0
 20
0.0
 30
0.0
 70
   128
  0
VERTEX
  5
EE
330
ED
100
AcDbEntity
  8
0
 62
     0
100
AcDbVertex
100
AcDb2dVertex
 10
-1.0
 20
-0.1
 30
0.0
  0
VERTEX
  5
EF
330
ED
100
AcDbEntity
  8
0
 62
     0
100
AcDbVertex
100
AcDb2dVertex
 10
0.0
 20
0.0
 30
0.0
  0
VERTEX
  5
F1
330
ED
100
AcDbEntity
  8
0
 62
     0
100
AcDbVertex
100
AcDb2dVertex
 10
-1.0
 20
0.1
 30
0.0
  0
VERTEX
  5
F2
330
ED
100
AcDbEntity
  8
0
 62
     0
100
AcDbVertex
100
AcDb2dVertex
 10
-1.0
 20
-0.1
 30
0.0
  0
SEQEND
  5
F0
330
ED
100
AcDbEntity
  8
0
 62
     0
  0
SOLID
  5
F3
330
E8
100
AcDbEntity
  8
0
 62
     0
100
AcDbTrace
 10
-1.0
 20
-0.1
 30
0.0
 11
0.0
 21
0.0
 31
0.0
 12
-1.0
 22
0.1
 32
0.0
 13
-1.0
 23
-0.1
 33
0.0
  0
LINE
  5
F4
330
E8
100
AcDbEntity
  8
0
 62
     0
100
AcDbLine
 10
-1.0
 20
-0.1
 30
0.0
 11
0.0
 21
0.0
 31
0.0
  0
LINE
  5
F5
330
E8
100
AcDbEntity
  8
0
 62
     0
100
AcDbLine
 10
0.0
 20
0.0
 30
0.0
 11
-1.0
 21
0.1
 31
0.0
  0
LINE
  5
F6
330
E8
100
AcDbEntity
  8
0
 62
     0
100
AcDbLine
 10
-1.0
 20
0.1
 30
0.0
 11
-1.0
 21
-0.1
 31
0.0
  0
ENDBLK
  5
EA
330
E8
100
AcDbEntity
  8
0
100
AcDbBlockEnd
  0
BLOCK
  5
FE
330
FD
100
AcDbEntity
  8
0
100
AcDbBlockBegin
  2
DatumFilled45
 70
     0
 10
0.0
 20
0.0
 30
0.0
  3
DatumFilled45
  1

  0
POLYLINE
  5
100
330
FD
100
AcDbEntity
  8
0
 62
     0
100
AcDb2dPolyline
 66
     1
 10
0.0
 20
0.0
 30
0.0
 70
   128
  0
VERTEX
  5
101
330
100
100
AcDbEntity
  8
0
 62
     0
100
AcDbVertex
100
AcDb2dVertex
 10
0.0
 20
1.0
 30
0.0
  0
VERTEX
  5
102
330
100
100
AcDbEntity
  8
0
 62
     0
100
AcDbVertex
100
AcDb2dVertex
 10
0.0
 20
-1.0
 30
0.0
  0
VERTEX
  5
104
330
100
100
AcDbEntity
  8
0
 62
     0
100
AcDbVertex
100
AcDb2dVertex
 10
-1.0
 20
0.0
 30
0.0
  0
VERTEX
  5
105
330
100
100
AcDbEntity
  8
0
 62
     0
100
AcDbVertex
100
AcDb2dVertex
 10
0.0
 20
1.0
 30
0.0
  0
SEQEND
  5
103
330
100
100
AcDbEntity
  8
0
 62
     0
  0
SOLID
  5
106
330
FD
100
AcDbEntity
  8
0
 62
     0
100
AcDbTrace
 10
0.0
 20
1.0
 30
0.0
 11
0.0
 21
-1.0
 31
0.0
 12
-1.0
 22
0.0
 32
0.0
 13
0.0
 23
1.0
 33
0.0
  0
ENDBLK
  5
FF
330
FD
100
AcDbEntity
  8
0
100
AcDbBlockEnd
  0
BLOCK
  5
10C
330
10B
100
AcDbEntity
  8
0
100
AcDbBlockBegin
  2
Logo MD
 70
     0
 10
0.0
 20
0.0
 30
0.0
  3
Logo MD
  1

  0
LINE
  5
10E
330
10B
100
AcDbEntity
  8
Skizziergeometrie MD
100
AcDbLine
 10
-17.31136761332348
 20
4.434757641419491
 30
0.0
 11
-18.35536761332344
 21
2.294240430810701
 31
0.0
  0
LINE
  5
10F
330
10B
100
AcDbEntity
  8
Skizziergeometrie MD
100
AcDbLine
 10
-18.35536761332344
 20
2.294240430810701
 30
0.0
 11
-19.39936761332348
 21
4.434757641419482
 31
0.0
  0
LINE
  5
110
330
10B
100
AcDbEntity
  8
Skizziergeometrie MD
100
AcDbLine
 10
-18.76136761332349
 20
0.9547576414195013
 30
0.0
 11
-17.94936761332349
 21
0.9547576414194924
 31
0.0
  0
LINE
  5
111
330
10B
100
AcDbEntity
  8
Skizziergeometrie MD
100
AcDbLine
 10
-16.15136761332355
 20
0.9547576414194836
 30
0.0
 11
-16.15136761332353
 21
4.434757641419473
 31
0.0
  0
LINE
  5
112
330
10B
100
AcDbEntity
  8
Skizziergeometrie MD
100
AcDbLine
 10
-16.96336761332352
 20
0.9547576414194924
 30
0.0
 11
-16.15136761332355
 21
0.9547576414194836
 31
0.0
  0
LINE
  5
113
330
10B
100
AcDbEntity
  8
Skizziergeometrie MD
100
AcDbLine
 10
-16.96336761332352
 20
0.9547576414194924
 30
0.0
 11
-16.96336761332353
 21
2.97635722921667
 31
0.0
  0
LINE
  5
114
330
10B
100
AcDbEntity
  8
Skizziergeometrie MD
100
AcDbLine
 10
-17.94936761332349
 20
0.9547576414194924
 30
0.0
 11
-16.96336761332353
 21
2.97635722921667
 31
0.0
  0
LINE
  5
115
330
10B
100
AcDbEntity
  8
Skizziergeometrie MD
100
AcDbLine
 10
-16.15136761332353
 20
4.434757641419473
 30
0.0
 11
-17.31136761332348
 21
4.434757641419491
 31
0.0
  0
LINE
  5
116
330
10B
100
AcDbEntity
  8
Skizziergeometrie MD
100
AcDbLine
 10
-19.74736761332345
 20
2.976357229216679
 30
0.0
 11
-19.74736761332344
 21
0.9547576414194924
 31
0.0
  0
LINE
  5
117
330
10B
100
AcDbEntity
  8
Skizziergeometrie MD
100
AcDbLine
 10
-18.76136761332349
 20
0.9547576414195013
 30
0.0
 11
-19.74736761332345
 21
2.976357229216679
 31
0.0
  0
LINE
  5
118
330
10B
100
AcDbEntity
  8
Skizziergeometrie MD
100
AcDbLine
 10
-20.55936761332353
 20
4.434757641419473
 30
0.0
 11
-20.55936761332353
 21
0.9547576414194747
 31
0.0
  0
LINE
  5
119
330
10B
100
AcDbEntity
  8
Skizziergeometrie MD
100
AcDbLine
 10
-19.39936761332348
 20
4.434757641419482
 30
0.0
 11
-20.55936761332353
 21
4.434757641419473
 31
0.0
  0
LINE
  5
11A
330
10B
100
AcDbEntity
  8
Skizziergeometrie MD
100
AcDbLine
 10
-20.55936761332353
 20
0.9547576414194747
 30
0.0
 11
-19.74736761332344
 21
0.9547576414194924
 31
0.0
  0
ARC
  5
11B
330
10B
100
AcDbEntity
  8
Skizziergeometrie MD
100
AcDbCircle
 10
1.553540665153798
 20
1.934345070168648
 30
0.0
 40
0.4570425975202458
100
AcDbArc
 50
331.3355395479728
 51
11.72396983130892
  0
ARC
  5
11C
330
10B
100
AcDbEntity
  8
Skizziergeometrie MD
100
AcDbCircle
 10
1.642147938454909
 20
1.88931405321477
 30
0.0
 40
0.3844816368478083
100
AcDbArc
 50
21.0183222334137
 51
83.39296852598474
  0
ARC
  5
11D
330
10B
100
AcDbEntity
  8
Skizziergeometrie MD
100
AcDbCircle
 10
1.611424013948541
 20
1.931097036714977
 30
0.0
 40
0.4054614417244424
100
AcDbArc
 50
278.7578663398576
 51
327.8125122476933
  0
ARC
  5
11E
330
10B
100
AcDbEntity
  8
Skizziergeometrie MD
100
AcDbCircle
 10
1.265285364710422
 20
4.429231128728554
 30
0.0
 40
3.489118723013506
100
AcDbArc
 50
268.7247394624261
 51
283.3008820411725
  0
ARC
  5
11F
330
10B
100
AcDbEntity
  8
Skizziergeometrie MD
100
AcDbCircle
 10
1.447689500901647
 20
5.0502326825133
 30
0.0
 40
3.52708363744742
100
AcDbArc
 50
257.4040038370595
 51
273.6651460924187
  0
ARC
  5
120
330
10B
100
AcDbEntity
  8
Skizziergeometrie MD
100
AcDbCircle
 10
2.092311670277933
 20
8.383497573340905
 30
0.0
 40
6.125719647533964
100
AcDbArc
 50
260.3660466637691
 51
266.2004658575505
  0
ARC
  5
121
330
10B
100
AcDbEntity
  8
Skizziergeometrie MD
100
AcDbCircle
 10
1.563540770165348
 20
4.002588872021588
 30
0.0
 40
1.731114441187764
100
AcDbArc
 50
232.628982638488
 51
253.3368731497334
  0
ARC
  5
122
330
10B
100
AcDbEntity
  8
Skizziergeometrie MD
100
AcDbCircle
 10
1.273745085585007
 20
2.98155089569601
 30
0.0
 40
1.471668828572101
100
AcDbArc
 50
108.9241660710531
 51
132.7158447178787
  0
ARC
  5
123
330
10B
100
AcDbEntity
  8
Skizziergeometrie MD
100
AcDbCircle
 10
1.381316966327785
 20
3.674436968135976
 30
0.0
 40
1.360806176159423
100
AcDbArc
 50
205.5940045082629
 51
230.3394820629377
  0
LINE
  5
124
330
10B
100
AcDbEntity
  8
Skizziergeometrie MD
100
AcDbLine
 10
-7.735307488065634
 20
4.434757641419464
 30
0.0
 11
-7.735307488065616
 21
0.9547576414194924
 31
0.0
  0
LINE
  5
125
330
10B
100
AcDbEntity
  8
Skizziergeometrie MD
100
AcDbLine
 10
-8.663307488065621
 20
0.9547576414194747
 30
0.0
 11
-7.735307488065616
 21
0.9547576414194924
 31
0.0
  0
LINE
  5
126
330
10B
100
AcDbEntity
  8
Skizziergeometrie MD
100
AcDbLine
 10
-7.735307488065634
 20
4.434757641419464
 30
0.0
 11
-8.663307488065621
 21
4.434757641419491
 31
0.0
  0
LINE
  5
127
330
10B
100
AcDbEntity
  8
Skizziergeometrie MD
100
AcDbLine
 10
-8.663307488065621
 20
4.434757641419491
 30
0.0
 11
-8.663307488065603
 21
2.29424043081071
 31
0.0
  0
LINE
  5
128
330
10B
100
AcDbEntity
  8
Skizziergeometrie MD
100
AcDbLine
 10
-10.2873074880656
 20
4.434757641419491
 30
0.0
 11
-8.663307488065603
 21
2.29424043081071
 31
0.0
  0
LINE
  5
129
330
10B
100
AcDbEntity
  8
Skizziergeometrie MD
100
AcDbLine
 10
-10.28730748806558
 20
2.738521983593464
 30
0.0
 11
-8.663307488065621
 21
0.9547576414194747
 31
0.0
  0
LINE
  5
12A
330
10B
100
AcDbEntity
  8
Skizziergeometrie MD
100
AcDbLine
 10
-10.28730748806558
 20
2.738521983593464
 30
0.0
 11
-10.28730748806558
 21
0.9547576414194747
 31
0.0
  0
LINE
  5
12B
330
10B
100
AcDbEntity
  8
Skizziergeometrie MD
100
AcDbLine
 10
-10.2873074880656
 20
4.434757641419491
 30
0.0
 11
-11.21530748806557
 21
4.434757641419473
 31
0.0
  0
LINE
  5
12C
330
10B
100
AcDbEntity
  8
Skizziergeometrie MD
100
AcDbLine
 10
-11.21530748806555
 20
0.9547576414194836
 30
0.0
 11
-10.28730748806558
 21
0.9547576414194747
 31
0.0
  0
LINE
  5
12D
330
10B
100
AcDbEntity
  8
Skizziergeometrie MD
100
AcDbLine
 10
-11.21530748806557
 20
4.434757641419473
 30
0.0
 11
-11.21530748806555
 21
0.9547576414194836
 31
0.0
  0
LINE
  5
12E
330
10B
100
AcDbEntity
  8
Skizziergeometrie MD
100
AcDbLine
 10
-14.39494682000875
 20
1.650757641419531
 30
0.0
 11
-12.92939262938575
 21
1.650757641419478
 31
0.0
  0
LINE
  5
12F
330
10B
100
AcDbEntity
  8
Skizziergeometrie MD
100
AcDbLine
 10
-14.30965368781166
 20
4.434757641419482
 30
0.0
 11
-13.01468576158278
 21
4.434757641419482
 31
0.0
  0
LINE
  5
130
330
10B
100
AcDbEntity
  8
Skizziergeometrie MD
100
AcDbLine
 10
-15.57627010305799
 20
0.9547576414195102
 30
0.0
 11
-14.64827010305802
 21
0.9547576414194924
 31
0.0
  0
LINE
  5
131
330
10B
100
AcDbEntity
  8
Skizziergeometrie MD
100
AcDbLine
 10
-15.57627010305799
 20
0.9547576414195102
 30
0.0
 11
-14.30965368781166
 21
4.434757641419482
 31
0.0
  0
LINE
  5
132
330
10B
100
AcDbEntity
  8
Skizziergeometrie MD
100
AcDbLine
 10
-14.64827010305802
 20
0.9547576414194924
 30
0.0
 11
-14.39494682000875
 21
1.650757641419531
 31
0.0
  0
LINE
  5
133
330
10B
100
AcDbEntity
  8
Skizziergeometrie MD
100
AcDbLine
 10
-14.22606463130917
 20
2.114757641419497
 30
0.0
 11
-13.66216972469722
 21
3.664046164281398
 31
0.0
  0
LINE
  5
134
330
10B
100
AcDbEntity
  8
Skizziergeometrie MD
100
AcDbLine
 10
-14.22606463130917
 20
2.114757641419497
 30
0.0
 11
-13.09827481808527
 21
2.114757641419497
 31
0.0
  0
LINE
  5
135
330
10B
100
AcDbEntity
  8
Skizziergeometrie MD
100
AcDbLine
 10
-13.09827481808527
 20
2.114757641419497
 30
0.0
 11
-13.66216972469722
 21
3.664046164281398
 31
0.0
  0
LINE
  5
136
330
10B
100
AcDbEntity
  8
Skizziergeometrie MD
100
AcDbLine
 10
-11.74806934633646
 20
0.9547576414194924
 30
0.0
 11
-13.01468576158278
 21
4.434757641419482
 31
0.0
  0
LINE
  5
137
330
10B
100
AcDbEntity
  8
Skizziergeometrie MD
100
AcDbLine
 10
-12.67606934633644
 20
0.9547576414194836
 30
0.0
 11
-11.74806934633646
 21
0.9547576414194924
 31
0.0
  0
LINE
  5
138
330
10B
100
AcDbEntity
  8
Skizziergeometrie MD
100
AcDbLine
 10
-12.67606934633644
 20
0.9547576414194836
 30
0.0
 11
-12.92939262938575
 21
1.650757641419478
 31
0.0
  0
LINE
  5
139
330
10B
100
AcDbEntity
  8
Skizziergeometrie MD
100
AcDbLine
 10
-6.997735938655678
 20
0.9547576414194836
 30
0.0
 11
-6.069735938655709
 21
0.9547576414194836
 31
0.0
  0
LINE
  5
13A
330
10B
100
AcDbEntity
  8
Skizziergeometrie MD
100
AcDbLine
 10
-6.069735938655691
 20
4.434757641419482
 30
0.0
 11
-6.997735938655678
 21
4.434757641419491
 31
0.0
  0
LINE
  5
13B
330
10B
100
AcDbEntity
  8
Skizziergeometrie MD
100
AcDbLine
 10
-6.997735938655678
 20
4.434757641419491
 30
0.0
 11
-6.997735938655678
 21
0.9547576414194836
 31
0.0
  0
LINE
  5
13C
330
10B
100
AcDbEntity
  8
Skizziergeometrie MD
100
AcDbLine
 10
-6.069735938655709
 20
2.738521983593464
 30
0.0
 11
-6.069735938655709
 21
0.9547576414194836
 31
0.0
  0
LINE
  5
13D
330
10B
100
AcDbEntity
  8
Skizziergeometrie MD
100
AcDbLine
 10
-6.069735938655709
 20
2.738521983593464
 30
0.0
 11
-4.445735938655639
 21
0.9547576414194836
 31
0.0
  0
LINE
  5
13E
330
10B
100
AcDbEntity
  8
Skizziergeometrie MD
100
AcDbLine
 10
-6.069735938655691
 20
4.434757641419482
 30
0.0
 11
-4.445735938655639
 21
2.294240430810718
 31
0.0
  0
LINE
  5
13F
330
10B
100
AcDbEntity
  8
Skizziergeometrie MD
100
AcDbLine
 10
-3.517735938655652
 20
4.434757641419482
 30
0.0
 11
-3.51773593865567
 21
0.9547576414194924
 31
0.0
  0
LINE
  5
140
330
10B
100
AcDbEntity
  8
Skizziergeometrie MD
100
AcDbLine
 10
-4.445735938655639
 20
0.9547576414194836
 30
0.0
 11
-3.51773593865567
 21
0.9547576414194924
 31
0.0
  0
LINE
  5
141
330
10B
100
AcDbEntity
  8
Skizziergeometrie MD
100
AcDbLine
 10
-3.517735938655652
 20
4.434757641419482
 30
0.0
 11
-4.445735938655639
 21
4.434757641419482
 31
0.0
  0
LINE
  5
142
330
10B
100
AcDbEntity
  8
Skizziergeometrie MD
100
AcDbLine
 10
-4.445735938655639
 20
4.434757641419482
 30
0.0
 11
-4.445735938655639
 21
2.294240430810718
 31
0.0
  0
ARC
  5
143
330
10B
100
AcDbEntity
  8
Skizziergeometrie MD
100
AcDbCircle
 10
1.309736434192343
 20
4.159553775190003
 30
0.0
 40
3.220892458778623
100
AcDbArc
 50
248.3560010847984
 51
267.8274023014668
  0
LINE
  5
144
330
10B
100
AcDbEntity
  8
Skizziergeometrie MD
100
AcDbLine
 10
-0.5003842469031295
 20
1.650757641419495
 30
0.0
 11
-0.5003842469031472
 21
0.9547576414195102
 31
0.0
  0
LINE
  5
145
330
10B
100
AcDbEntity
  8
Skizziergeometrie MD
100
AcDbLine
 10
0.1217474728520695
 20
1.165755108153314
 30
0.0
 11
0.121747472852034
 21
1.756842968201572
 31
0.0
  0
ARC
  5
146
330
10B
100
AcDbEntity
  8
Skizziergeometrie MD
100
AcDbCircle
 10
1.389131623543979
 20
5.382925776016502
 30
0.0
 40
3.841189804547038
100
AcDbArc
 50
250.7345188126709
 51
259.3390053129357
  0
LINE
  5
147
330
10B
100
AcDbEntity
  8
Skizziergeometrie MD
100
AcDbLine
 10
-2.008384246903114
 20
2.416357641419502
 30
0.0
 11
-2.008384246903114
 21
1.650757641419478
 31
0.0
  0
LINE
  5
148
330
10B
100
AcDbEntity
  8
Skizziergeometrie MD
100
AcDbLine
 10
-2.820384246903193
 20
4.434757641419491
 30
0.0
 11
-2.820384246903193
 21
0.9547576414194747
 31
0.0
  0
LINE
  5
149
330
10B
100
AcDbEntity
  8
Skizziergeometrie MD
100
AcDbLine
 10
-2.00838424690322
 20
3.738757641419461
 30
0.0
 11
-2.008384246903114
 21
2.97315764141949
 31
0.0
  0
LINE
  5
14A
330
10B
100
AcDbEntity
  8
Skizziergeometrie MD
100
AcDbLine
 10
-2.008384246903114
 20
2.416357641419502
 30
0.0
 11
-0.5003842469031472
 21
2.416357641419493
 31
0.0
  0
LINE
  5
14B
330
10B
100
AcDbEntity
  8
Skizziergeometrie MD
100
AcDbLine
 10
-2.008384246903114
 20
1.650757641419478
 30
0.0
 11
-0.5003842469031295
 21
1.650757641419495
 31
0.0
  0
LINE
  5
14C
330
10B
100
AcDbEntity
  8
Skizziergeometrie MD
100
AcDbLine
 10
-0.5003842469031472
 20
2.973157641419481
 30
0.0
 11
-2.008384246903114
 21
2.97315764141949
 31
0.0
  0
LINE
  5
14D
330
10B
100
AcDbEntity
  8
Skizziergeometrie MD
100
AcDbLine
 10
-0.5003842469031472
 20
2.973157641419481
 30
0.0
 11
-0.5003842469031472
 21
2.416357641419493
 31
0.0
  0
LINE
  5
14E
330
10B
100
AcDbEntity
  8
Skizziergeometrie MD
100
AcDbLine
 10
-0.5003842469031472
 20
3.738757641419478
 30
0.0
 11
-2.00838424690322
 21
3.738757641419461
 31
0.0
  0
LINE
  5
14F
330
10B
100
AcDbEntity
  8
Skizziergeometrie MD
100
AcDbLine
 10
-0.5003842469031472
 20
4.434757641419508
 30
0.0
 11
-0.5003842469031472
 21
3.738757641419478
 31
0.0
  0
LINE
  5
150
330
10B
100
AcDbEntity
  8
Skizziergeometrie MD
100
AcDbLine
 10
-0.5003842469031472
 20
4.434757641419508
 30
0.0
 11
-2.820384246903193
 21
4.434757641419491
 31
0.0
  0
ARC
  5
151
330
10B
100
AcDbEntity
  8
Skizziergeometrie MD
100
AcDbCircle
 10
0.9886816489375238
 20
3.375319637275335
 30
0.0
 40
0.8831780097770545
100
AcDbArc
 50
179.5885658599057
 51
199.0826692789079
  0
ARC
  5
152
330
10B
100
AcDbEntity
  8
Skizziergeometrie MD
100
AcDbCircle
 10
2.447450381482267
 20
3.449922296775334
 30
0.0
 40
2.342918567867358
100
AcDbArc
 50
170.8565973958725
 51
181.669543553105
  0
ARC
  5
153
330
10B
100
AcDbEntity
  8
Skizziergeometrie MD
100
AcDbCircle
 10
0.636836145280002
 20
3.689160978033942
 30
0.0
 40
0.5198531530168706
100
AcDbArc
 50
134.0454032738122
 51
165.1691195883359
  0
LINE
  5
154
330
10B
100
AcDbEntity
  8
Skizziergeometrie MD
100
AcDbLine
 10
-2.820384246903193
 20
0.9547576414194747
 30
0.0
 11
-0.5003842469031472
 21
0.9547576414195102
 31
0.0
  0
LINE
  5
155
330
10B
100
AcDbEntity
  8
Skizziergeometrie MD
100
AcDbLine
 10
3.539480586207313
 20
0.9547576414194836
 30
0.0
 11
4.351480586207321
 21
0.9547576414194747
 31
0.0
  0
ARC
  5
156
330
10B
100
AcDbEntity
  8
Skizziergeometrie MD
100
AcDbCircle
 10
1.310926526898272
 20
3.473035832474717
 30
0.0
 40
0.457042597520243
100
AcDbArc
 50
151.3355395480101
 51
191.7239698313071
  0
ARC
  5
157
330
10B
100
AcDbEntity
  8
Skizziergeometrie MD
100
AcDbCircle
 10
1.222319253597143
 20
3.518066849428667
 30
0.0
 40
0.3844816368478088
100
AcDbArc
 50
201.018322233423
 51
263.3929685260032
  0
ARC
  5
158
330
10B
100
AcDbEntity
  8
Skizziergeometrie MD
100
AcDbCircle
 10
1.253043178103583
 20
3.476283865928477
 30
0.0
 40
0.4054614417244096
100
AcDbArc
 50
98.75786633985814
 51
147.8125122477498
  0
ARC
  5
159
330
10B
100
AcDbEntity
  8
Skizziergeometrie MD
100
AcDbCircle
 10
0.7721555217741294
 20
-2.976116670697459
 30
0.0
 40
6.125719647533964
100
AcDbArc
 50
80.36604666376712
 51
86.20046585754947
  0
ARC
  5
15A
330
10B
100
AcDbEntity
  8
Skizziergeometrie MD
100
AcDbCircle
 10
1.300926421886678
 20
1.404792030621893
 30
0.0
 40
1.731114441187764
100
AcDbArc
 50
52.62898263848888
 51
73.33687314972518
  0
ARC
  5
15B
330
10B
100
AcDbEntity
  8
Skizziergeometrie MD
100
AcDbCircle
 10
1.599181827341737
 20
0.9781497739148559
 30
0.0
 40
3.489118723013506
100
AcDbArc
 50
88.72473946245063
 51
103.3008820411695
  0
ARC
  5
15C
330
10B
100
AcDbEntity
  8
Skizziergeometrie MD
100
AcDbCircle
 10
1.416777691150352
 20
0.3571482201301368
 30
0.0
 40
3.527083637447387
100
AcDbArc
 50
77.40400383706507
 51
93.66514609241674
  0
ARC
  5
15D
330
10B
100
AcDbEntity
  8
Skizziergeometrie MD
100
AcDbCircle
 10
1.554730757859816
 20
1.247827127453415
 30
0.0
 40
3.220892458778597
100
AcDbArc
 50
68.35600108479933
 51
87.82740230149334
  0
LINE
  5
15E
330
10B
100
AcDbEntity
  8
Skizziergeometrie MD
100
AcDbLine
 10
2.742719719200037
 20
4.241625794490104
 30
0.0
 11
2.742719719200055
 21
3.650537934441837
 31
0.0
  0
LINE
  5
15F
330
10B
100
AcDbEntity
  8
Skizziergeometrie MD
100
AcDbLine
 10
2.688874901408508
 20
-1.219268496928362
 30
0.0
 11
0.6573565815884752
 21
-1.219268496928371
 31
0.0
  0
LINE
  5
160
330
10B
100
AcDbEntity
  8
Skizziergeometrie MD
100
AcDbLine
 10
2.688874901408526
 20
-2.379268496928341
 30
0.0
 11
2.688874901408508
 21
-1.219268496928362
 31
0.0
  0
LINE
  5
161
330
10B
100
AcDbEntity
  8
Skizziergeometrie MD
100
AcDbLine
 10
2.688874901408526
 20
-2.379268496928341
 30
0.0
 11
0.8893565815884318
 21
-2.379268496928359
 31
0.0
  0
LINE
  5
162
330
10B
100
AcDbEntity
  8
Skizziergeometrie MD
100
AcDbLine
 10
1.817356581588418
 20
-2.959268496928331
 30
0.0
 11
3.500874901408499
 21
-2.95926849692834
 31
0.0
  0
LINE
  5
163
330
10B
100
AcDbEntity
  8
Skizziergeometrie MD
100
AcDbLine
 10
0.8893565815884318
 20
-3.307268496928346
 30
0.0
 11
1.817356581588418
 21
-3.307268496928355
 31
0.0
  0
LINE
  5
164
330
10B
100
AcDbEntity
  8
Skizziergeometrie MD
100
AcDbLine
 10
1.817356581588418
 20
-3.307268496928355
 30
0.0
 11
1.817356581588418
 21
-2.959268496928331
 31
0.0
  0
LINE
  5
165
330
10B
100
AcDbEntity
  8
Skizziergeometrie MD
100
AcDbLine
 10
0.6573565815884752
 20
-4.467268496928378
 30
0.0
 11
3.500874901408517
 21
-4.467268496928369
 31
0.0
  0
LINE
  5
166
330
10B
100
AcDbEntity
  8
Skizziergeometrie MD
100
AcDbLine
 10
3.500874901408517
 20
-4.467268496928369
 30
0.0
 11
3.500874901408499
 21
-2.95926849692834
 31
0.0
  0
ARC
  5
167
330
10B
100
AcDbEntity
  8
Skizziergeometrie MD
100
AcDbCircle
 10
1.875785543114636
 20
2.03206126536811
 30
0.0
 40
0.8831780097769998
100
AcDbArc
 50
359.5885658598925
 51
19.08266927892371
  0
ARC
  5
168
330
10B
100
AcDbEntity
  8
Skizziergeometrie MD
100
AcDbCircle
 10
0.4170168105697148
 20
1.957458605867339
 30
0.0
 40
2.342918567867507
100
AcDbArc
 50
350.8565973958879
 51
1.669543553118977
  0
ARC
  5
169
330
10B
100
AcDbEntity
  8
Skizziergeometrie MD
100
AcDbCircle
 10
1.590722106467152
 20
2.425830006947373
 30
0.0
 40
1.471668828572101
100
AcDbArc
 50
288.9241660710607
 51
312.7158447178804
  0
ARC
  5
16A
330
10B
100
AcDbEntity
  8
Skizziergeometrie MD
100
AcDbCircle
 10
2.227631046772247
 20
1.718219924609538
 30
0.0
 40
0.5198531530168706
100
AcDbArc
 50
314.0454032738024
 51
345.1691195883126
  0
LINE
  5
16B
330
10B
100
AcDbEntity
  8
Skizziergeometrie MD
100
AcDbLine
 10
5.337480586207279
 20
0.9547576414194836
 30
0.0
 11
4.351480586207303
 21
2.976357229216644
 31
0.0
  0
LINE
  5
16C
330
10B
100
AcDbEntity
  8
Skizziergeometrie MD
100
AcDbLine
 10
4.699480586207256
 20
4.434757641419482
 30
0.0
 11
3.539480586207313
 21
4.434757641419482
 31
0.0
  0
LINE
  5
16D
330
10B
100
AcDbEntity
  8
Skizziergeometrie MD
100
AcDbLine
 10
3.539480586207313
 20
4.434757641419482
 30
0.0
 11
3.539480586207313
 21
0.9547576414194836
 31
0.0
  0
ARC
  5
16E
330
10B
100
AcDbEntity
  8
Skizziergeometrie MD
100
AcDbCircle
 10
1.475335568508091
 20
0.0244551266269433
 30
0.0
 40
3.841189804547012
100
AcDbArc
 50
70.73451881267041
 51
79.33900531294185
  0
ARC
  5
16F
330
10B
100
AcDbEntity
  8
Skizziergeometrie MD
100
AcDbCircle
 10
1.483150225724392
 20
1.732943934507451
 30
0.0
 40
1.360806176159391
100
AcDbArc
 50
25.59400450827445
 51
50.3394820629451
  0
LINE
  5
170
330
10B
100
AcDbEntity
  8
Skizziergeometrie MD
100
AcDbLine
 10
4.351480586207303
 20
2.976357229216644
 30
0.0
 11
4.351480586207321
 21
0.9547576414194747
 31
0.0
  0
LINE
  5
171
330
10B
100
AcDbEntity
  8
Skizziergeometrie MD
100
AcDbLine
 10
7.947480586207307
 20
0.9547576414194836
 30
0.0
 11
7.947480586207307
 21
4.434757641419482
 31
0.0
  0
LINE
  5
172
330
10B
100
AcDbEntity
  8
Skizziergeometrie MD
100
AcDbLine
 10
9.450578096472836
 20
0.9547576414195013
 30
0.0
 11
9.70390137952207
 21
1.650757641419513
 31
0.0
  0
LINE
  5
173
330
10B
100
AcDbEntity
  8
Skizziergeometrie MD
100
AcDbLine
 10
8.522578096472779
 20
0.9547576414194836
 30
0.0
 11
9.789194511719214
 21
4.434757641419473
 31
0.0
  0
LINE
  5
174
330
10B
100
AcDbEntity
  8
Skizziergeometrie MD
100
AcDbLine
 10
7.135480586207316
 20
0.9547576414194836
 30
0.0
 11
7.947480586207307
 21
0.9547576414194836
 31
0.0
  0
LINE
  5
175
330
10B
100
AcDbEntity
  8
Skizziergeometrie MD
100
AcDbLine
 10
7.135480586207316
 20
0.9547576414194836
 30
0.0
 11
7.135480586207316
 21
2.97635722921667
 31
0.0
  0
LINE
  5
176
330
10B
100
AcDbEntity
  8
Skizziergeometrie MD
100
AcDbLine
 10
6.149480586207287
 20
0.9547576414194747
 30
0.0
 11
7.135480586207316
 21
2.97635722921667
 31
0.0
  0
LINE
  5
177
330
10B
100
AcDbEntity
  8
Skizziergeometrie MD
100
AcDbLine
 10
7.947480586207307
 20
4.434757641419482
 30
0.0
 11
6.787480586207292
 21
4.434757641419473
 31
0.0
  0
LINE
  5
178
330
10B
100
AcDbEntity
  8
Skizziergeometrie MD
100
AcDbLine
 10
5.337480586207279
 20
0.9547576414194836
 30
0.0
 11
6.149480586207287
 21
0.9547576414194747
 31
0.0
  0
LINE
  5
179
330
10B
100
AcDbEntity
  8
Skizziergeometrie MD
100
AcDbLine
 10
6.787480586207292
 20
4.434757641419473
 30
0.0
 11
5.74348058620731
 21
2.29424043081071
 31
0.0
  0
LINE
  5
17A
330
10B
100
AcDbEntity
  8
Skizziergeometrie MD
100
AcDbLine
 10
5.74348058620731
 20
2.29424043081071
 30
0.0
 11
4.699480586207256
 21
4.434757641419482
 31
0.0
  0
LINE
  5
17B
330
10B
100
AcDbEntity
  8
Skizziergeometrie MD
100
AcDbLine
 10
8.522578096472779
 20
0.9547576414194836
 30
0.0
 11
9.450578096472836
 21
0.9547576414195013
 31
0.0
  0
LINE
  5
17C
330
10B
100
AcDbEntity
  8
Skizziergeometrie MD
100
AcDbLine
 10
9.87278356822169
 20
2.11475764141948
 30
0.0
 11
10.43667847483362
 21
3.664046164281389
 31
0.0
  0
LINE
  5
17D
330
10B
100
AcDbEntity
  8
Skizziergeometrie MD
100
AcDbLine
 10
9.87278356822169
 20
2.11475764141948
 30
0.0
 11
11.00057338144558
 21
2.114757641419497
 31
0.0
  0
LINE
  5
17E
330
10B
100
AcDbEntity
  8
Skizziergeometrie MD
100
AcDbLine
 10
9.789194511719214
 20
4.434757641419473
 30
0.0
 11
11.08416243794797
 21
4.434757641419482
 31
0.0
  0
LINE
  5
17F
330
10B
100
AcDbEntity
  8
Skizziergeometrie MD
100
AcDbLine
 10
9.70390137952207
 20
1.650757641419513
 30
0.0
 11
11.16945557014513
 21
1.650757641419478
 31
0.0
  0
LINE
  5
180
330
10B
100
AcDbEntity
  8
Skizziergeometrie MD
100
AcDbLine
 10
11.00057338144558
 20
2.114757641419497
 30
0.0
 11
10.43667847483362
 21
3.664046164281389
 31
0.0
  0
LINE
  5
181
330
10B
100
AcDbEntity
  8
Skizziergeometrie MD
100
AcDbLine
 10
11.42277885319431
 20
0.9547576414195013
 30
0.0
 11
11.16945557014513
 21
1.650757641419478
 31
0.0
  0
LINE
  5
182
330
10B
100
AcDbEntity
  8
Skizziergeometrie MD
100
AcDbLine
 10
12.3507788531944
 20
0.9547576414194836
 30
0.0
 11
11.08416243794797
 21
4.434757641419482
 31
0.0
  0
LINE
  5
183
330
10B
100
AcDbEntity
  8
Skizziergeometrie MD
100
AcDbLine
 10
11.42277885319431
 20
0.9547576414195013
 30
0.0
 11
12.3507788531944
 21
0.9547576414194836
 31
0.0
  0
LINE
  5
184
330
10B
100
AcDbEntity
  8
Skizziergeometrie MD
100
AcDbLine
 10
15.43554071146526
 20
0.9547576414194836
 30
0.0
 11
16.36354071146521
 21
0.9547576414194658
 31
0.0
  0
LINE
  5
185
330
10B
100
AcDbEntity
  8
Skizziergeometrie MD
100
AcDbLine
 10
16.36354071146523
 20
4.434757641419473
 30
0.0
 11
15.43554071146521
 21
4.4347576414195
 31
0.0
  0
LINE
  5
186
330
10B
100
AcDbEntity
  8
Skizziergeometrie MD
100
AcDbLine
 10
12.88354071146519
 20
4.434757641419491
 30
0.0
 11
12.8835407114652
 21
0.9547576414194836
 31
0.0
  0
LINE
  5
187
330
10B
100
AcDbEntity
  8
Skizziergeometrie MD
100
AcDbLine
 10
13.81154071146526
 20
2.738521983593473
 30
0.0
 11
13.81154071146526
 21
0.954757641419448
 31
0.0
  0
LINE
  5
188
330
10B
100
AcDbEntity
  8
Skizziergeometrie MD
100
AcDbLine
 10
12.8835407114652
 20
0.9547576414194836
 30
0.0
 11
13.81154071146526
 21
0.954757641419448
 31
0.0
  0
LINE
  5
189
330
10B
100
AcDbEntity
  8
Skizziergeometrie MD
100
AcDbLine
 10
13.81154071146526
 20
4.434757641419482
 30
0.0
 11
12.88354071146519
 21
4.434757641419491
 31
0.0
  0
LINE
  5
18A
330
10B
100
AcDbEntity
  8
Skizziergeometrie MD
100
AcDbLine
 10
13.81154071146526
 20
2.738521983593473
 30
0.0
 11
15.43554071146526
 21
0.9547576414194836
 31
0.0
  0
LINE
  5
18B
330
10B
100
AcDbEntity
  8
Skizziergeometrie MD
100
AcDbLine
 10
13.81154071146526
 20
4.434757641419482
 30
0.0
 11
15.43554071146524
 21
2.294240430810701
 31
0.0
  0
LINE
  5
18C
330
10B
100
AcDbEntity
  8
Skizziergeometrie MD
100
AcDbLine
 10
15.43554071146521
 20
4.4347576414195
 30
0.0
 11
15.43554071146524
 21
2.294240430810701
 31
0.0
  0
LINE
  5
18D
330
10B
100
AcDbEntity
  8
Skizziergeometrie MD
100
AcDbLine
 10
16.36354071146523
 20
4.434757641419473
 30
0.0
 11
16.36354071146521
 21
0.9547576414194658
 31
0.0
  0
LINE
  5
18E
330
10B
100
AcDbEntity
  8
Skizziergeometrie MD
100
AcDbLine
 10
17.10111226087508
 20
4.4347576414195
 30
0.0
 11
17.1011122608751
 21
0.9547576414194924
 31
0.0
  0
LINE
  5
18F
330
10B
100
AcDbEntity
  8
Skizziergeometrie MD
100
AcDbLine
 10
18.02911226087512
 20
4.434757641419517
 30
0.0
 11
17.10111226087508
 21
4.4347576414195
 31
0.0
  0
LINE
  5
190
330
10B
100
AcDbEntity
  8
Skizziergeometrie MD
100
AcDbLine
 10
17.1011122608751
 20
0.9547576414194924
 30
0.0
 11
18.02911226087514
 21
0.9547576414194658
 31
0.0
  0
LINE
  5
191
330
10B
100
AcDbEntity
  8
Skizziergeometrie MD
100
AcDbLine
 10
18.02911226087516
 20
2.738521983593464
 30
0.0
 11
18.02911226087514
 21
0.9547576414194658
 31
0.0
  0
LINE
  5
192
330
10B
100
AcDbEntity
  8
Skizziergeometrie MD
100
AcDbLine
 10
18.02911226087516
 20
2.738521983593464
 30
0.0
 11
19.65311226087514
 21
0.9547576414194658
 31
0.0
  0
LINE
  5
193
330
10B
100
AcDbEntity
  8
Skizziergeometrie MD
100
AcDbLine
 10
18.02911226087512
 20
4.434757641419517
 30
0.0
 11
19.65311226087512
 21
2.294240430810718
 31
0.0
  0
LINE
  5
194
330
10B
100
AcDbEntity
  8
Skizziergeometrie MD
100
AcDbLine
 10
19.65311226087512
 20
4.434757641419491
 30
0.0
 11
19.65311226087512
 21
2.294240430810718
 31
0.0
  0
LINE
  5
195
330
10B
100
AcDbEntity
  8
Skizziergeometrie MD
100
AcDbLine
 10
20.58111226087505
 20
4.434757641419491
 30
0.0
 11
20.58111226087511
 21
0.9547576414194747
 31
0.0
  0
LINE
  5
196
330
10B
100
AcDbEntity
  8
Skizziergeometrie MD
100
AcDbLine
 10
20.58111226087505
 20
4.434757641419491
 30
0.0
 11
19.65311226087512
 21
4.434757641419491
 31
0.0
  0
LINE
  5
197
330
10B
100
AcDbEntity
  8
Skizziergeometrie MD
100
AcDbLine
 10
19.65311226087514
 20
0.9547576414194658
 30
0.0
 11
20.58111226087511
 21
0.9547576414194747
 31
0.0
  0
LINE
  5
198
330
10B
100
AcDbEntity
  8
Skizziergeometrie MD
100
AcDbLine
 10
-11.78114689185111
 20
-1.219268496928345
 30
0.0
 11
-15.37714689185112
 21
-1.219268496928354
 31
0.0
  0
LINE
  5
199
330
10B
100
AcDbEntity
  8
Skizziergeometrie MD
100
AcDbLine
 10
-11.78114689185111
 20
-1.219268496928345
 30
0.0
 11
-11.78114689185112
 21
-1.915268496928366
 31
0.0
  0
LINE
  5
19A
330
10B
100
AcDbEntity
  8
Skizziergeometrie MD
100
AcDbLine
 10
-11.78114689185112
 20
-1.915268496928366
 30
0.0
 11
-13.98514689185111
 21
-1.915268496928348
 31
0.0
  0
LINE
  5
19B
330
10B
100
AcDbEntity
  8
Skizziergeometrie MD
100
AcDbLine
 10
-13.98514689185111
 20
-1.915268496928348
 30
0.0
 11
-13.98514689185111
 21
-2.611268496928333
 31
0.0
  0
LINE
  5
19C
330
10B
100
AcDbEntity
  8
Skizziergeometrie MD
100
AcDbLine
 10
-12.12914689185107
 20
-2.611268496928342
 30
0.0
 11
-13.98514689185111
 21
-2.611268496928333
 31
0.0
  0
LINE
  5
19D
330
10B
100
AcDbEntity
  8
Skizziergeometrie MD
100
AcDbLine
 10
-12.12914689185107
 20
-2.611268496928342
 30
0.0
 11
-12.12914689185106
 21
-3.075268496928362
 31
0.0
  0
LINE
  5
19E
330
10B
100
AcDbEntity
  8
Skizziergeometrie MD
100
AcDbLine
 10
-13.98514689185111
 20
-3.075268496928345
 30
0.0
 11
-12.12914689185106
 21
-3.075268496928362
 31
0.0
  0
LINE
  5
19F
330
10B
100
AcDbEntity
  8
Skizziergeometrie MD
100
AcDbLine
 10
-13.98514689185111
 20
-3.075268496928345
 30
0.0
 11
-13.98514689185111
 21
-3.77126849692833
 31
0.0
  0
LINE
  5
1A0
330
10B
100
AcDbEntity
  8
Skizziergeometrie MD
100
AcDbLine
 10
-13.98514689185111
 20
-3.77126849692833
 30
0.0
 11
-11.78114689185111
 21
-3.771268496928339
 31
0.0
  0
LINE
  5
1A1
330
10B
100
AcDbEntity
  8
Skizziergeometrie MD
100
AcDbLine
 10
-11.78114689185111
 20
-3.771268496928339
 30
0.0
 11
-11.78114689185112
 21
-4.46726849692836
 31
0.0
  0
LINE
  5
1A2
330
10B
100
AcDbEntity
  8
Skizziergeometrie MD
100
AcDbLine
 10
-15.37714689185111
 20
-4.467268496928378
 30
0.0
 11
-11.78114689185112
 21
-4.46726849692836
 31
0.0
  0
LINE
  5
1A3
330
10B
100
AcDbEntity
  8
Skizziergeometrie MD
100
AcDbLine
 10
-6.449957764664384
 20
-1.219268496928345
 30
0.0
 11
-7.609957764664416
 21
-1.219268496928362
 31
0.0
  0
LINE
  5
1A4
330
10B
100
AcDbEntity
  8
Skizziergeometrie MD
100
AcDbLine
 10
-7.377957764664442
 20
-4.467268496928369
 30
0.0
 11
-6.449957764664366
 21
-4.467268496928369
 31
0.0
  0
LINE
  5
1A5
330
10B
100
AcDbEntity
  8
Skizziergeometrie MD
100
AcDbLine
 10
-8.537957764664385
 20
-2.611268496928325
 30
0.0
 11
-7.609957764664416
 21
-1.219268496928362
 31
0.0
  0
LINE
  5
1A6
330
10B
100
AcDbEntity
  8
Skizziergeometrie MD
100
AcDbLine
 10
-9.465957764664354
 20
-1.219268496928362
 30
0.0
 11
-8.537957764664385
 21
-2.611268496928325
 31
0.0
  0
LINE
  5
1A7
330
10B
100
AcDbEntity
  8
Skizziergeometrie MD
100
AcDbLine
 10
-10.62595776466438
 20
-1.219268496928345
 30
0.0
 11
-10.6259577646644
 21
-4.46726849692836
 31
0.0
  0
LINE
  5
1A8
330
10B
100
AcDbEntity
  8
Skizziergeometrie MD
100
AcDbLine
 10
-10.6259577646644
 20
-4.46726849692836
 30
0.0
 11
-9.697957764664435
 21
-4.46726849692836
 31
0.0
  0
LINE
  5
1A9
330
10B
100
AcDbEntity
  8
Skizziergeometrie MD
100
AcDbLine
 10
-9.465957764664354
 20
-1.219268496928362
 30
0.0
 11
-10.62595776466438
 21
-1.219268496928345
 31
0.0
  0
LINE
  5
1AA
330
10B
100
AcDbEntity
  8
Skizziergeometrie MD
100
AcDbLine
 10
-9.697957764664417
 20
-3.017268496928302
 30
0.0
 11
-9.697957764664435
 21
-4.46726849692836
 31
0.0
  0
LINE
  5
1AB
330
10B
100
AcDbEntity
  8
Skizziergeometrie MD
100
AcDbLine
 10
-9.697957764664417
 20
-3.017268496928302
 30
0.0
 11
-8.537957764664385
 21
-4.46726849692836
 31
0.0
  0
LINE
  5
1AC
330
10B
100
AcDbEntity
  8
Skizziergeometrie MD
100
AcDbLine
 10
-7.377957764664442
 20
-3.0172684969284
 30
0.0
 11
-7.377957764664442
 21
-4.467268496928369
 31
0.0
  0
LINE
  5
1AD
330
10B
100
AcDbEntity
  8
Skizziergeometrie MD
100
AcDbLine
 10
-6.449957764664384
 20
-1.219268496928345
 30
0.0
 11
-6.449957764664366
 21
-4.467268496928369
 31
0.0
  0
LINE
  5
1AE
330
10B
100
AcDbEntity
  8
Skizziergeometrie MD
100
AcDbLine
 10
-5.781055442448335
 20
-4.46726849692836
 30
0.0
 11
-4.389055442448333
 21
-4.46726849692836
 31
0.0
  0
LINE
  5
1AF
330
10B
100
AcDbEntity
  8
Skizziergeometrie MD
100
AcDbLine
 10
-5.781055442448335
 20
-4.46726849692836
 30
0.0
 11
-4.389055442448333
 21
-4.46726849692836
 31
0.0
  0
LINE
  5
1B0
330
10B
100
AcDbEntity
  8
Skizziergeometrie MD
100
AcDbLine
 10
-5.781055442448335
 20
-4.46726849692836
 30
0.0
 11
-4.389055442448333
 21
-4.46726849692836
 31
0.0
  0
LINE
  5
1B1
330
10B
100
AcDbEntity
  8
Skizziergeometrie MD
100
AcDbLine
 10
-4.389055442448333
 20
-1.219268496928362
 30
0.0
 11
-5.781055442448335
 21
-4.46726849692836
 31
0.0
  0
LINE
  5
1B2
330
10B
100
AcDbEntity
  8
Skizziergeometrie MD
100
AcDbLine
 10
-4.389055442448333
 20
-1.219268496928362
 30
0.0
 11
-5.781055442448335
 21
-4.46726849692836
 31
0.0
  0
LINE
  5
1B3
330
10B
100
AcDbEntity
  8
Skizziergeometrie MD
100
AcDbLine
 10
-5.781055442448335
 20
-4.46726849692836
 30
0.0
 11
-4.389055442448333
 21
-1.219268496928362
 31
0.0
  0
LINE
  5
1B4
330
10B
100
AcDbEntity
  8
Skizziergeometrie MD
100
AcDbLine
 10
-8.537957764664385
 20
-4.46726849692836
 30
0.0
 11
-7.377957764664442
 21
-3.0172684969284
 31
0.0
  0
ARC
  5
1B5
330
10B
100
AcDbEntity
  8
Skizziergeometrie MD
100
AcDbCircle
 10
0.8893565815884318
 20
-2.843268496928352
 30
0.0
 40
0.4639999999999872
100
AcDbArc
 50
90.0
 51
270.0
  0
ARC
  5
1B6
330
10B
100
AcDbEntity
  8
Skizziergeometrie MD
100
AcDbCircle
 10
0.6573565815884752
 20
-2.84326849692837
 30
0.0
 40
1.623999999999999
100
AcDbArc
 50
90.0
 51
270.0
  0
LINE
  5
1B7
330
10B
100
AcDbEntity
  8
Skizziergeometrie MD
100
AcDbLine
 10
-2.533055442448288
 20
-4.46726849692836
 30
0.0
 11
-1.141055442448299
 21
-4.467268496928351
 31
0.0
  0
LINE
  5
1B8
330
10B
100
AcDbEntity
  8
Skizziergeometrie MD
100
AcDbLine
 10
-2.533055442448288
 20
-4.46726849692836
 30
0.0
 11
-1.141055442448299
 21
-4.467268496928351
 31
0.0
  0
LINE
  5
1B9
330
10B
100
AcDbEntity
  8
Skizziergeometrie MD
100
AcDbLine
 10
-2.533055442448288
 20
-4.46726849692836
 30
0.0
 11
-1.141055442448299
 21
-4.467268496928351
 31
0.0
  0
LINE
  5
1BA
330
10B
100
AcDbEntity
  8
Skizziergeometrie MD
100
AcDbLine
 10
-1.141055442448299
 20
-4.467268496928351
 30
0.0
 11
-2.533055442448306
 21
-1.219268496928362
 31
0.0
  0
LINE
  5
1BB
330
10B
100
AcDbEntity
  8
Skizziergeometrie MD
100
AcDbLine
 10
-1.141055442448299
 20
-4.467268496928351
 30
0.0
 11
-2.533055442448306
 21
-1.219268496928362
 31
0.0
  0
LINE
  5
1BC
330
10B
100
AcDbEntity
  8
Skizziergeometrie MD
100
AcDbLine
 10
-2.533055442448306
 20
-1.219268496928362
 30
0.0
 11
-1.141055442448299
 21
-4.467268496928351
 31
0.0
  0
LINE
  5
1BD
330
10B
100
AcDbEntity
  8
Skizziergeometrie MD
100
AcDbLine
 10
-4.389055442448333
 20
-4.46726849692836
 30
0.0
 11
-4.182833220226145
 21
-4.003268496928358
 31
0.0
  0
LINE
  5
1BE
330
10B
100
AcDbEntity
  8
Skizziergeometrie MD
100
AcDbLine
 10
-2.739277664670565
 20
-4.00326849692834
 30
0.0
 11
-2.533055442448288
 21
-4.46726849692836
 31
0.0
  0
LINE
  5
1BF
330
10B
100
AcDbEntity
  8
Skizziergeometrie MD
100
AcDbLine
 10
-2.739277664670565
 20
-4.00326849692834
 30
0.0
 11
-2.533055442448288
 21
-4.46726849692836
 31
0.0
  0
LINE
  5
1C0
330
10B
100
AcDbEntity
  8
Skizziergeometrie MD
100
AcDbLine
 10
-2.739277664670565
 20
-4.00326849692834
 30
0.0
 11
-2.533055442448288
 21
-4.46726849692836
 31
0.0
  0
LINE
  5
1C1
330
10B
100
AcDbEntity
  8
Skizziergeometrie MD
100
AcDbLine
 10
-2.533055442448306
 20
-1.219268496928362
 30
0.0
 11
-3.362036082440118
 21
-1.219268496928362
 31
0.0
  0
LINE
  5
1C2
330
10B
100
AcDbEntity
  8
Skizziergeometrie MD
100
AcDbLine
 10
-3.461055442448364
 20
-2.379268496928377
 30
0.0
 11
-2.976433220226093
 21
-3.469668496928353
 31
0.0
  0
LINE
  5
1C3
330
10B
100
AcDbEntity
  8
Skizziergeometrie MD
100
AcDbLine
 10
-3.945677664670599
 20
-3.469668496928379
 30
0.0
 11
-3.461055442448364
 21
-2.379268496928377
 31
0.0
  0
LINE
  5
1C4
330
10B
100
AcDbEntity
  8
Skizziergeometrie MD
100
AcDbLine
 10
-4.389055442448333
 20
-1.219268496928362
 30
0.0
 11
-2.533055442448306
 21
-1.219268496928362
 31
0.0
  0
LINE
  5
1C5
330
10B
100
AcDbEntity
  8
Skizziergeometrie MD
100
AcDbLine
 10
-3.810046114701153
 20
-1.219268496928362
 30
0.0
 11
-4.389055442448333
 21
-1.219268496928362
 31
0.0
  0
LINE
  5
1C6
330
10B
100
AcDbEntity
  8
Skizziergeometrie MD
100
AcDbLine
 10
-3.945677664670599
 20
-3.469668496928379
 30
0.0
 11
-2.976433220226093
 21
-3.469668496928353
 31
0.0
  0
LINE
  5
1C7
330
10B
100
AcDbEntity
  8
Skizziergeometrie MD
100
AcDbLine
 10
-4.182833220226145
 20
-4.003268496928358
 30
0.0
 11
-2.739277664670565
 21
-4.00326849692834
 31
0.0
  0
LINE
  5
1C8
330
10B
100
AcDbEntity
  8
Skizziergeometrie MD
100
AcDbLine
 10
-4.182833220226145
 20
-4.003268496928358
 30
0.0
 11
-2.739277664670565
 21
-4.00326849692834
 31
0.0
  0
LINE
  5
1C9
330
10B
100
AcDbEntity
  8
Skizziergeometrie MD
100
AcDbLine
 10
-4.182833220226145
 20
-4.003268496928358
 30
0.0
 11
-2.739277664670565
 21
-4.00326849692834
 31
0.0
  0
LINE
  5
1CA
330
10B
100
AcDbEntity
  8
Skizziergeometrie MD
100
AcDbLine
 10
-4.389055442448333
 20
-4.46726849692836
 30
0.0
 11
-4.182833220226145
 21
-4.003268496928358
 31
0.0
  0
LINE
  5
1CB
330
10B
100
AcDbEntity
  8
Skizziergeometrie MD
100
AcDbLine
 10
-4.389055442448333
 20
-4.46726849692836
 30
0.0
 11
-4.182833220226145
 21
-4.003268496928358
 31
0.0
  0
LINE
  5
1CC
330
10B
100
AcDbEntity
  8
Skizziergeometrie MD
100
AcDbLine
 10
-15.37714689185112
 20
-1.219268496928354
 30
0.0
 11
-15.37714689185111
 21
-4.467268496928378
 31
0.0
  0
ARC
  5
1CD
330
10B
100
AcDbEntity
  8
Skizziergeometrie MD
100
AcDbCircle
 10
-17.7971122608751
 20
-2.843268496928343
 30
0.0
 40
1.623999999999999
100
AcDbArc
 50
270.0
 51
90.0
  0
ARC
  5
1CE
330
10B
100
AcDbEntity
  8
Skizziergeometrie MD
100
AcDbCircle
 10
-18.26111226087508
 20
-2.843268496928352
 30
0.0
 40
0.4639999999999873
100
AcDbArc
 50
270.0
 51
90.0
  0
LINE
  5
1CF
330
10B
100
AcDbEntity
  8
Skizziergeometrie MD
100
AcDbLine
 10
-19.1891122608751
 20
-3.307268496928346
 30
0.0
 11
-18.26111226087514
 21
-3.307268496928346
 31
0.0
  0
LINE
  5
1D0
330
10B
100
AcDbEntity
  8
Skizziergeometrie MD
100
AcDbLine
 10
-18.26111226087513
 20
-2.379268496928368
 30
0.0
 11
-19.1891122608751
 21
-2.379268496928368
 31
0.0
  0
LINE
  5
1D1
330
10B
100
AcDbEntity
  8
Skizziergeometrie MD
100
AcDbLine
 10
-19.1891122608751
 20
-2.379268496928368
 30
0.0
 11
-19.1891122608751
 21
-3.307268496928346
 31
0.0
  0
LINE
  5
1D2
330
10B
100
AcDbEntity
  8
Skizziergeometrie MD
100
AcDbLine
 10
-20.58111226087511
 20
-4.467268496928351
 30
0.0
 11
-17.7971122608751
 21
-4.467268496928342
 31
0.0
  0
LINE
  5
1D3
330
10B
100
AcDbEntity
  8
Skizziergeometrie MD
100
AcDbLine
 10
-17.79711226087509
 20
-1.219268496928345
 30
0.0
 11
-20.58111226087511
 21
-1.219268496928354
 31
0.0
  0
LINE
  5
1D4
330
10B
100
AcDbEntity
  8
Skizziergeometrie MD
100
AcDbLine
 10
-20.58111226087511
 20
-1.219268496928354
 30
0.0
 11
-20.58111226087511
 21
-4.467268496928351
 31
0.0
  0
ENDBLK
  5
10D
330
10B
100
AcDbEntity
  8
0
100
AcDbBlockEnd
  0
BLOCK
  5
1D6
330
1D5
100
AcDbEntity
  8
0
100
AcDbBlockBegin
  2
Beschriftung Motor variabel
 70
     2
 10
0.0
 20
0.0
 30
0.0
  3
Beschriftung Motor variabel
  1

  0
ATTDEF
  5
1D9
330
1D5
100
AcDbEntity
  8
Symbol MD
100
AcDbText
 10
-27.99350500106811
 20
9.639393898872937
 30
0.0
 40
4.000000059604644
  1
MUD 82-65
  7
Textstil51
 11
-27.99350500106811
 21
8.999999970197674
 31
0.0
100
AcDbAttributeDefinition
280
     0
  3
Type
  2
Type
 70
     0
 74
     1
280
     0
 71
     4
 72
     0
 11
-27.99350500106811
 21
8.999999970197674
 31
0.0
101
Embedded Object
 10
-27.99350500106811
 20
8.999999970197674
 30
0.0
 40
4.000000059604644
 41
0.0
 46
0.0
 71
     7
 72
     5
  1
MUD 82-65
  7
Textstil51
 73
     1
 44
1.0
  0
ATTDEF
  5
1DC
330
1D5
100
AcDbEntity
  8
Symbol MD
100
AcDbText
 10
-9.993505001068108
 20
1.559469639924062
 30
0.0
 40
3.499999940395355
  1
60002427
  7
Notiztext MD
 11
-9.993505001068108
 21
0.9999999701976669
 31
0.0
100
AcDbAttributeDefinition
280
     0
  3
Artikelnummer
  2
Artikelnummer
 70
     0
 74
     1
280
     0
 71
     4
 72
     0
 11
-9.993505001068108
 21
0.9999999701976669
 31
0.0
101
Embedded Object
 10
-9.993505001068108
 20
0.9999999701976669
 30
0.0
 40
3.499999940395355
 41
0.0
 46
0.0
 71
     7
 72
     5
  1
60002427
  7
Notiztext MD
 73
     1
 44
1.0
  0
MTEXT
  5
1DD
330
1D5
100
AcDbEntity
  8
Symbol MD
100
AcDbMText
 10
-27.99350500106811
 20
-13.00000002980232
 30
0.0
 40
3.499999940395355
 41
0.0
 46
0.0
 71
     7
 72
     1
  1
\fISOCPEUR|b0|i0;Ser-Nr: XXXXXX / XXXX
  7
Notiztext MD
 73
     1
 44
1.0
  0
MTEXT
  5
1DF
330
1D5
100
AcDbEntity
  8
Symbol MD
100
AcDbMText
 10
-27.99350500106811
 20
-6.000000029802325
 30
0.0
 40
3.499999940395355
 41
0.0
 46
0.0
 71
     7
 72
     1
  1
\fISOCPEUR|b0|i0;max. 6,3 bar
  7
Notiztext MD
 73
     1
 44
1.0
  0
MTEXT
  5
1E0
330
1D5
100
AcDbEntity
  8
Symbol MD
100
AcDbMText
 10
-27.99350500106811
 20
0.9999999701976847
 30
0.0
 40
3.499999940395355
 41
0.0
 46
0.0
 71
     7
 72
     1
  1
\fISOCPEUR|b0|i0;Art-Nr:
  7
Notiztext MD
 73
     1
 44
1.0
  0
ENDBLK
  5
1D7
330
1D5
100
AcDbEntity
  8
0
100
AcDbBlockEnd
  0
BLOCK
  5
1E2
330
1E1
100
AcDbEntity
  8
0
100
AcDbBlockBegin
  2
Anzugsmoment + Loctite ETL
 70
     2
 10
0.0
 20
0.0
 30
0.0
  3
Anzugsmoment + Loctite ETL
  1

  0
HATCH
  5
1ED
330
1E1
100
AcDbEntity
  8
Schraffur MD
100
AcDbHatch
 10
0.0
 20
0.0
 30
0.0
210
0.0
220
0.0
230
1.0
  2
SOLID
 70
     1
 71
     0
 91
        1
 92
        1
 93
        9
 72
     2
 10
-9.086737237182358
 20
13.74168988756382
 40
8.0
 50
214.1930771251396
 51
243.2099568642829
 73
     1
 72
     1
 10
-12.69251659926716
 20
6.600376619546284
 11
-10.33229405907887
 21
8.960599159734572
 72
     2
 10
-14.19599736423515
 20
7.925322979324489
 40
4.0
 50
344.9999999999999
 51
472.9756871629578
 73
     0
 72
     1
 10
-15.7573593128807
 20
4.242640687119285
 11
-19.99999999999999
 21
0.0
 72
     1
 10
-19.99999999999999
 20
0.0
 11
-20.49999999999999
 21
0.0
 72
     4
 94
        4
 73
     0
 74
     0
 95
       10
 96
        5
 40
0.0
 40
0.0
 40
0.0
 40
0.0
 40
0.0
 40
1.0
 40
1.0
 40
1.0
 40
1.0
 40
1.0
 10
-20.5
 20
0.0000000000000178
 10
-21.92263084943602
 20
-0.3856372893018811
 10
-21.23524774414511
 20
1.831957815136684
 10
-22.37346536970233
 20
1.563310390801966
 10
-22.48532273418277
 20
2.464424734123085
 97
        0
 72
     1
 10
-22.48532273418275
 20
2.464424734123071
 11
-18.24268204706347
 21
6.707065421242357
 72
     2
 10
-14.37897874190719
 20
7.74234160165244
 40
4.0
 50
165.0
 51
285.0
 73
     0
 72
     1
 10
-13.34370256149711
 20
11.60604490680871
 11
-15.7039251016854
 21
9.245822366620426
 97
        0
 75
     0
 76
     1
 98
        1
 10
0.0
 20
0.0
450
        0
451
        0
460
0.0
461
0.0
452
        0
462
0.0
453
        0
470

  0
LINE
  5
1EE
330
1E1
100
AcDbEntity
  8
Skizziergeometrie MD
100
AcDbLine
 10
-13.34370256149711
 20
11.60604490680871
 30
0.0
 11
-15.7039251016854
 21
9.245822366620428
 31
0.0
  0
LINE
  5
1EF
330
1E1
100
AcDbEntity
  8
Skizziergeometrie MD
100
AcDbLine
 10
-12.69251659926716
 20
6.600376619546284
 30
0.0
 11
-10.33229405907887
 21
8.960599159734572
 31
0.0
  0
ARC
  5
1F0
330
1E1
100
AcDbEntity
  8
Skizziergeometrie MD
100
AcDbCircle
 10
-14.37897874190719
 20
7.74234160165244
 30
0.0
 40
4.0
100
AcDbArc
 50
75.0
 51
194.9999999999999
  0
ARC
  5
1F1
330
1E1
100
AcDbEntity
  8
Skizziergeometrie MD
100
AcDbCircle
 10
-14.19599736423515
 20
7.925322979324489
 30
0.0
 40
4.0
100
AcDbArc
 50
247.0243128370421
 51
14.99999999999995
  0
LINE
  5
1F2
330
1E1
100
AcDbEntity
  8
Skizziergeometrie MD
100
AcDbLine
 10
-18.24268204706347
 20
6.707065421242357
 30
0.0
 11
-22.48532273418275
 21
2.464424734123071
 31
0.0
  0
LINE
  5
1F3
330
1E1
100
AcDbEntity
  8
Skizziergeometrie MD
100
AcDbLine
 10
-15.7573593128807
 20
4.242640687119285
 30
0.0
 11
-19.99999999999999
 21
0.0
 31
0.0
  0
ARC
  5
1F4
330
1E1
100
AcDbEntity
  8
Skizziergeometrie MD
100
AcDbCircle
 10
-9.086737237182358
 20
13.74168988756382
 30
0.0
 40
8.0
100
AcDbArc
 50
214.1930771251396
 51
243.2099568642829
  0
LINE
  5
1F5
330
1E1
100
AcDbEntity
  8
Skizziergeometrie MD
100
AcDbLine
 10
-19.99999999999999
 20
0.0
 30
0.0
 11
-20.49999999999999
 21
0.0
 31
0.0
  0
SPLINE
  5
1F6
330
1E1
100
AcDbEntity
  8
Skizziergeometrie MD
100
AcDbSpline
210
0.0
220
0.0
230
1.0
 70
     8
 71
     4
 72
    10
 73
     5
 74
     0
 42
0.000000001
 43
0.0000000001
 40
0.0
 40
0.0
 40
0.0
 40
0.0
 40
0.0
 40
1.0
 40
1.0
 40
1.0
 40
1.0
 40
1.0
 10
-22.48532273418277
 20
2.464424734123085
 30
0.0
 10
-22.37346536970233
 20
1.563310390801966
 30
0.0
 10
-21.23524774414511
 20
1.831957815136684
 30
0.0
 10
-21.92263084943602
 20
-0.3856372893018811
 30
0.0
 10
-20.5
 20
0.0000000000000178
 30
0.0
  0
LINE
  5
1F7
330
1E1
100
AcDbEntity
  8
Skizziergeometrie MD
100
AcDbLine
 10
-21.5
 20
14.0
 30
0.0
 11
21.5
 21
14.0
 31
0.0
  0
LINE
  5
1F8
330
1E1
100
AcDbEntity
  8
Skizziergeometrie MD
100
AcDbLine
 10
26.5
 20
9.000000000000003
 30
0.0
 11
26.5
 21
-9.000000000000003
 31
0.0
  0
LINE
  5
1F9
330
1E1
100
AcDbEntity
  8
Skizziergeometrie MD
100
AcDbLine
 10
21.5
 20
-14.00000000000001
 30
0.0
 11
-21.5
 21
-14.00000000000001
 31
0.0
  0
LINE
  5
1FA
330
1E1
100
AcDbEntity
  8
Skizziergeometrie MD
100
AcDbLine
 10
-26.49999999999999
 20
-9.000000000000003
 30
0.0
 11
-26.5
 21
9.000000000000003
 31
0.0
  0
ARC
  5
1FB
330
1E1
100
AcDbEntity
  8
Skizziergeometrie MD
100
AcDbCircle
 10
-21.5
 20
-9.000000000000003
 30
0.0
 40
5.0
100
AcDbArc
 50
180.0
 51
270.0
  0
ARC
  5
1FC
330
1E1
100
AcDbEntity
  8
Skizziergeometrie MD
100
AcDbCircle
 10
-21.5
 20
9.000000000000003
 30
0.0
 40
5.0
100
AcDbArc
 50
90.0
 51
180.0
  0
ARC
  5
1FD
330
1E1
100
AcDbEntity
  8
Skizziergeometrie MD
100
AcDbCircle
 10
21.5
 20
9.000000000000003
 30
0.0
 40
5.0
100
AcDbArc
 50
0.0
 51
90.0
  0
ARC
  5
1FE
330
1E1
100
AcDbEntity
  8
Skizziergeometrie MD
100
AcDbCircle
 10
21.5
 20
-9.000000000000003
 30
0.0
 40
5.0
100
AcDbArc
 50
270.0
 51
0.0
  0
ATTDEF
  5
200
330
1E1
100
AcDbEntity
  8
Symbol MD
100
AcDbText
 10
-3.299999352358279
 20
2.000000000000001
 30
0.0
 40
6.99999988079071
  1
100
  7
Textstil33
 72
     2
 11
10.00000000000001
 21
8.999999880790712
 31
0.0
100
AcDbAttributeDefinition
280
     0
  3
Anzugsmoment
  2
Anzugsmoment
 70
     0
 74
     3
280
     0
 71
     4
 72
     0
 11
10.00000000000001
 21
8.999999880790712
 31
0.0
101
Embedded Object
 10
10.00000000000001
 20
8.999999880790712
 30
0.0
 40
6.99999988079071
 41
0.0
 46
0.0
 71
     3
 72
     5
  1
100
  7
Textstil33
 73
     1
 44
1.0
  0
MTEXT
  5
201
330
1E1
100
AcDbEntity
  8
Symbol MD
100
AcDbMText
 10
11.5
 20
2.000000000000001
 30
0.0
 40
6.99999988079071
 41
0.0
 46
0.0
 71
     7
 72
     1
  1
\fISOCPEUR|b0|i0;\H7.0000;Nm
  7
Notiztext MD
 73
     1
 44
1.0
  0
ATTDEF
  5
203
330
1E1
100
AcDbEntity
  8
Symbol MD
100
AcDbText
 10
6.500000000000003
 20
-10.00000023841858
 30
0.0
 40
6.000000238418579
  1
243
  7
Textstil34
 11
6.500000000000003
 21
-4.000000000000003
 31
0.0
100
AcDbAttributeDefinition
280
     0
  3
Loctite
  2
Loctite
 70
     0
 74
     3
280
     0
 71
     4
 72
     0
 11
6.500000000000003
 21
-4.000000000000003
 31
0.0
101
Embedded Object
 10
6.500000000000003
 20
-4.000000000000003
 30
0.0
 40
6.000000238418579
 41
0.0
 46
0.0
 71
     1
 72
     5
  1
243
  7
Textstil34
 73
     1
 44
1.0
  0
MTEXT
  5
204
330
1E1
100
AcDbEntity
  8
Symbol MD
100
AcDbMText
 10
-22.5
 20
-4.000000000000003
 30
0.0
 40
6.000000238418579
 41
0.0
 46
0.0
 71
     1
 72
     1
  1
\fISOCPEUR|b0|i0;\H6.0000;Loctite
  7
Notiztext MD
 73
     1
 44
1.0
  0
ENDBLK
  5
1E3
330
1E1
100
AcDbEntity
  8
0
100
AcDbBlockEnd
  0
BLOCK
  5
206
330
205
100
AcDbEntity
  8
0
100
AcDbBlockBegin
  2
Text 5 Zeilen
 70
     2
 10
0.0
 20
0.0
 30
0.0
  3
Text 5 Zeilen
  1

  0
ATTDEF
  5
208
330
205
100
AcDbEntity
  8
Symbol MD
100
AcDbText
 10
-2.448051869869232
 20
10.25000002980231
 30
0.0
 40
3.499999940395355
  1
3x
  7
Notiztext MD
 11
-2.448051869869232
 21
13.74999997019767
 31
0.0
100
AcDbAttributeDefinition
280
     0
  3
Text_Zeile_1
  2
Text_Zeile_1
 70
     0
 74
     3
280
     0
 71
     4
 72
     0
 11
-2.448051869869232
 21
13.74999997019767
 31
0.0
101
Embedded Object
 10
-2.448051869869232
 20
13.74999997019767
 30
0.0
 40
3.499999940395355
 41
0.0
 46
0.0
 71
     1
 72
     5
  1
3x
  7
Notiztext MD
 73
     1
 44
1.0
  0
ATTDEF
  5
209
330
205
100
AcDbEntity
  8
Symbol MD
100
AcDbText
 10
-2.448051869869214
 20
4.250000029802318
 30
0.0
 40
3.499999940395355
  1

  7
Notiztext MD
 11
-2.448051869869214
 21
7.749999970197674
 31
0.0
100
AcDbAttributeDefinition
280
     0
  3
Text_Zeile_2
  2
Text_Zeile_2
 70
     0
 74
     3
280
     0
 71
     4
 72
     0
 11
-2.448051869869214
 21
7.749999970197674
 31
0.0
101
Embedded Object
 10
-2.448051869869214
 20
7.749999970197674
 30
0.0
 40
3.499999940395355
 41
0.0
 46
0.0
 71
     1
 72
     5
  1

  7
Notiztext MD
 73
     1
 44
1.0
  0
ATTDEF
  5
20A
330
205
100
AcDbEntity
  8
Symbol MD
100
AcDbText
 10
-2.448051869869214
 20
-1.749999970197677
 30
0.0
 40
3.499999940395355
  1

  7
Notiztext MD
 11
-2.448051869869214
 21
1.749999970197677
 31
0.0
100
AcDbAttributeDefinition
280
     0
  3
Text_Zeile_3
  2
Text_Zeile_3
 70
     0
 74
     3
280
     0
 71
     4
 72
     0
 11
-2.448051869869214
 21
1.749999970197677
 31
0.0
101
Embedded Object
 10
-2.448051869869214
 20
1.749999970197677
 30
0.0
 40
3.499999940395355
 41
0.0
 46
0.0
 71
     1
 72
     5
  1

  7
Notiztext MD
 73
     1
 44
1.0
  0
ATTDEF
  5
20B
330
205
100
AcDbEntity
  8
Symbol MD
100
AcDbText
 10
-2.448051869869214
 20
-7.749999970197674
 30
0.0
 40
3.499999940395355
  1

  7
Notiztext MD
 11
-2.448051869869214
 21
-4.250000029802318
 31
0.0
100
AcDbAttributeDefinition
280
     0
  3
Text_Zeile_4
  2
Text_Zeile_4
 70
     0
 74
     3
280
     0
 71
     4
 72
     0
 11
-2.448051869869214
 21
-4.250000029802318
 31
0.0
101
Embedded Object
 10
-2.448051869869214
 20
-4.250000029802318
 30
0.0
 40
3.499999940395355
 41
0.0
 46
0.0
 71
     1
 72
     5
  1

  7
Notiztext MD
 73
     1
 44
1.0
  0
ATTDEF
  5
20C
330
205
100
AcDbEntity
  8
Symbol MD
100
AcDbText
 10
-2.448051869869214
 20
-13.74999997019767
 30
0.0
 40
3.499999940395355
  1

  7
Notiztext MD
 11
-2.448051869869214
 21
-10.25000002980231
 31
0.0
100
AcDbAttributeDefinition
280
     0
  3
Text_Zeile_5
  2
Text_Zeile_5
 70
     0
 74
     3
280
     0
 71
     4
 72
     0
 11
-2.448051869869214
 21
-10.25000002980231
 31
0.0
101
Embedded Object
 10
-2.448051869869214
 20
-10.25000002980231
 30
0.0
 40
3.499999940395355
 41
0.0
 46
0.0
 71
     1
 72
     5
  1

  7
Notiztext MD
 73
     1
 44
1.0
  0
ENDBLK
  5
207
330
205
100
AcDbEntity
  8
0
100
AcDbBlockEnd
  0
BLOCK
  5
20E
330
20D
100
AcDbEntity
  8
0
100
AcDbBlockBegin
  2
Kopie von Text 5 Zeilen
 70
     2
 10
0.0
 20
0.0
 30
0.0
  3
Kopie von Text 5 Zeilen
  1

  0
ATTDEF
  5
210
330
20D
100
AcDbEntity
  8
Symbol MD
100
AcDbText
 10
-19.93831157684326
 20
10.25000002980231
 30
0.0
 40
3.499999940395355
  1
Passfeder
  7
Notiztext MD
 11
-19.93831157684326
 21
13.74999997019767
 31
0.0
100
AcDbAttributeDefinition
280
     0
  3
Text_Zeile_1
  2
Text_Zeile_1
 70
     0
 74
     3
280
     0
 71
     4
 72
     0
 11
-19.93831157684326
 21
13.74999997019767
 31
0.0
101
Embedded Object
 10
-19.93831157684326
 20
13.74999997019767
 30
0.0
 40
3.499999940395355
 41
0.0
 46
0.0
 71
     1
 72
     5
  1
Passfeder
  7
Notiztext MD
 73
     1
 44
1.0
  0
ATTDEF
  5
211
330
20D
100
AcDbEntity
  8
Symbol MD
100
AcDbText
 10
-19.93831157684324
 20
4.250000029802318
 30
0.0
 40
3.499999940395355
  1
feather key 
  7
Notiztext MD
 11
-19.93831157684324
 21
7.749999970197674
 31
0.0
100
AcDbAttributeDefinition
280
     0
  3
Text_Zeile_2
  2
Text_Zeile_2
 70
     0
 74
     3
280
     0
 71
     4
 72
     0
 11
-19.93831157684324
 21
7.749999970197674
 31
0.0
101
Embedded Object
 10
-19.93831157684324
 20
7.749999970197674
 30
0.0
 40
3.499999940395355
 41
0.0
 46
0.0
 71
     1
 72
     5
  1
feather key 
  7
Notiztext MD
 73
     1
 44
1.0
  0
ATTDEF
  5
212
330
20D
100
AcDbEntity
  8
Symbol MD
100
AcDbText
 10
-19.93831157684324
 20
-1.749999970197677
 30
0.0
 40
3.499999940395355
  1
DIN 6885 - 8x7x50
  7
Notiztext MD
 11
-19.93831157684324
 21
1.749999970197677
 31
0.0
100
AcDbAttributeDefinition
280
     0
  3
Text_Zeile_3
  2
Text_Zeile_3
 70
     0
 74
     3
280
     0
 71
     4
 72
     0
 11
-19.93831157684324
 21
1.749999970197677
 31
0.0
101
Embedded Object
 10
-19.93831157684324
 20
1.749999970197677
 30
0.0
 40
3.499999940395355
 41
0.0
 46
0.0
 71
     1
 72
     5
  1
DIN 6885 - 8x7x50
  7
Notiztext MD
 73
     1
 44
1.0
  0
ATTDEF
  5
213
330
20D
100
AcDbEntity
  8
Symbol MD
100
AcDbText
 10
-19.93831157684324
 20
-7.749999970197674
 30
0.0
 40
3.499999940395355
  1

  7
Notiztext MD
 11
-19.93831157684324
 21
-4.250000029802318
 31
0.0
100
AcDbAttributeDefinition
280
     0
  3
Text_Zeile_4
  2
Text_Zeile_4
 70
     0
 74
     3
280
     0
 71
     4
 72
     0
 11
-19.93831157684324
 21
-4.250000029802318
 31
0.0
101
Embedded Object
 10
-19.93831157684324
 20
-4.250000029802318
 30
0.0
 40
3.499999940395355
 41
0.0
 46
0.0
 71
     1
 72
     5
  1

  7
Notiztext MD
 73
     1
 44
1.0
  0
ATTDEF
  5
214
330
20D
100
AcDbEntity
  8
Symbol MD
100
AcDbText
 10
-19.93831157684324
 20
-13.74999997019767
 30
0.0
 40
3.499999940395355
  1

  7
Notiztext MD
 11
-19.93831157684324
 21
-10.25000002980231
 31
0.0
100
AcDbAttributeDefinition
280
     0
  3
Text_Zeile_5
  2
Text_Zeile_5
 70
     0
 74
     3
280
     0
 71
     4
 72
     0
 11
-19.93831157684324
 21
-10.25000002980231
 31
0.0
101
Embedded Object
 10
-19.93831157684324
 20
-10.25000002980231
 30
0.0
 40
3.499999940395355
 41
0.0
 46
0.0
 71
     1
 72
     5
  1

  7
Notiztext MD
 73
     1
 44
1.0
  0
ENDBLK
  5
20F
330
20D
100
AcDbEntity
  8
0
100
AcDbBlockEnd
  0
BLOCK
  5
216
330
215
100
AcDbEntity
  8
0
100
AcDbBlockBegin
  2
Zuluft
 70
     0
 10
0.0
 20
0.0
 30
0.0
  3
Zuluft
  1

  0
MTEXT
  5
218
330
215
100
AcDbEntity
  8
Symbol MD
100
AcDbMText
 10
-7.877668142318725
 20
4.502645349130034
 30
0.0
 40
3.499999940395355
 41
0.0
 46
0.0
 71
     1
 72
     1
  1
\fISOCPEUR|b0|i0;\H3.5000;Zuluft\P\fISOCPEUR|b0|i0;\H3.5000;air inlet
  7
Notiztext MD
 73
     2
 44
0.9442214965820312
  0
ENDBLK
  5
217
330
215
100
AcDbEntity
  8
0
100
AcDbBlockEnd
  0
BLOCK
  5
21A
330
219
100
AcDbEntity
  8
0
100
AcDbBlockBegin
  2
Abluft
 70
     0
 10
0.0
 20
0.0
 30
0.0
  3
Abluft
  1

  0
MTEXT
  5
21C
330
219
100
AcDbEntity
  8
Symbol MD
100
AcDbMText
 10
-11.95655465126037
 20
4.502645349130034
 30
0.0
 40
3.499999940395355
 41
0.0
 46
0.0
 71
     1
 72
     1
  1
\fISOCPEUR|b0|i0;\H3.5000;Abluft\P\fISOCPEUR|b0|i0;\H3.5000;exhaust air
  7
Notiztext MD
 73
     2
 44
0.9442214965820312
  0
ENDBLK
  5
21B
330
219
100
AcDbEntity
  8
0
100
AcDbBlockEnd
  0
ENDSEC
  0
SECTION
  2
ENTITIES
  0
LINE
  5
21D
330
70
100
AcDbEntity
  8
Sichtbar MD
100
AcDbLine
 10
522.2350530890509
 20
240.2818227659209
 30
0.0
 11
522.2350530890509
 21
216.3026651493571
 31
0.0
  0
SPLINE
  5
21E
330
70
100
AcDbEntity
  8
Sichtbar MD
100
AcDbSpline
210
0.0
220
0.0
230
1.0
 70
    12
 71
     2
 72
     6
 73
     3
 74
     0
 42
0.000000001
 43
0.0000000001
 40
0.0
 40
0.0
 40
0.0
 40
0.0828004736235522
 40
0.0828004736235522
 40
0.0828004736235522
 10
507.2350530890509
 20
239.5100868875432
 30
0.0
 41
1.0
 10
507.3800650131215
 20
239.8940157918618
 30
0.0
 41
1.00008356283839
 10
507.5350530890509
 20
240.2818227659208
 30
0.0
 41
1.0
  0
SPLINE
  5
21F
330
70
100
AcDbEntity
  8
Sichtbar MD
100
AcDbSpline
210
0.0
220
0.0
230
1.0
 70
    12
 71
     2
 72
     6
 73
     3
 74
     0
 42
0.000000001
 43
0.0000000001
 40
0.0
 40
0.0
 40
0.0
 40
0.0828004736235522
 40
0.0828004736235522
 40
0.0828004736235522
 10
507.5350530890509
 20
216.3026651493572
 30
0.0
 41
1.0
 10
507.3800650131215
 20
216.6904721234163
 30
0.0
 41
1.00008356283839
 10
507.2350530890509
 20
217.0744010277349
 30
0.0
 41
1.0
  0
LINE
  5
220
330
70
100
AcDbEntity
  8
Sichtbar MD
100
AcDbLine
 10
522.2350530890509
 20
216.3026651493571
 30
0.0
 11
507.5350530890509
 21
216.3026651493572
 31
0.0
  0
LINE
  5
221
330
70
100
AcDbEntity
  8
Sichtbar MD
100
AcDbLine
 10
507.5350530890509
 20
240.2818227659208
 30
0.0
 11
522.2350530890509
 21
240.2818227659209
 31
0.0
  0
LINE
  5
222
330
70
100
AcDbEntity
  8
Sichtbar MD
100
AcDbLine
 10
507.2350530890509
 20
239.5100868875431
 30
0.0
 11
507.2350530890509
 21
217.0744010277349
 31
0.0
  0
LINE
  5
223
330
70
100
AcDbEntity
  8
Sichtbar MD
100
AcDbLine
 10
522.2350530890509
 20
198.292243957639
 30
0.0
 11
522.2350530890509
 21
216.3026651493572
 31
0.0
  0
LINE
  5
224
330
70
100
AcDbEntity
  8
Sichtbar MD
100
AcDbLine
 10
522.2350530890509
 20
240.2818227659209
 30
0.0
 11
522.2350530890509
 21
258.292243957639
 31
0.0
  0
LINE
  5
225
330
70
100
AcDbEntity
  8
Sichtbar MD
100
AcDbLine
 10
481.2350530890509
 20
198.292243957639
 30
0.0
 11
481.2350530890509
 21
258.292243957639
 31
0.0
  0
LINE
  5
226
330
70
100
AcDbEntity
  8
Sichtbar MD
100
AcDbLine
 10
507.5350530890509
 20
258.292243957639
 30
0.0
 11
522.2350530890509
 21
258.292243957639
 31
0.0
  0
LINE
  5
227
330
70
100
AcDbEntity
  8
Sichtbar MD
100
AcDbLine
 10
507.5350530890509
 20
198.292243957639
 30
0.0
 11
522.2350530890509
 21
198.292243957639
 31
0.0
  0
LINE
  5
228
330
70
100
AcDbEntity
  8
Sichtbar MD
100
AcDbLine
 10
481.2350530890509
 20
258.292243957639
 30
0.0
 11
506.9350530890509
 21
258.292243957639
 31
0.0
  0
LINE
  5
229
330
70
100
AcDbEntity
  8
Sichtbar MD
100
AcDbLine
 10
481.2350530890509
 20
198.292243957639
 30
0.0
 11
506.9350530890509
 21
198.292243957639
 31
0.0
  0
LINE
  5
22A
330
70
100
AcDbEntity
  8
Sichtbar MD
100
AcDbLine
 10
507.5350530890509
 20
240.2818227659208
 30
0.0
 11
507.5350530890509
 21
258.292243957639
 31
0.0
  0
LINE
  5
22B
330
70
100
AcDbEntity
  8
Sichtbar MD
100
AcDbLine
 10
507.5350530890509
 20
198.292243957639
 30
0.0
 11
507.5350530890509
 21
216.3026651493572
 31
0.0
  0
LINE
  5
22C
330
70
100
AcDbEntity
  8
Sichtbar MD
100
AcDbLine
 10
507.2350530890509
 20
257.992243957639
 30
0.0
 11
507.2350530890509
 21
239.5100868875431
 31
0.0
  0
LINE
  5
22D
330
70
100
AcDbEntity
  8
Sichtbar MD
100
AcDbLine
 10
507.2350530890509
 20
217.0744010277349
 30
0.0
 11
507.2350530890509
 21
198.592243957639
 31
0.0
  0
LINE
  5
22E
330
70
100
AcDbEntity
  8
Sichtbar MD
100
AcDbLine
 10
506.9350530890509
 20
258.292243957639
 30
0.0
 11
506.9350530890509
 21
198.292243957639
 31
0.0
  0
LINE
  5
22F
330
70
100
AcDbEntity
  8
Sichtbar MD
100
AcDbLine
 10
507.2350530890509
 20
257.992243957639
 30
0.0
 11
507.5350530890509
 21
258.292243957639
 31
0.0
  0
LINE
  5
230
330
70
100
AcDbEntity
  8
Sichtbar MD
100
AcDbLine
 10
507.2350530890509
 20
198.592243957639
 30
0.0
 11
507.5350530890509
 21
198.292243957639
 31
0.0
  0
LINE
  5
231
330
70
100
AcDbEntity
  8
Sichtbar MD
100
AcDbLine
 10
507.2350530890509
 20
198.592243957639
 30
0.0
 11
506.9350530890509
 21
198.292243957639
 31
0.0
  0
LINE
  5
232
330
70
100
AcDbEntity
  8
Sichtbar MD
100
AcDbLine
 10
507.2350530890509
 20
257.992243957639
 30
0.0
 11
506.9350530890509
 21
258.292243957639
 31
0.0
  0
SPLINE
  5
233
330
70
100
AcDbEntity
  8
Sichtbar MD
100
AcDbSpline
210
0.0
220
0.0
230
1.0
 70
    11
 71
     3
 72
    38
 73
    34
 74
     0
 42
0.000000001
 43
0.0000000001
 40
0.0
 40
0.0
 40
0.0
 40
0.0
 40
0.1036514201262903
 40
0.1036514201262903
 40
0.2073028402525807
 40
0.2073028402525807
 40
0.3109540116488627
 40
0.3109540116488627
 40
0.4146051830451448
 40
0.4146051830451448
 40
0.5182563544414269
 40
0.5182563544414269
 40
0.6219075258377089
 40
0.6219075258377089
 40
0.7255589459639993
 40
0.7255589459639993
 40
0.8292103660902895
 40
0.8292103660902895
 40
0.9328617862165799
 40
0.9328617862165799
 40
1.03651320634287
 40
1.03651320634287
 40
1.140164377739152
 40
1.140164377739152
 40
1.243815549135434
 40
1.243815549135434
 40
1.347466720531716
 40
1.347466720531716
 40
1.451117891927998
 40
1.451117891927998
 40
1.554769312054288
 40
1.554769312054288
 40
1.658420732180579
 40
1.658420732180579
 40
1.658420732180579
 40
1.658420732180579
 10
389.7350530890509
 20
203.7958673997517
 30
0.0
 10
390.0805578228052
 20
203.7958673997517
 30
0.0
 10
390.4489590173283
 20
203.7555972929978
 30
0.0
 10
391.1264444630999
 20
203.5945822120248
 30
0.0
 10
391.4355452818176
 20
203.4741429731049
 30
0.0
 10
391.9236476071654
 20
203.2026348668364
 30
0.0
 10
392.1352562692937
 20
203.0334760667782
 30
0.0
 10
392.415964365622
 20
202.6741332186438
 30
0.0
 10
392.4850530890509
 20
202.484233796433
 30
0.0
 10
392.4850530890509
 20
202.1387298917787
 30
0.0
 10
392.415964365622
 20
201.9602278212823
 30
0.0
 10
392.1352562692937
 20
201.6420843647361
 30
0.0
 10
391.9236476071654
 20
201.5021420884249
 30
0.0
 10
391.4355452818176
 20
201.2855478693456
 30
0.0
 10
391.1264444630999
 20
201.1943789019899
 30
0.0
 10
390.4489590173283
 20
201.0746862302974
 30
0.0
 10
390.0805578228052
 20
201.0458673997518
 30
0.0
 10
389.3895483552966
 20
201.0458673997518
 30
0.0
 10
389.0211471607736
 20
201.0746862302974
 30
0.0
 10
388.343661715002
 20
201.1943789019899
 30
0.0
 10
388.0345608962842
 20
201.2855478693456
 30
0.0
 10
387.5464585709364
 20
201.5021420884249
 30
0.0
 10
387.3348499088081
 20
201.6420843647361
 30
0.0
 10
387.0541418124799
 20
201.9602278212823
 30
0.0
 10
386.9850530890509
 20
202.1387298917787
 30
0.0
 10
386.9850530890509
 20
202.484233796433
 30
0.0
 10
387.0541418124799
 20
202.6741332186438
 30
0.0
 10
387.3348499088081
 20
203.0334760667782
 30
0.0
 10
387.5464585709364
 20
203.2026348668364
 30
0.0
 10
388.0345608962842
 20
203.4741429731049
 30
0.0
 10
388.343661715002
 20
203.5945822120248
 30
0.0
 10
389.0211471607736
 20
203.7555972929978
 30
0.0
 10
389.3895483552966
 20
203.7958673997517
 30
0.0
 10
389.7350530890509
 20
203.7958673997517
 30
0.0
  0
LINE
  5
234
330
70
100
AcDbEntity
  8
Sichtbar MD
100
AcDbLine
 10
403.2350530890509
 20
234.0696345980879
 30
0.0
 11
403.2350530890509
 21
250.0148533171901
 31
0.0
  0
SPLINE
  5
235
330
70
100
AcDbEntity
  8
Sichtbar MD
100
AcDbSpline
210
0.0
220
0.0
230
1.0
 70
    12
 71
     2
 72
     6
 73
     3
 74
     0
 42
0.000000001
 43
0.0000000001
 40
0.0
 40
0.0
 40
0.0
 40
0.2958266984603723
 40
0.2958266984603723
 40
0.2958266984603723
 10
402.2350530890509
 20
252.4255237862866
 30
0.0
 41
1.0
 10
402.8007178586618
 20
251.1997591409833
 30
0.0
 41
1.0011148236779
 10
403.2350530890509
 20
250.01485331719
 30
0.0
 41
1.0
  0
LINE
  5
236
330
70
100
AcDbEntity
  8
Sichtbar MD
100
AcDbLine
 10
386.2350530890509
 20
252.4255237862866
 30
0.0
 11
402.2350530890509
 21
252.4255237862866
 31
0.0
  0
SPLINE
  5
237
330
70
100
AcDbEntity
  8
Sichtbar MD
100
AcDbSpline
210
0.0
220
0.0
230
1.0
 70
    12
 71
     2
 72
     6
 73
     3
 74
     0
 42
0.000000001
 43
0.0000000001
 40
0.0
 40
0.0
 40
0.0
 40
0.295826698460376
 40
0.295826698460376
 40
0.295826698460376
 10
385.235053089051
 20
250.01485331719
 30
0.0
 41
1.0
 10
385.66938831944
 20
251.1997591409834
 30
0.0
 41
1.001114823676812
 10
386.2350530890509
 20
252.4255237862866
 30
0.0
 41
1.0
  0
SPLINE
  5
238
330
70
100
AcDbEntity
  8
Sichtbar MD
100
AcDbSpline
210
0.0
220
0.0
230
1.0
 70
    12
 71
     2
 72
     6
 73
     3
 74
     0
 42
0.000000001
 43
0.0000000001
 40
0.0
 40
0.0
 40
0.0
 40
0.2958266984603761
 40
0.2958266984603761
 40
0.2958266984603761
 10
386.2350530890509
 20
231.6589641289913
 30
0.0
 41
1.0
 10
385.66938831944
 20
232.8847287742945
 30
0.0
 41
1.001114823676551
 10
385.235053089051
 20
234.069634598088
 30
0.0
 41
1.0
  0
LINE
  5
239
330
70
100
AcDbEntity
  8
Sichtbar MD
100
AcDbLine
 10
402.2350530890509
 20
231.6589641289914
 30
0.0
 11
386.2350530890509
 21
231.6589641289914
 31
0.0
  0
SPLINE
  5
23A
330
70
100
AcDbEntity
  8
Sichtbar MD
100
AcDbSpline
210
0.0
220
0.0
230
1.0
 70
    12
 71
     2
 72
     6
 73
     3
 74
     0
 42
0.000000001
 43
0.0000000001
 40
0.0
 40
0.0
 40
0.0
 40
0.2958266984603726
 40
0.2958266984603726
 40
0.2958266984603726
 10
403.2350530890509
 20
234.069634598088
 30
0.0
 41
1.0
 10
402.8007178586619
 20
232.8847287742948
 30
0.0
 41
1.001114823677941
 10
402.2350530890509
 20
231.6589641289914
 30
0.0
 41
1.0
  0
LINE
  5
23B
330
70
100
AcDbEntity
  8
Sichtbar MD
100
AcDbLine
 10
385.235053089051
 20
234.0696345980879
 30
0.0
 11
385.235053089051
 21
250.0148533171901
 31
0.0
  0
LINE
  5
23C
330
70
100
AcDbEntity
  8
Sichtbar MD
100
AcDbLine
 10
402.2350530890509
 20
198.292243957639
 30
0.0
 11
402.2350530890509
 21
231.6589641289914
 31
0.0
  0
LINE
  5
23D
330
70
100
AcDbEntity
  8
Sichtbar MD
100
AcDbLine
 10
403.2350530890509
 20
199.292243957639
 30
0.0
 11
403.2350530890509
 21
234.0696345980879
 31
0.0
  0
LINE
  5
23E
330
70
100
AcDbEntity
  8
Sichtbar MD
100
AcDbLine
 10
403.2350530890509
 20
250.0148533171901
 30
0.0
 11
403.2350530890509
 21
257.292243957639
 31
0.0
  0
LINE
  5
23F
330
70
100
AcDbEntity
  8
Sichtbar MD
100
AcDbLine
 10
402.2350530890509
 20
252.4255237862866
 30
0.0
 11
402.2350530890509
 21
258.292243957639
 31
0.0
  0
LINE
  5
240
330
70
100
AcDbEntity
  8
Sichtbar MD
100
AcDbLine
 10
386.2350530890509
 20
198.292243957639
 30
0.0
 11
386.2350530890509
 21
231.6589641289914
 31
0.0
  0
LINE
  5
241
330
70
100
AcDbEntity
  8
Sichtbar MD
100
AcDbLine
 10
385.235053089051
 20
199.292243957639
 30
0.0
 11
385.235053089051
 21
234.0696345980879
 31
0.0
  0
LINE
  5
242
330
70
100
AcDbEntity
  8
Sichtbar MD
100
AcDbLine
 10
423.7350530890509
 20
198.292243957639
 30
0.0
 11
423.7350530890509
 21
258.292243957639
 31
0.0
  0
LINE
  5
243
330
70
100
AcDbEntity
  8
Sichtbar MD
100
AcDbLine
 10
384.2350530890509
 20
198.292243957639
 30
0.0
 11
384.2350530890509
 21
258.292243957639
 31
0.0
  0
LINE
  5
244
330
70
100
AcDbEntity
  8
Sichtbar MD
100
AcDbLine
 10
385.235053089051
 20
250.0148533171901
 30
0.0
 11
385.235053089051
 21
257.292243957639
 31
0.0
  0
LINE
  5
245
330
70
100
AcDbEntity
  8
Sichtbar MD
100
AcDbLine
 10
386.2350530890509
 20
252.4255237862866
 30
0.0
 11
386.2350530890509
 21
258.292243957639
 31
0.0
  0
LINE
  5
246
330
70
100
AcDbEntity
  8
Sichtbar MD
100
AcDbLine
 10
404.2350530890509
 20
198.292243957639
 30
0.0
 11
404.2350530890509
 21
258.2922439576389
 31
0.0
  0
LINE
  5
247
330
70
100
AcDbEntity
  8
Sichtbar MD
100
AcDbLine
 10
403.2350530890509
 20
199.292243957639
 30
0.0
 11
402.2350530890509
 21
198.292243957639
 31
0.0
  0
LINE
  5
248
330
70
100
AcDbEntity
  8
Sichtbar MD
100
AcDbLine
 10
403.2350530890509
 20
257.292243957639
 30
0.0
 11
402.2350530890509
 21
258.292243957639
 31
0.0
  0
LINE
  5
249
330
70
100
AcDbEntity
  8
Sichtbar MD
100
AcDbLine
 10
386.2350530890509
 20
198.292243957639
 30
0.0
 11
402.2350530890509
 21
198.292243957639
 31
0.0
  0
LINE
  5
24A
330
70
100
AcDbEntity
  8
Sichtbar MD
100
AcDbLine
 10
385.235053089051
 20
199.292243957639
 30
0.0
 11
386.2350530890509
 21
198.292243957639
 31
0.0
  0
LINE
  5
24B
330
70
100
AcDbEntity
  8
Sichtbar MD
100
AcDbLine
 10
356.235053089051
 20
258.292243957639
 30
0.0
 11
384.2350530890509
 21
258.292243957639
 31
0.0
  0
LINE
  5
24C
330
70
100
AcDbEntity
  8
Sichtbar MD
100
AcDbLine
 10
356.235053089051
 20
198.292243957639
 30
0.0
 11
384.2350530890509
 21
198.292243957639
 31
0.0
  0
LINE
  5
24D
330
70
100
AcDbEntity
  8
Sichtbar MD
100
AcDbLine
 10
385.235053089051
 20
199.292243957639
 30
0.0
 11
384.2350530890509
 21
198.292243957639
 31
0.0
  0
LINE
  5
24E
330
70
100
AcDbEntity
  8
Sichtbar MD
100
AcDbLine
 10
385.235053089051
 20
257.292243957639
 30
0.0
 11
384.2350530890509
 21
258.292243957639
 31
0.0
  0
LINE
  5
24F
330
70
100
AcDbEntity
  8
Sichtbar MD
100
AcDbLine
 10
385.235053089051
 20
257.292243957639
 30
0.0
 11
386.2350530890509
 21
258.292243957639
 31
0.0
  0
LINE
  5
250
330
70
100
AcDbEntity
  8
Sichtbar MD
100
AcDbLine
 10
386.2350530890509
 20
258.292243957639
 30
0.0
 11
402.2350530890509
 21
258.292243957639
 31
0.0
  0
LINE
  5
251
330
70
100
AcDbEntity
  8
Sichtbar MD
100
AcDbLine
 10
403.2350530890509
 20
257.292243957639
 30
0.0
 11
404.2350530890509
 21
258.292243957639
 31
0.0
  0
LINE
  5
252
330
70
100
AcDbEntity
  8
Sichtbar MD
100
AcDbLine
 10
403.2350530890509
 20
199.292243957639
 30
0.0
 11
404.2350530890509
 21
198.292243957639
 31
0.0
  0
LINE
  5
253
330
70
100
AcDbEntity
  8
Sichtbar MD
100
AcDbLine
 10
404.2350530890509
 20
258.292243957639
 30
0.0
 11
423.7350530890509
 21
258.292243957639
 31
0.0
  0
LINE
  5
254
330
70
100
AcDbEntity
  8
Sichtbar MD
100
AcDbLine
 10
404.2350530890509
 20
198.292243957639
 30
0.0
 11
423.7350530890509
 21
198.292243957639
 31
0.0
  0
ELLIPSE
  5
255
330
70
100
AcDbEntity
  8
Sichtbar MD
100
AcDbEllipse
 10
389.7350530890509
 20
203.1775072478903
 30
0.0
 11
-0.7749999999999991
 21
0.0000000000000403
 31
0.0
210
0.0
220
0.0
230
1.0
 40
0.499999999999999
 41
0.0
 42
6.283185307179585
  0
ELLIPSE
  5
256
330
70
100
AcDbEntity
  8
Sichtbar MD
100
AcDbEllipse
 10
389.7350530890509
 20
202.7444945459981
 30
0.0
 11
-1.899999999999997
 21
0.0000000000000989
 31
0.0
210
0.0
220
0.0
230
1.0
 40
0.4999999999999987
 41
0.0
 42
6.283185307179585
  0
SPLINE
  5
257
330
70
100
AcDbEntity
  8
Sichtbar MD
100
AcDbSpline
210
0.0
220
0.0
230
1.0
 70
     8
 71
     3
 72
    26
 73
    22
 74
     0
 42
0.000000001
 43
0.0000000001
 40
5.522926641870739
 40
5.522926641870739
 40
5.522926641870739
 40
5.522926641870739
 40
5.809325820982548
 40
5.809325820982548
 40
6.119453219582689
 40
6.119453219582689
 40
6.448020972049924
 40
6.448020972049924
 40
6.775847051182841
 40
6.775847051182841
 40
7.101504413838865
 40
7.101504413838865
 40
7.426465831015605
 40
7.426465831015605
 40
7.752190915778045
 40
7.752190915778045
 40
8.080120078102453
 40
8.080120078102453
 40
8.408509416968906
 40
8.408509416968906
 40
8.664519295460532
 40
8.664519295460532
 40
8.664519295460532
 40
8.664519295460532
 10
392.2350530890509
 20
202.8310970863766
 30
0.0
 10
392.2350530890509
 20
202.6974441361244
 30
0.0
 10
392.1960039225845
 20
202.5645138926284
 30
0.0
 10
392.0449050040392
 20
202.3079753098851
 30
0.0
 10
391.927775221337
 20
202.1853681533504
 30
0.0
 10
391.6231216446624
 20
201.9610446924466
 30
0.0
 10
391.4314998685467
 20
201.8608420231792
 30
0.0
 10
390.9980477140323
 20
201.6975509352214
 30
0.0
 10
390.7563450815284
 20
201.634483624213
 30
0.0
 10
390.2481526397571
 20
201.5508774012348
 30
0.0
 10
389.9819345626834
 20
201.5300994312993
 30
0.0
 10
389.4506112402488
 20
201.5321667046759
 30
0.0
 10
389.1856087483283
 20
201.5549172748152
 30
0.0
 10
388.6819957841585
 20
201.6419396866216
 30
0.0
 10
388.4435425594658
 20
201.7062664787887
 30
0.0
 10
388.0158184409897
 20
201.871721493638
 30
0.0
 10
387.8268985861183
 20
201.9729913536596
 30
0.0
 10
387.5189816835011
 20
202.2057418450855
 30
0.0
 10
387.3997196462206
 20
202.3375093260814
 30
0.0
 10
387.2661788856715
 20
202.5925980477678
 30
0.0
 10
387.2350530890509
 20
202.7116258097471
 30
0.0
 10
387.2350530890509
 20
202.8310970863766
 30
0.0
  0
LINE
  5
258
330
70
100
AcDbEntity
  8
Sichtbar MD
100
AcDbLine
 10
387.2350530890509
 20
202.8310970863766
 30
0.0
 11
387.2350530890509
 21
202.903255023502
 31
0.0
  0
LINE
  5
259
330
70
100
AcDbEntity
  8
Sichtbar MD
100
AcDbLine
 10
392.2350530890509
 20
202.8310970863766
 30
0.0
 11
392.2350530890509
 21
202.903255023502
 31
0.0
  0
ARC
  5
25A
330
70
100
AcDbEntity
  8
Sichtbar MD
100
AcDbCircle
 10
389.7350530890509
 20
203.7837250305394
 30
0.0
 40
0.7999999999999991
100
AcDbArc
 50
211.7291182261238
 51
328.2708817738714
  0
CIRCLE
  5
25B
330
70
100
AcDbEntity
  8
Sichtbar MD
100
AcDbCircle
 10
309.7350530890509
 20
228.2922439576391
 30
0.0
 40
0.7749999999999997
  0
CIRCLE
  5
25C
330
70
100
AcDbEntity
  8
Sichtbar MD
100
AcDbCircle
 10
309.7350530890509
 20
228.2922439576391
 30
0.0
 40
1.899999999999999
  0
CIRCLE
  5
25D
330
70
100
AcDbEntity
  8
Sichtbar MD
100
AcDbCircle
 10
309.7350530890509
 20
228.2922439576391
 30
0.0
 40
2.499999999999998
  0
SPLINE
  5
25E
330
70
100
AcDbEntity
  8
Sichtbar MD
100
AcDbSpline
210
0.0
220
0.0
230
1.0
 70
    11
 71
     3
 72
    38
 73
    34
 74
     0
 42
0.000000001
 43
0.0000000001
 40
0.0
 40
0.0
 40
0.0
 40
0.0
 40
0.103621449201567
 40
0.103621449201567
 40
0.207242898403134
 40
0.207242898403134
 40
0.31086427995556
 40
0.31086427995556
 40
0.414485661507986
 40
0.414485661507986
 40
0.5181070430604119
 40
0.5181070430604119
 40
0.6217284246128379
 40
0.6217284246128379
 40
0.7253498738144049
 40
0.7253498738144049
 40
0.8289713230159719
 40
0.8289713230159719
 40
0.9325927722175393
 40
0.9325927722175393
 40
1.036214221419106
 40
1.036214221419106
 40
1.139835602971532
 40
1.139835602971532
 40
1.243456984523958
 40
1.243456984523958
 40
1.347078366076383
 40
1.347078366076383
 40
1.450699747628809
 40
1.450699747628809
 40
1.554321196830376
 40
1.554321196830376
 40
1.657942646031944
 40
1.657942646031944
 40
1.657942646031944
 40
1.657942646031944
 10
309.7350530890509
 20
225.5422439576391
 30
0.0
 10
309.3896482583791
 20
225.5422439576391
 30
0.0
 10
309.0212897653408
 20
225.6112939202946
 30
0.0
 10
308.3437765839414
 20
225.891972948908
 30
0.0
 10
308.0346132966294
 20
226.1035964535346
 30
0.0
 10
307.5464057443094
 20
226.5918040058547
 30
0.0
 10
307.3347821175457
 20
226.9009673643926
 30
0.0
 10
307.0541029913872
 20
227.5784807778094
 30
0.0
 10
306.985053089051
 20
227.9468393524644
 30
0.0
 10
306.985053089051
 20
228.6376485628139
 30
0.0
 10
307.0541029913872
 20
229.0060071374688
 30
0.0
 10
307.3347821175457
 20
229.6835205508857
 30
0.0
 10
307.5464057443094
 20
229.9926839094235
 30
0.0
 10
308.0346132966294
 20
230.4808914617436
 30
0.0
 10
308.3437765839414
 20
230.6925149663702
 30
0.0
 10
309.0212897653408
 20
230.9731939949837
 30
0.0
 10
309.3896482583791
 20
231.0422439576391
 30
0.0
 10
310.0804579197228
 20
231.0422439576391
 30
0.0
 10
310.4488164127611
 20
230.9731939949837
 30
0.0
 10
311.1263295941606
 20
230.6925149663702
 30
0.0
 10
311.4354928814724
 20
230.4808914617436
 30
0.0
 10
311.9237004337926
 20
229.9926839094235
 30
0.0
 10
312.1353240605562
 20
229.6835205508857
 30
0.0
 10
312.4160031867148
 20
229.0060071374688
 30
0.0
 10
312.485053089051
 20
228.6376485628139
 30
0.0
 10
312.485053089051
 20
227.9468393524644
 30
0.0
 10
312.4160031867148
 20
227.5784807778094
 30
0.0
 10
312.1353240605562
 20
226.9009673643926
 30
0.0
 10
311.9237004337926
 20
226.5918040058547
 30
0.0
 10
311.4354928814724
 20
226.1035964535346
 30
0.0
 10
311.1263295941606
 20
225.891972948908
 30
0.0
 10
310.4488164127611
 20
225.6112939202946
 30
0.0
 10
310.0804579197228
 20
225.5422439576391
 30
0.0
 10
309.7350530890509
 20
225.5422439576391
 30
0.0
  0
LINE
  5
25F
330
70
100
AcDbEntity
  8
Sichtbar MD
100
AcDbLine
 10
281.7350530890509
 20
210.515855123008
 30
0.0
 11
281.7350530890509
 21
246.0686327922703
 31
0.0
  0
LINE
  5
260
330
70
100
AcDbEntity
  8
Sichtbar MD
100
AcDbLine
 10
266.735053089051
 20
246.0686327922703
 30
0.0
 11
281.735053089051
 21
246.0686327922703
 31
0.0
  0
LINE
  5
261
330
70
100
AcDbEntity
  8
Sichtbar MD
100
AcDbLine
 10
266.735053089051
 20
210.515855123008
 30
0.0
 11
266.735053089051
 21
246.0686327922703
 31
0.0
  0
LINE
  5
262
330
70
100
AcDbEntity
  8
Sichtbar MD
100
AcDbLine
 10
281.7350530890509
 20
210.515855123008
 30
0.0
 11
266.735053089051
 21
210.515855123008
 31
0.0
  0
LINE
  5
263
330
70
100
AcDbEntity
  8
Sichtbar MD
100
AcDbLine
 10
266.735053089051
 20
246.0686327922703
 30
0.0
 11
266.735053089051
 21
269.792243957639
 31
0.0
  0
LINE
  5
264
330
70
100
AcDbEntity
  8
Sichtbar MD
100
AcDbLine
 10
266.7350530890509
 20
186.7922439576392
 30
0.0
 11
266.735053089051
 21
210.515855123008
 31
0.0
  0
LINE
  5
265
330
70
100
AcDbEntity
  8
Sichtbar MD
100
AcDbLine
 10
315.735053089051
 20
186.7922439576392
 30
0.0
 11
315.735053089051
 21
269.792243957639
 31
0.0
  0
LINE
  5
266
330
70
100
AcDbEntity
  8
Sichtbar MD
100
AcDbLine
 10
266.735053089051
 20
269.792243957639
 30
0.0
 11
315.735053089051
 21
269.792243957639
 31
0.0
  0
LINE
  5
267
330
70
100
AcDbEntity
  8
Sichtbar MD
100
AcDbLine
 10
266.7350530890509
 20
186.7922439576392
 30
0.0
 11
315.735053089051
 21
186.7922439576392
 31
0.0
  0
LINE
  5
268
330
70
100
AcDbEntity
  8
Sichtbar MD
100
AcDbLine
 10
315.735053089051
 20
262.381243957639
 30
0.0
 11
316.2350530890511
 21
262.381243957639
 31
0.0
  0
LINE
  5
269
330
70
100
AcDbEntity
  8
Sichtbar MD
100
AcDbLine
 10
315.7350530890509
 20
194.2032439576392
 30
0.0
 11
316.2350530890509
 21
194.2032439576392
 31
0.0
  0
LINE
  5
26A
330
70
100
AcDbEntity
  8
Sichtbar MD
100
AcDbLine
 10
204.7350530890509
 20
216.292243957639
 30
0.0
 11
204.7350530890509
 21
240.2922439576391
 31
0.0
  0
LINE
  5
26B
330
70
100
AcDbEntity
  8
Sichtbar MD
100
AcDbLine
 10
264.7350530890509
 20
213.292243957639
 30
0.0
 11
264.7350530890509
 21
243.292243957639
 31
0.0
  0
LINE
  5
26C
330
70
100
AcDbEntity
  8
Sichtbar MD
100
AcDbLine
 10
206.7350530890509
 20
214.292243957639
 30
0.0
 11
206.7350530890509
 21
242.2922439576391
 31
0.0
  0
LINE
  5
26D
330
70
100
AcDbEntity
  8
Sichtbar MD
100
AcDbLine
 10
264.7350530890508
 20
243.292243957639
 30
0.0
 11
266.735053089051
 21
243.292243957639
 31
0.0
  0
LINE
  5
26E
330
70
100
AcDbEntity
  8
Sichtbar MD
100
AcDbLine
 10
264.7350530890508
 20
213.292243957639
 30
0.0
 11
266.735053089051
 21
213.292243957639
 31
0.0
  0
LINE
  5
26F
330
70
100
AcDbEntity
  8
Sichtbar MD
100
AcDbLine
 10
204.7350530890509
 20
240.292243957639
 30
0.0
 11
206.7350530890509
 21
242.2922439576391
 31
0.0
  0
LINE
  5
270
330
70
100
AcDbEntity
  8
Sichtbar MD
100
AcDbLine
 10
204.7350530890509
 20
216.292243957639
 30
0.0
 11
206.7350530890509
 21
214.292243957639
 31
0.0
  0
LINE
  5
271
330
70
100
AcDbEntity
  8
Sichtbar MD
100
AcDbLine
 10
206.7350530890509
 20
242.2922439576391
 30
0.0
 11
209.7350530890509
 21
242.2922439576391
 31
0.0
  0
LINE
  5
272
330
70
100
AcDbEntity
  8
Sichtbar MD
100
AcDbLine
 10
259.7350530890509
 20
242.2922439576391
 30
0.0
 11
264.7350530890509
 21
242.2922439576391
 31
0.0
  0
LINE
  5
273
330
70
100
AcDbEntity
  8
Sichtbar MD
100
AcDbLine
 10
206.7350530890509
 20
214.292243957639
 30
0.0
 11
264.7350530890509
 21
214.292243957639
 31
0.0
  0
SPLINE
  5
274
330
70
100
AcDbEntity
  8
Sichtbar MD
100
AcDbSpline
210
0.0
220
0.0
230
1.0
 70
     8
 71
     3
 72
    14
 73
    10
 74
     0
 42
0.000000001
 43
0.0000000001
 40
0.6063603518535991
 40
0.6063603518535991
 40
0.6063603518587362
 40
0.6063603518587362
 40
0.7579320151051512
 40
0.7579320151051512
 40
0.9095036783567033
 40
0.9095036783567033
 40
1.06111219103195
 40
1.06111219103195
 40
1.212720703707198
 40
1.212720703707198
 40
1.212720703707198
 40
1.212720703707198
 10
259.7350530890509
 20
242.2922439576391
 30
0.0
 10
259.735053089044
 20
242.292243957637
 30
0.0
 10
259.6335072167022
 20
242.2621777902888
 30
0.0
 10
259.2244035698496
 20
242.1535813308224
 30
0.0
 10
258.9169970273574
 20
242.0764781089243
 30
0.0
 10
258.2098774548128
 20
241.9306104787707
 30
0.0
 10
257.7619941447548
 20
241.8520839114435
 30
0.0
 10
256.7773952125413
 20
241.7401899040911
 30
0.0
 10
256.2404147979683
 20
241.7086518226378
 30
0.0
 10
255.7350530890509
 20
241.7086518226378
 30
0.0
  0
LINE
  5
275
330
70
100
AcDbEntity
  8
Sichtbar MD
100
AcDbLine
 10
255.7350530890509
 20
241.7086518226378
 30
0.0
 11
213.7350530890509
 21
241.7086518226378
 31
0.0
  0
SPLINE
  5
276
330
70
100
AcDbEntity
  8
Sichtbar MD
100
AcDbSpline
210
0.0
220
0.0
230
1.0
 70
     8
 71
     3
 72
    14
 73
    10
 74
     0
 42
0.000000001
 43
0.0000000001
 40
-1.212720703707198
 40
-1.212720703707198
 40
-1.212720703707198
 40
-1.212720703707198
 40
-1.061112191031951
 40
-1.061112191031951
 40
-0.9095036783567039
 40
-0.9095036783567039
 40
-0.7579320151051517
 40
-0.7579320151051517
 40
-0.6063603518535992
 40
-0.6063603518535992
 40
-0.606360351853599
 40
-0.606360351853599
 10
213.7350530890509
 20
241.7086518226378
 30
0.0
 10
213.2296913801334
 20
241.7086518226378
 30
0.0
 10
212.6927109655604
 20
241.7401899040911
 30
0.0
 10
211.708112033347
 20
241.8520839114435
 30
0.0
 10
211.2602287232889
 20
241.9306104787707
 30
0.0
 10
210.5531091507444
 20
242.0764781089243
 30
0.0
 10
210.2457026082522
 20
242.1535813308224
 30
0.0
 10
209.8365989613926
 20
242.2621777902906
 30
0.0
 10
209.7350530890509
 20
242.2922439576391
 30
0.0
 10
209.7350530890509
 20
242.2922439576391
 30
0.0
  0
SPLINE
  5
277
330
70
100
AcDbEntity
  8
Sichtbar MD
100
AcDbSpline
210
0.0
220
0.0
230
1.0
 70
    12
 71
     2
 72
     6
 73
     3
 74
     0
 42
0.000000001
 43
0.0000000001
 40
0.0
 40
0.0
 40
0.0
 40
0.0828004736235526
 40
0.0828004736235526
 40
0.0828004736235526
 10
456.2350530890509
 20
239.5100868875432
 30
0.0
 41
1.0
 10
456.3800650131213
 20
239.8940157918614
 30
0.0
 41
1.000083562832799
 10
456.5350530890509
 20
240.2818227659208
 30
0.0
 41
1.0
  0
SPLINE
  5
278
330
70
100
AcDbEntity
  8
Sichtbar MD
100
AcDbSpline
210
0.0
220
0.0
230
1.0
 70
    12
 71
     2
 72
     6
 73
     3
 74
     0
 42
0.000000001
 43
0.0000000001
 40
0.0
 40
0.0
 40
0.0
 40
0.0828004736235526
 40
0.0828004736235526
 40
0.0828004736235526
 10
456.5350530890509
 20
216.3026651493572
 30
0.0
 41
1.0
 10
456.3800650131213
 20
216.6904721234166
 30
0.0
 41
1.000083562832799
 10
456.2350530890509
 20
217.0744010277349
 30
0.0
 41
1.0
  0
LINE
  5
279
330
70
100
AcDbEntity
  8
Sichtbar MD
100
AcDbLine
 10
472.9350530890509
 20
216.3026651493572
 30
0.0
 11
456.5350530890509
 21
216.3026651493572
 31
0.0
  0
SPLINE
  5
27A
330
70
100
AcDbEntity
  8
Sichtbar MD
100
AcDbSpline
210
0.0
220
0.0
230
1.0
 70
    12
 71
     2
 72
     6
 73
     3
 74
     0
 42
0.000000001
 43
0.0000000001
 40
0.0
 40
0.0
 40
0.0
 40
0.0828004736235488
 40
0.0828004736235488
 40
0.0828004736235488
 10
473.2350530890508
 20
217.0744010277349
 30
0.0
 41
1.0
 10
473.0900411649805
 20
216.6904721234167
 30
0.0
 41
1.000083562834992
 10
472.9350530890509
 20
216.3026651493572
 30
0.0
 41
1.0
  0
SPLINE
  5
27B
330
70
100
AcDbEntity
  8
Sichtbar MD
100
AcDbSpline
210
0.0
220
0.0
230
1.0
 70
    12
 71
     2
 72
     6
 73
     3
 74
     0
 42
0.000000001
 43
0.0000000001
 40
0.0
 40
0.0
 40
0.0
 40
0.0828004736235488
 40
0.0828004736235488
 40
0.0828004736235488
 10
472.9350530890509
 20
240.2818227659208
 30
0.0
 41
1.0
 10
473.0900411649805
 20
239.8940157918614
 30
0.0
 41
1.000083562834992
 10
473.2350530890508
 20
239.5100868875431
 30
0.0
 41
1.0
  0
LINE
  5
27C
330
70
100
AcDbEntity
  8
Sichtbar MD
100
AcDbLine
 10
456.5350530890509
 20
240.2818227659208
 30
0.0
 11
472.9350530890509
 21
240.2818227659208
 31
0.0
  0
LINE
  5
27D
330
70
100
AcDbEntity
  8
Sichtbar MD
100
AcDbLine
 10
473.2350530890508
 20
217.0744010277349
 30
0.0
 11
473.2350530890508
 21
239.5100868875432
 31
0.0
  0
LINE
  5
27E
330
70
100
AcDbEntity
  8
Sichtbar MD
100
AcDbLine
 10
456.2350530890509
 20
217.0744010277349
 30
0.0
 11
456.2350530890509
 21
239.5100868875432
 31
0.0
  0
LINE
  5
27F
330
70
100
AcDbEntity
  8
Sichtbar MD
100
AcDbLine
 10
456.2350530890509
 20
239.5100868875431
 30
0.0
 11
456.2350530890509
 21
257.992243957639
 31
0.0
  0
LINE
  5
280
330
70
100
AcDbEntity
  8
Sichtbar MD
100
AcDbLine
 10
456.5350530890509
 20
240.2818227659208
 30
0.0
 11
456.5350530890509
 21
258.292243957639
 31
0.0
  0
LINE
  5
281
330
70
100
AcDbEntity
  8
Sichtbar MD
100
AcDbLine
 10
456.5350530890509
 20
198.292243957639
 30
0.0
 11
456.5350530890509
 21
216.3026651493572
 31
0.0
  0
LINE
  5
282
330
70
100
AcDbEntity
  8
Sichtbar MD
100
AcDbLine
 10
456.2350530890509
 20
198.592243957639
 30
0.0
 11
456.2350530890509
 21
217.0744010277349
 31
0.0
  0
LINE
  5
283
330
70
100
AcDbEntity
  8
Sichtbar MD
100
AcDbLine
 10
472.9350530890509
 20
258.292243957639
 30
0.0
 11
472.9350530890509
 21
240.2818227659208
 31
0.0
  0
LINE
  5
284
330
70
100
AcDbEntity
  8
Sichtbar MD
100
AcDbLine
 10
472.9350530890509
 20
216.3026651493572
 30
0.0
 11
472.9350530890509
 21
198.292243957639
 31
0.0
  0
LINE
  5
285
330
70
100
AcDbEntity
  8
Sichtbar MD
100
AcDbLine
 10
473.2350530890508
 20
239.5100868875431
 30
0.0
 11
473.2350530890508
 21
257.992243957639
 31
0.0
  0
LINE
  5
286
330
70
100
AcDbEntity
  8
Sichtbar MD
100
AcDbLine
 10
473.2350530890508
 20
198.592243957639
 30
0.0
 11
473.2350530890508
 21
217.0744010277349
 31
0.0
  0
LINE
  5
287
330
70
100
AcDbEntity
  8
Sichtbar MD
100
AcDbLine
 10
455.9350530890509
 20
258.292243957639
 30
0.0
 11
455.9350530890509
 21
198.292243957639
 31
0.0
  0
LINE
  5
288
330
70
100
AcDbEntity
  8
Sichtbar MD
100
AcDbLine
 10
473.5350530890508
 20
198.292243957639
 30
0.0
 11
473.5350530890508
 21
258.292243957639
 31
0.0
  0
LINE
  5
289
330
70
100
AcDbEntity
  8
Sichtbar MD
100
AcDbLine
 10
456.2350530890509
 20
257.992243957639
 30
0.0
 11
456.5350530890508
 21
258.292243957639
 31
0.0
  0
LINE
  5
28A
330
70
100
AcDbEntity
  8
Sichtbar MD
100
AcDbLine
 10
456.2350530890509
 20
198.592243957639
 30
0.0
 11
456.5350530890509
 21
198.292243957639
 31
0.0
  0
LINE
  5
28B
330
70
100
AcDbEntity
  8
Sichtbar MD
100
AcDbLine
 10
473.2350530890508
 20
257.992243957639
 30
0.0
 11
472.9350530890509
 21
258.292243957639
 31
0.0
  0
LINE
  5
28C
330
70
100
AcDbEntity
  8
Sichtbar MD
100
AcDbLine
 10
473.2350530890508
 20
198.592243957639
 30
0.0
 11
472.9350530890509
 21
198.292243957639
 31
0.0
  0
LINE
  5
28D
330
70
100
AcDbEntity
  8
Sichtbar MD
100
AcDbLine
 10
456.2350530890509
 20
198.592243957639
 30
0.0
 11
455.9350530890509
 21
198.292243957639
 31
0.0
  0
LINE
  5
28E
330
70
100
AcDbEntity
  8
Sichtbar MD
100
AcDbLine
 10
456.2350530890509
 20
257.992243957639
 30
0.0
 11
455.9350530890509
 21
258.292243957639
 31
0.0
  0
LINE
  5
28F
330
70
100
AcDbEntity
  8
Sichtbar MD
100
AcDbLine
 10
473.2350530890508
 20
257.992243957639
 30
0.0
 11
473.5350530890508
 21
258.292243957639
 31
0.0
  0
LINE
  5
290
330
70
100
AcDbEntity
  8
Sichtbar MD
100
AcDbLine
 10
473.2350530890508
 20
198.592243957639
 30
0.0
 11
473.5350530890508
 21
198.292243957639
 31
0.0
  0
LINE
  5
291
330
70
100
AcDbEntity
  8
Sichtbar MD
100
AcDbLine
 10
481.2350530890508
 20
198.292243957639
 30
0.0
 11
481.2350530890508
 21
258.292243957639
 31
0.0
  0
LINE
  5
292
330
70
100
AcDbEntity
  8
Sichtbar MD
100
AcDbLine
 10
423.7350530890509
 20
198.292243957639
 30
0.0
 11
423.7350530890509
 21
258.292243957639
 31
0.0
  0
LINE
  5
293
330
70
100
AcDbEntity
  8
Sichtbar MD
100
AcDbLine
 10
456.5350530890509
 20
258.292243957639
 30
0.0
 11
472.9350530890509
 21
258.292243957639
 31
0.0
  0
LINE
  5
294
330
70
100
AcDbEntity
  8
Sichtbar MD
100
AcDbLine
 10
456.5350530890509
 20
198.292243957639
 30
0.0
 11
472.9350530890509
 21
198.292243957639
 31
0.0
  0
LINE
  5
295
330
70
100
AcDbEntity
  8
Sichtbar MD
100
AcDbLine
 10
473.5350530890508
 20
258.292243957639
 30
0.0
 11
481.2350530890508
 21
258.292243957639
 31
0.0
  0
LINE
  5
296
330
70
100
AcDbEntity
  8
Sichtbar MD
100
AcDbLine
 10
473.5350530890508
 20
198.292243957639
 30
0.0
 11
481.2350530890508
 21
198.292243957639
 31
0.0
  0
LINE
  5
297
330
70
100
AcDbEntity
  8
Sichtbar MD
100
AcDbLine
 10
423.7350530890509
 20
258.292243957639
 30
0.0
 11
455.9350530890509
 21
258.292243957639
 31
0.0
  0
LINE
  5
298
330
70
100
AcDbEntity
  8
Sichtbar MD
100
AcDbLine
 10
423.7350530890509
 20
198.292243957639
 30
0.0
 11
455.9350530890509
 21
198.292243957639
 31
0.0
  0
LINE
  5
299
330
70
100
AcDbEntity
  8
Sichtbar MD
100
AcDbLine
 10
316.235053089051
 20
188.292243957639
 30
0.0
 11
316.235053089051
 21
268.2922439576389
 31
0.0
  0
LINE
  5
29A
330
70
100
AcDbEntity
  8
Sichtbar MD
100
AcDbLine
 10
356.235053089051
 20
238.7742223390792
 30
0.0
 11
356.235053089051
 21
264.8281423425012
 31
0.0
  0
LINE
  5
29B
330
70
100
AcDbEntity
  8
Sichtbar MD
100
AcDbLine
 10
356.235053089051
 20
191.7563455727768
 30
0.0
 11
356.235053089051
 21
217.8102655761988
 31
0.0
  0
LINE
  5
29C
330
70
100
AcDbEntity
  8
Sichtbar MD
100
AcDbLine
 10
350.235053089051
 20
247.6571606886761
 30
0.0
 11
350.235053089051
 21
268.2922439576389
 31
0.0
  0
LINE
  5
29D
330
70
100
AcDbEntity
  8
Sichtbar MD
100
AcDbLine
 10
350.235053089051
 20
188.292243957639
 30
0.0
 11
350.235053089051
 21
208.9273272266019
 31
0.0
  0
LINE
  5
29E
330
70
100
AcDbEntity
  8
Sichtbar MD
100
AcDbLine
 10
345.2350530890509
 20
247.6571606886761
 30
0.0
 11
345.2350530890509
 21
268.2922439576389
 31
0.0
  0
LINE
  5
29F
330
70
100
AcDbEntity
  8
Sichtbar MD
100
AcDbLine
 10
344.2350530890509
 20
245.4968944917242
 30
0.0
 11
344.2350530890509
 21
267.2922439576389
 31
0.0
  0
LINE
  5
2A0
330
70
100
AcDbEntity
  8
Sichtbar MD
100
AcDbLine
 10
343.235053089051
 20
188.292243957639
 30
0.0
 11
343.235053089051
 21
268.2922439576389
 31
0.0
  0
LINE
  5
2A1
330
70
100
AcDbEntity
  8
Sichtbar MD
100
AcDbLine
 10
344.2350530890509
 20
189.292243957639
 30
0.0
 11
344.2350530890509
 21
211.0875934235537
 31
0.0
  0
LINE
  5
2A2
330
70
100
AcDbEntity
  8
Sichtbar MD
100
AcDbLine
 10
345.2350530890509
 20
188.292243957639
 30
0.0
 11
345.2350530890509
 21
208.9273272266019
 31
0.0
  0
LINE
  5
2A3
330
70
100
AcDbEntity
  8
Sichtbar MD
100
AcDbLine
 10
356.2350530890509
 20
264.8281423425012
 30
0.0
 11
350.235053089051
 21
268.2922439576389
 31
0.0
  0
LINE
  5
2A4
330
70
100
AcDbEntity
  8
Sichtbar MD
100
AcDbLine
 10
356.235053089051
 20
191.7563455727767
 30
0.0
 11
350.235053089051
 21
188.292243957639
 31
0.0
  0
LINE
  5
2A5
330
70
100
AcDbEntity
  8
Sichtbar MD
100
AcDbLine
 10
345.2350530890509
 20
268.2922439576389
 30
0.0
 11
350.235053089051
 21
268.2922439576389
 31
0.0
  0
LINE
  5
2A6
330
70
100
AcDbEntity
  8
Sichtbar MD
100
AcDbLine
 10
344.2350530890509
 20
267.2922439576389
 30
0.0
 11
345.2350530890509
 21
268.2922439576389
 31
0.0
  0
LINE
  5
2A7
330
70
100
AcDbEntity
  8
Sichtbar MD
100
AcDbLine
 10
316.235053089051
 20
268.2922439576389
 30
0.0
 11
343.235053089051
 21
268.2922439576389
 31
0.0
  0
LINE
  5
2A8
330
70
100
AcDbEntity
  8
Sichtbar MD
100
AcDbLine
 10
316.235053089051
 20
188.2922439576391
 30
0.0
 11
343.235053089051
 21
188.292243957639
 31
0.0
  0
LINE
  5
2A9
330
70
100
AcDbEntity
  8
Sichtbar MD
100
AcDbLine
 10
344.2350530890509
 20
189.292243957639
 30
0.0
 11
343.235053089051
 21
188.292243957639
 31
0.0
  0
LINE
  5
2AA
330
70
100
AcDbEntity
  8
Sichtbar MD
100
AcDbLine
 10
344.2350530890509
 20
267.2922439576389
 30
0.0
 11
343.235053089051
 21
268.2922439576389
 31
0.0
  0
LINE
  5
2AB
330
70
100
AcDbEntity
  8
Sichtbar MD
100
AcDbLine
 10
344.2350530890509
 20
189.292243957639
 30
0.0
 11
345.2350530890509
 21
188.292243957639
 31
0.0
  0
LINE
  5
2AC
330
70
100
AcDbEntity
  8
Sichtbar MD
100
AcDbLine
 10
345.2350530890509
 20
188.292243957639
 30
0.0
 11
350.235053089051
 21
188.292243957639
 31
0.0
  0
SPLINE
  5
2AD
330
70
100
AcDbEntity
  8
Sichtbar MD
100
AcDbSpline
210
0.0
220
0.0
230
1.0
 70
    12
 71
     2
 72
     6
 73
     3
 74
     0
 42
0.000000001
 43
0.0000000001
 40
0.0
 40
0.0
 40
0.0
 40
1.073798831469609
 40
1.073798831469609
 40
1.073798831469609
 10
350.235053089051
 20
247.6571606886761
 30
0.0
 41
1.0
 10
354.1279035831598
 20
243.0146655787714
 30
0.0
 41
1.00680405585305
 10
356.235053089051
 20
238.7742223390791
 30
0.0
 41
1.0
  0
LINE
  5
2AE
330
70
100
AcDbEntity
  8
Sichtbar MD
100
AcDbLine
 10
345.2350530890509
 20
247.6571606886761
 30
0.0
 11
350.235053089051
 21
247.6571606886761
 31
0.0
  0
SPLINE
  5
2AF
330
70
100
AcDbEntity
  8
Sichtbar MD
100
AcDbSpline
210
0.0
220
0.0
230
1.0
 70
    12
 71
     2
 72
     6
 73
     3
 74
     0
 42
0.000000001
 43
0.0000000001
 40
0.0
 40
0.0
 40
0.0
 40
0.2380586858713905
 40
0.2380586858713905
 40
0.2380586858713905
 10
344.2350530890509
 20
245.4968944917242
 30
0.0
 41
1.0
 10
344.705516696382
 20
246.5633550193333
 30
0.0
 41
1.000374088197191
 10
345.2350530890509
 20
247.6571606886761
 30
0.0
 41
1.0
  0
SPLINE
  5
2B0
330
70
100
AcDbEntity
  8
Sichtbar MD
100
AcDbSpline
210
0.0
220
0.0
230
1.0
 70
    12
 71
     2
 72
     6
 73
     3
 74
     0
 42
0.000000001
 43
0.0000000001
 40
0.0
 40
0.0
 40
0.0
 40
0.2380586858713905
 40
0.2380586858713905
 40
0.2380586858713905
 10
345.2350530890509
 20
208.9273272266019
 30
0.0
 41
1.0
 10
344.705516696382
 20
210.0211328959447
 30
0.0
 41
1.000374088195952
 10
344.2350530890509
 20
211.0875934235537
 30
0.0
 41
1.0
  0
LINE
  5
2B1
330
70
100
AcDbEntity
  8
Sichtbar MD
100
AcDbLine
 10
350.235053089051
 20
208.9273272266019
 30
0.0
 11
345.2350530890509
 21
208.9273272266019
 31
0.0
  0
SPLINE
  5
2B2
330
70
100
AcDbEntity
  8
Sichtbar MD
100
AcDbSpline
210
0.0
220
0.0
230
1.0
 70
    12
 71
     2
 72
     6
 73
     3
 74
     0
 42
0.000000001
 43
0.0000000001
 40
0.0
 40
0.0
 40
0.0
 40
1.073798831469608
 40
1.073798831469608
 40
1.073798831469608
 10
356.235053089051
 20
217.8102655761988
 30
0.0
 41
1.0
 10
354.1279035831598
 20
213.5698223365065
 30
0.0
 41
1.006804055853112
 10
350.235053089051
 20
208.9273272266019
 30
0.0
 41
1.0
  0
LINE
  5
2B3
330
70
100
AcDbEntity
  8
Sichtbar MD
100
AcDbLine
 10
356.2350530890509
 20
238.7742223390791
 30
0.0
 11
356.235053089051
 21
217.8102655761988
 31
0.0
  0
LINE
  5
2B4
330
70
100
AcDbEntity
  8
Sichtbar MD
100
AcDbLine
 10
344.2350530890509
 20
211.0875934235537
 30
0.0
 11
344.2350530890509
 21
245.4968944917242
 31
0.0
  0
LINE
  5
2B5
330
70
100
AcDbEntity
  8
Sichtbar MD
100
AcDbLine
 10
259.7350530890509
 20
245.292243957639
 30
0.0
 11
255.7350530890509
 21
245.292243957639
 31
0.0
  0
LINE
  5
2B6
330
70
100
AcDbEntity
  8
Sichtbar MD
100
AcDbLine
 10
213.7350530890509
 20
245.292243957639
 30
0.0
 11
209.7350530890509
 21
245.292243957639
 31
0.0
  0
LINE
  5
2B7
330
70
100
AcDbEntity
  8
Sichtbar MD
100
AcDbLine
 10
213.7350530890509
 20
245.292243957639
 30
0.0
 11
255.7350530890509
 21
245.292243957639
 31
0.0
  0
LINE
  5
2B8
330
70
100
AcDbEntity
  8
Sichtbar MD
100
AcDbLine
 10
259.7350530890508
 20
245.292243957639
 30
0.0
 11
259.7350530890508
 21
242.2922439576391
 31
0.0
  0
LINE
  5
2B9
330
70
100
AcDbEntity
  8
Sichtbar MD
100
AcDbLine
 10
209.7350530890509
 20
245.292243957639
 30
0.0
 11
209.7350530890509
 21
242.2922439576391
 31
0.0
  0
CIRCLE
  5
2BA
330
70
100
AcDbEntity
  8
Sichtbar MD
100
AcDbCircle
 10
99.75691084094677
 20
212.292243957639
 30
0.0
 40
9.315499999999998
  0
CIRCLE
  5
2BB
330
70
100
AcDbEntity
  8
Sichtbar MD
100
AcDbCircle
 10
86.25691084094684
 20
239.292243957639
 30
0.0
 40
7.474999999999999
  0
CIRCLE
  5
2BC
330
70
100
AcDbEntity
  8
Sichtbar MD
100
AcDbCircle
 10
113.2569108409468
 20
239.292243957639
 30
0.0
 40
7.474999999999999
  0
LINE
  5
2BD
330
70
100
AcDbEntity
  8
Sichtbar MD
100
AcDbLine
 10
121.6988359094939
 20
229.5245085983831
 30
0.0
 11
121.6988359094939
 21
233.0245085387784
 31
0.0
  0
LINE
  5
2BE
330
70
100
AcDbEntity
  8
Sichtbar MD
100
AcDbLine
 10
121.6988359094939
 20
233.0245085387784
 30
0.0
 11
122.6007807887854
 21
233.0245085387784
 31
0.0
  0
SPLINE
  5
2BF
330
70
100
AcDbEntity
  8
Sichtbar MD
100
AcDbSpline
210
0.0
220
0.0
230
1.0
 70
     8
 71
     2
 72
     7
 73
     4
 74
     0
 42
0.000000001
 43
0.0000000001
 40
0.0
 40
0.0
 40
0.0
 40
1.0
 40
2.0
 40
2.0
 40
2.0
 10
122.6007807887854
 20
233.0245085387784
 30
0.0
 10
122.9014290818826
 20
233.0245085387784
 30
0.0
 10
123.3070206470986
 20
232.9592735317857
 30
0.0
 10
123.4913804494695
 20
232.8401487364075
 30
0.0
  0
SPLINE
  5
2C0
330
70
100
AcDbEntity
  8
Sichtbar MD
100
AcDbSpline
210
0.0
220
0.0
230
1.0
 70
     8
 71
     2
 72
     7
 73
     4
 74
     0
 42
0.000000001
 43
0.0000000001
 40
0.0
 40
0.0
 40
0.0
 40
1.0
 40
2.0
 40
2.0
 40
2.0
 10
123.4913804494695
 20
232.8401487364075
 30
0.0
 10
123.6757402518404
 20
232.7210239410294
 30
0.0
 10
123.8884631007299
 20
232.3494680316358
 30
0.0
 10
123.8884631007299
 20
232.0743464804053
 30
0.0
  0
SPLINE
  5
2C1
330
70
100
AcDbEntity
  8
Sichtbar MD
100
AcDbSpline
210
0.0
220
0.0
230
1.0
 70
     8
 71
     2
 72
     7
 73
     4
 74
     0
 42
0.000000001
 43
0.0000000001
 40
0.0
 40
0.0
 40
0.0
 40
1.0
 40
2.0
 40
2.0
 40
2.0
 10
123.8884631007299
 20
232.0743464804053
 30
0.0
 10
123.8884631007299
 20
231.6914453524042
 30
0.0
 10
123.4970530587732
 20
231.1724016011138
 30
0.0
 10
123.1623691098537
 20
231.0476041964319
 30
0.0
  0
LINE
  5
2C2
330
70
100
AcDbEntity
  8
Sichtbar MD
100
AcDbLine
 10
123.1623691098537
 20
231.0476041964319
 30
0.0
 11
124.4075068520203
 21
229.5245085983831
 31
0.0
  0
LINE
  5
2C3
330
70
100
AcDbEntity
  8
Sichtbar MD
100
AcDbLine
 10
124.4075068520203
 20
229.5245085983831
 30
0.0
 11
123.8033739611741
 21
229.5245085983831
 31
0.0
  0
LINE
  5
2C4
330
70
100
AcDbEntity
  8
Sichtbar MD
100
AcDbLine
 10
123.8033739611741
 20
229.5245085983831
 30
0.0
 11
122.6972151469487
 21
230.9171341824464
 31
0.0
  0
LINE
  5
2C5
330
70
100
AcDbEntity
  8
Sichtbar MD
100
AcDbLine
 10
122.6972151469487
 20
230.9171341824464
 30
0.0
 11
122.163989872399
 21
230.9171341824464
 31
0.0
  0
LINE
  5
2C6
330
70
100
AcDbEntity
  8
Sichtbar MD
100
AcDbLine
 10
122.163989872399
 20
230.9171341824464
 30
0.0
 11
122.163989872399
 21
229.5245085983831
 31
0.0
  0
LINE
  5
2C7
330
70
100
AcDbEntity
  8
Sichtbar MD
100
AcDbLine
 10
122.163989872399
 20
229.5245085983831
 30
0.0
 11
121.6988359094939
 21
229.5245085983831
 31
0.0
  0
LINE
  5
2C8
330
70
100
AcDbEntity
  8
Sichtbar MD
100
AcDbLine
 10
114.3895742674915
 20
214.7630556616401
 30
0.0
 11
114.3895742674915
 21
214.3489551824685
 31
0.0
  0
LINE
  5
2C9
330
70
100
AcDbEntity
  8
Sichtbar MD
100
AcDbLine
 10
114.3895742674915
 20
214.3489551824685
 30
0.0
 11
112.7813895298868
 21
214.3489551824685
 31
0.0
  0
LINE
  5
2CA
330
70
100
AcDbEntity
  8
Sichtbar MD
100
AcDbLine
 10
112.7813895298868
 20
214.3489551824685
 30
0.0
 11
112.7813895298868
 21
213.0499276519166
 31
0.0
  0
LINE
  5
2CB
330
70
100
AcDbEntity
  8
Sichtbar MD
100
AcDbLine
 10
112.7813895298868
 20
213.0499276519166
 30
0.0
 11
114.5058627582178
 21
213.0499276519166
 31
0.0
  0
LINE
  5
2CC
330
70
100
AcDbEntity
  8
Sichtbar MD
100
AcDbLine
 10
114.5058627582178
 20
213.0499276519166
 30
0.0
 11
114.5058627582178
 21
212.635827172745
 31
0.0
  0
LINE
  5
2CD
330
70
100
AcDbEntity
  8
Sichtbar MD
100
AcDbLine
 10
114.5058627582178
 20
212.635827172745
 30
0.0
 11
112.3162355669818
 21
212.635827172745
 31
0.0
  0
LINE
  5
2CE
330
70
100
AcDbEntity
  8
Sichtbar MD
100
AcDbLine
 10
112.3162355669818
 20
212.635827172745
 30
0.0
 11
112.3162355669818
 21
216.1358271131403
 31
0.0
  0
LINE
  5
2CF
330
70
100
AcDbEntity
  8
Sichtbar MD
100
AcDbLine
 10
112.3162355669818
 20
216.1358271131403
 30
0.0
 11
114.5058627582178
 21
216.1358271131403
 31
0.0
  0
LINE
  5
2D0
330
70
100
AcDbEntity
  8
Sichtbar MD
100
AcDbLine
 10
114.5058627582178
 20
216.1358271131403
 30
0.0
 11
114.5058627582178
 21
215.7217266339688
 31
0.0
  0
LINE
  5
2D1
330
70
100
AcDbEntity
  8
Sichtbar MD
100
AcDbLine
 10
114.5058627582178
 20
215.7217266339688
 30
0.0
 11
112.7813895298868
 21
215.7217266339688
 31
0.0
  0
LINE
  5
2D2
330
70
100
AcDbEntity
  8
Sichtbar MD
100
AcDbLine
 10
112.7813895298868
 20
215.7217266339688
 30
0.0
 11
112.7813895298868
 21
214.7630556616401
 31
0.0
  0
LINE
  5
2D3
330
70
100
AcDbEntity
  8
Sichtbar MD
100
AcDbLine
 10
112.7813895298868
 20
214.7630556616401
 30
0.0
 11
114.3895742674915
 21
214.7630556616401
 31
0.0
  0
LINE
  5
2D4
330
70
100
AcDbEntity
  8
Sichtbar MD
100
AcDbLine
 10
117.4357654635892
 20
212.635827172745
 30
0.0
 11
116.9025401890396
 21
212.635827172745
 31
0.0
  0
LINE
  5
2D5
330
70
100
AcDbEntity
  8
Sichtbar MD
100
AcDbLine
 10
116.9025401890396
 20
212.635827172745
 30
0.0
 11
116.0516487934815
 21
214.0312890614601
 31
0.0
  0
LINE
  5
2D6
330
70
100
AcDbEntity
  8
Sichtbar MD
100
AcDbLine
 10
116.0516487934815
 20
214.0312890614601
 30
0.0
 11
115.1837395700123
 21
212.635827172745
 31
0.0
  0
LINE
  5
2D7
330
70
100
AcDbEntity
  8
Sichtbar MD
100
AcDbLine
 10
115.1837395700123
 20
212.635827172745
 30
0.0
 11
114.6817136466331
 21
212.635827172745
 31
0.0
  0
LINE
  5
2D8
330
70
100
AcDbEntity
  8
Sichtbar MD
100
AcDbLine
 10
114.6817136466331
 20
212.635827172745
 30
0.0
 11
115.7963813748141
 21
214.3886634475945
 31
0.0
  0
LINE
  5
2D9
330
70
100
AcDbEntity
  8
Sichtbar MD
100
AcDbLine
 10
115.7963813748141
 20
214.3886634475945
 30
0.0
 11
114.7157493024554
 21
216.1358271131403
 31
0.0
  0
LINE
  5
2DA
330
70
100
AcDbEntity
  8
Sichtbar MD
100
AcDbLine
 10
114.7157493024554
 20
216.1358271131403
 30
0.0
 11
115.2489745770051
 21
216.1358271131403
 31
0.0
  0
LINE
  5
2DB
330
70
100
AcDbEntity
  8
Sichtbar MD
100
AcDbLine
 10
115.2489745770051
 20
216.1358271131403
 30
0.0
 11
116.082848144652
 21
214.7658919662919
 31
0.0
  0
LINE
  5
2DC
330
70
100
AcDbEntity
  8
Sichtbar MD
100
AcDbLine
 10
116.082848144652
 20
214.7658919662919
 30
0.0
 11
116.93373954021
 21
216.1358271131404
 31
0.0
  0
LINE
  5
2DD
330
70
100
AcDbEntity
  8
Sichtbar MD
100
AcDbLine
 10
116.93373954021
 20
216.1358271131404
 30
0.0
 11
117.4357654635892
 21
216.1358271131404
 31
0.0
  0
LINE
  5
2DE
330
70
100
AcDbEntity
  8
Sichtbar MD
100
AcDbLine
 10
117.4357654635892
 20
216.1358271131404
 30
0.0
 11
116.3409518679712
 21
214.4113538848094
 31
0.0
  0
LINE
  5
2DF
330
70
100
AcDbEntity
  8
Sichtbar MD
100
AcDbLine
 10
116.3409518679712
 20
214.4113538848094
 30
0.0
 11
117.4357654635892
 21
212.635827172745
 31
0.0
  0
LINE
  5
2E0
330
70
100
AcDbEntity
  8
Sichtbar MD
100
AcDbLine
 10
75.87649484933918
 20
233.5249139143529
 30
0.0
 11
75.87649484933918
 21
230.4390144531291
 31
0.0
  0
LINE
  5
2E1
330
70
100
AcDbEntity
  8
Sichtbar MD
100
AcDbLine
 10
75.87649484933918
 20
230.4390144531291
 30
0.0
 11
77.43929871251409
 21
230.4390144531291
 31
0.0
  0
LINE
  5
2E2
330
70
100
AcDbEntity
  8
Sichtbar MD
100
AcDbLine
 10
77.43929871251409
 20
230.4390144531291
 30
0.0
 11
77.43929871251409
 21
230.0249139739575
 31
0.0
  0
LINE
  5
2E3
330
70
100
AcDbEntity
  8
Sichtbar MD
100
AcDbLine
 10
77.43929871251409
 20
230.0249139739575
 30
0.0
 11
75.41134088643413
 21
230.0249139739575
 31
0.0
  0
LINE
  5
2E4
330
70
100
AcDbEntity
  8
Sichtbar MD
100
AcDbLine
 10
75.41134088643413
 20
230.0249139739575
 30
0.0
 11
75.41134088643413
 21
233.5249139143529
 31
0.0
  0
LINE
  5
2E5
330
70
100
AcDbEntity
  8
Sichtbar MD
100
AcDbLine
 10
75.41134088643413
 20
233.5249139143529
 30
0.0
 11
75.87649484933918
 21
233.5249139143529
 31
0.0
  0
LINE
  5
2E6
330
70
100
AcDbEntity
  8
Sichtbar MD
100
AcDbLine
 10
120.3514866457014
 20
212.635827172745
 30
0.0
 11
119.8863326827964
 21
212.635827172745
 31
0.0
  0
LINE
  5
2E7
330
70
100
AcDbEntity
  8
Sichtbar MD
100
AcDbLine
 10
119.8863326827964
 20
212.635827172745
 30
0.0
 11
119.8863326827964
 21
214.3489551824685
 31
0.0
  0
LINE
  5
2E8
330
70
100
AcDbEntity
  8
Sichtbar MD
100
AcDbLine
 10
119.8863326827964
 20
214.3489551824685
 30
0.0
 11
118.2753116405399
 21
214.3489551824685
 31
0.0
  0
LINE
  5
2E9
330
70
100
AcDbEntity
  8
Sichtbar MD
100
AcDbLine
 10
118.2753116405399
 20
214.3489551824685
 30
0.0
 11
118.2753116405399
 21
212.635827172745
 31
0.0
  0
LINE
  5
2EA
330
70
100
AcDbEntity
  8
Sichtbar MD
100
AcDbLine
 10
118.2753116405399
 20
212.635827172745
 30
0.0
 11
117.8101576776348
 21
212.635827172745
 31
0.0
  0
LINE
  5
2EB
330
70
100
AcDbEntity
  8
Sichtbar MD
100
AcDbLine
 10
117.8101576776348
 20
212.635827172745
 30
0.0
 11
117.8101576776348
 21
216.1358271131404
 31
0.0
  0
LINE
  5
2EC
330
70
100
AcDbEntity
  8
Sichtbar MD
100
AcDbLine
 10
117.8101576776348
 20
216.1358271131404
 30
0.0
 11
118.2753116405399
 21
216.1358271131404
 31
0.0
  0
LINE
  5
2ED
330
70
100
AcDbEntity
  8
Sichtbar MD
100
AcDbLine
 10
118.2753116405399
 20
216.1358271131404
 30
0.0
 11
118.2753116405399
 21
214.7630556616401
 31
0.0
  0
LINE
  5
2EE
330
70
100
AcDbEntity
  8
Sichtbar MD
100
AcDbLine
 10
118.2753116405399
 20
214.7630556616401
 30
0.0
 11
119.8863326827964
 21
214.7630556616401
 31
0.0
  0
LINE
  5
2EF
330
70
100
AcDbEntity
  8
Sichtbar MD
100
AcDbLine
 10
119.8863326827964
 20
214.7630556616401
 30
0.0
 11
119.8863326827964
 21
216.1358271131404
 31
0.0
  0
LINE
  5
2F0
330
70
100
AcDbEntity
  8
Sichtbar MD
100
AcDbLine
 10
119.8863326827964
 20
216.1358271131404
 30
0.0
 11
120.3514866457014
 21
216.1358271131404
 31
0.0
  0
LINE
  5
2F1
330
70
100
AcDbEntity
  8
Sichtbar MD
100
AcDbLine
 10
120.3514866457014
 20
216.1358271131404
 30
0.0
 11
120.3514866457014
 21
212.635827172745
 31
0.0
  0
SPLINE
  5
2F2
330
70
100
AcDbEntity
  8
Sichtbar MD
100
AcDbSpline
210
0.0
220
0.0
230
1.0
 70
     8
 71
     2
 72
     7
 73
     4
 74
     0
 42
0.000000001
 43
0.0000000001
 40
0.0
 40
0.0
 40
0.0
 40
1.0
 40
2.0
 40
2.0
 40
2.0
 10
122.5724177422668
 20
231.3057079197512
 30
0.0
 10
122.7737953725489
 20
231.3057079197512
 30
0.0
 10
123.0942977982091
 20
231.3766155360477
 30
0.0
 10
123.2049136796316
 20
231.4872314174703
 30
0.0
  0
SPLINE
  5
2F3
330
70
100
AcDbEntity
  8
Sichtbar MD
100
AcDbSpline
210
0.0
220
0.0
230
1.0
 70
     8
 71
     2
 72
     7
 73
     4
 74
     0
 42
0.000000001
 43
0.0000000001
 40
0.0
 40
0.0
 40
0.0
 40
1.0
 40
2.0
 40
2.0
 40
2.0
 10
123.2049136796316
 20
231.4872314174703
 30
0.0
 10
123.3070206470986
 20
231.5836657756335
 30
0.0
 10
123.4034550052618
 20
231.8559510222121
 30
0.0
 10
123.4034550052618
 20
232.0374745199311
 30
0.0
  0
SPLINE
  5
2F4
330
70
100
AcDbEntity
  8
Sichtbar MD
100
AcDbSpline
210
0.0
220
0.0
230
1.0
 70
     8
 71
     2
 72
     7
 73
     4
 74
     0
 42
0.000000001
 43
0.0000000001
 40
0.0
 40
0.0
 40
0.0
 40
1.0
 40
2.0
 40
2.0
 40
2.0
 10
123.4034550052618
 20
232.0374745199311
 30
0.0
 10
123.4034550052618
 20
232.1906349711316
 30
0.0
 10
123.2956754284911
 20
232.426048257236
 30
0.0
 10
123.1822232424167
 20
232.5026284828362
 30
0.0
  0
SPLINE
  5
2F5
330
70
100
AcDbEntity
  8
Sichtbar MD
100
AcDbSpline
210
0.0
220
0.0
230
1.0
 70
     8
 71
     2
 72
     7
 73
     4
 74
     0
 42
0.000000001
 43
0.0000000001
 40
0.0
 40
0.0
 40
0.0
 40
1.0
 40
2.0
 40
2.0
 40
2.0
 10
123.1822232424167
 20
232.5026284828362
 30
0.0
 10
123.0829525796016
 20
232.567863489829
 30
0.0
 10
122.8191762469786
 20
232.6217532782143
 30
0.0
 10
122.6263075306522
 20
232.6217532782143
 30
0.0
  0
LINE
  5
2F6
330
70
100
AcDbEntity
  8
Sichtbar MD
100
AcDbLine
 10
122.6263075306522
 20
232.6217532782143
 30
0.0
 11
122.163989872399
 21
232.6217532782143
 31
0.0
  0
LINE
  5
2F7
330
70
100
AcDbEntity
  8
Sichtbar MD
100
AcDbLine
 10
122.163989872399
 20
232.6217532782143
 30
0.0
 11
122.163989872399
 21
231.3057079197512
 31
0.0
  0
LINE
  5
2F8
330
70
100
AcDbEntity
  8
Sichtbar MD
100
AcDbLine
 10
122.163989872399
 20
231.3057079197512
 30
0.0
 11
122.5724177422668
 21
231.3057079197512
 31
0.0
  0
LINE
  5
2F9
330
70
100
AcDbEntity
  8
Sichtbar MD
100
AcDbLine
 10
72.25691084094712
 20
240.2818227659209
 30
0.0
 11
72.25691084094712
 21
216.3026651493571
 31
0.0
  0
LINE
  5
2FA
330
70
100
AcDbEntity
  8
Sichtbar MD
100
AcDbLine
 10
127.2569108409471
 20
216.3026651493572
 30
0.0
 11
127.2569108409471
 21
240.2818227659208
 31
0.0
  0
ARC
  5
2FB
330
70
100
AcDbEntity
  8
Sichtbar MD
100
AcDbCircle
 10
99.75691084094266
 20
228.292243957639
 30
0.0
 40
29.69999999999999
100
AcDbArc
 50
157.8083934337273
 51
202.1916065662728
  0
ARC
  5
2FC
330
70
100
AcDbEntity
  8
Sichtbar MD
100
AcDbCircle
 10
99.75691084094268
 20
228.292243957639
 30
0.0
 40
29.69999999999999
100
AcDbArc
 50
337.8083934337273
 51
22.1916065662727
  0
ARC
  5
2FD
330
70
100
AcDbEntity
  8
Sichtbar MD
100
AcDbCircle
 10
99.75691084094712
 20
228.292243957639
 30
0.0
 40
30.0
100
AcDbArc
 50
203.5564643091012
 51
336.4435356908987
  0
ARC
  5
2FE
330
70
100
AcDbEntity
  8
Sichtbar MD
100
AcDbCircle
 10
99.75691084094712
 20
228.292243957639
 30
0.0
 40
30.0
100
AcDbArc
 50
23.55646430910128
 51
156.4435356908987
  0
ARC
  5
2FF
330
70
100
AcDbEntity
  8
Sichtbar MD
100
AcDbCircle
 10
99.75691084094258
 20
228.292243957639
 30
0.0
 40
29.99999999999999
100
AcDbArc
 50
156.4435356908987
 51
203.5564643091013
  0
ARC
  5
300
330
70
100
AcDbEntity
  8
Sichtbar MD
100
AcDbCircle
 10
99.75691084094258
 20
228.292243957639
 30
0.0
 40
30.00000000000002
100
AcDbArc
 50
336.4435356908988
 51
23.55646430910121
  0
CIRCLE
  5
301
330
70
100
AcDbEntity
  8
Sichtbar MD
100
AcDbCircle
 10
110.0415125959261
 20
240.5489550475427
 30
0.0
 40
2.899999999999999
  0
CIRCLE
  5
302
330
70
100
AcDbEntity
  8
Sichtbar MD
100
AcDbCircle
 10
89.47230908595685
 20
240.5489550475427
 30
0.0
 40
2.899999999999999
  0
ARC
  5
303
330
70
100
AcDbEntity
  8
Sichtbar schmal MD
100
AcDbCircle
 10
86.25691084094709
 20
239.292243957639
 30
0.0
 40
8.331000000000003
100
AcDbArc
 50
80.00000000000186
 51
349.9999999999508
  0
ARC
  5
304
330
70
100
AcDbEntity
  8
Sichtbar schmal MD
100
AcDbCircle
 10
113.2569108409471
 20
239.292243957639
 30
0.0
 40
8.331000000000003
100
AcDbArc
 50
80.00000000000186
 51
349.9999999999508
  0
ARC
  5
305
330
70
100
AcDbEntity
  8
Sichtbar schmal MD
100
AcDbCircle
 10
99.75691084094712
 20
212.292243957639
 30
0.0
 40
10.4775
100
AcDbArc
 50
10.0000000000491
 51
279.9999999999981
  0
CIRCLE
  5
306
330
70
100
AcDbEntity
  8
Sichtbar MD
100
AcDbCircle
 10
110.4593245422158
 20
241.04688393557
 30
0.0
 40
2.099999999999996
  0
CIRCLE
  5
307
330
70
100
AcDbEntity
  8
Sichtbar MD
100
AcDbCircle
 10
89.0544971396541
 20
241.0468839355699
 30
0.0
 40
2.099999999999996
  0
ARC
  5
308
330
70
100
AcDbEntity
  8
Sichtbar MD
100
AcDbCircle
 10
99.75691084093483
 20
225.7922439576387
 30
0.0
 40
15.50000000000029
100
AcDbArc
 50
50.0058818922632
 51
60.24544073300987
  0
ARC
  5
309
330
70
100
AcDbEntity
  8
Sichtbar MD
100
AcDbCircle
 10
99.75691084093668
 20
228.2922439576388
 30
0.0
 40
18.75000000000021
100
AcDbArc
 50
46.95432897398465
 51
53.04567102601588
  0
ARC
  5
30A
330
70
100
AcDbEntity
  8
Sichtbar MD
100
AcDbCircle
 10
99.75691084093515
 20
225.7922439576387
 30
0.0
 40
15.50000000000024
100
AcDbArc
 50
119.7545592669907
 51
129.9941181077367
  0
ARC
  5
30B
330
70
100
AcDbEntity
  8
Sichtbar MD
100
AcDbCircle
 10
99.75691084093723
 20
228.2922439576385
 30
0.0
 40
18.75000000000065
100
AcDbArc
 50
126.9543289739846
 51
133.0456710260157
  0
ARC
  5
30C
330
70
100
AcDbEntity
  8
Sichtbar MD
100
AcDbCircle
 10
99.75691084094032
 20
228.292243957639
 30
0.0
 40
12.28867513459482
100
AcDbArc
 50
234.5231302382625
 51
305.4768697617374
  0
ARC
  5
30D
330
70
100
AcDbEntity
  8
Sichtbar MD
100
AcDbCircle
 10
99.75691084094018
 20
228.292243957639
 30
0.0
 40
12.00000000000001
100
AcDbArc
 50
234.6547419634084
 51
305.3452580365913
  0
ARC
  5
30E
330
70
100
AcDbEntity
  8
Sichtbar MD
100
AcDbCircle
 10
99.75691084094032
 20
228.292243957639
 30
0.0
 40
14.50000000000001
100
AcDbArc
 50
234.8677984366015
 51
305.1322015633981
  0
ARC
  5
30F
330
70
100
AcDbEntity
  8
Sichtbar MD
100
AcDbCircle
 10
99.75691084093782
 20
228.292243957639
 30
0.0
 40
20.00000000000007
100
AcDbArc
 50
284.4897625938845
 51
297.2009830076304
  0
ARC
  5
310
330
70
100
AcDbEntity
  8
Sichtbar MD
100
AcDbCircle
 10
99.75691084093785
 20
228.2922439576391
 30
0.0
 40
20.00000000000016
100
AcDbArc
 50
242.7990169923694
 51
255.5102374061153
  0
ARC
  5
311
330
70
100
AcDbEntity
  8
Sichtbar MD
100
AcDbCircle
 10
99.75691084094018
 20
228.292243957639
 30
0.0
 40
9.749999999999998
100
AcDbArc
 50
237.8937525665786
 51
302.1062474334211
  0
ARC
  5
312
330
70
100
AcDbEntity
  8
Sichtbar MD
100
AcDbCircle
 10
99.75691084094021
 20
228.292243957639
 30
0.0
 40
6.750000000000082
100
AcDbArc
 50
263.9174079481081
 51
276.0825920518915
  0
ARC
  5
313
330
70
100
AcDbEntity
  8
Sichtbar MD
100
AcDbCircle
 10
99.75691084094009
 20
228.292243957639
 30
0.0
 40
6.800000000000045
100
AcDbArc
 50
261.9606076654104
 51
278.0393923345891
  0
CIRCLE
  5
314
330
70
100
AcDbEntity
  8
Sichtbar MD
100
AcDbCircle
 10
99.75691084088587
 20
228.2922439576391
 30
0.0
 40
41.49999999999987
  0
LINE
  5
315
330
70
100
AcDbEntity
  8
Sichtbar MD
100
AcDbLine
 10
58.25691084088422
 20
225.8922439576391
 30
0.0
 11
58.25691084088422
 21
230.6922439576391
 31
0.0
  0
ARC
  5
316
330
70
100
AcDbEntity
  8
Sichtbar MD
100
AcDbCircle
 10
58.35691084088423
 20
225.8922439576391
 30
0.0
 40
0.0999999999999999
100
AcDbArc
 50
180.0
 51
255.6295297489201
  0
ARC
  5
317
330
70
100
AcDbEntity
  8
Sichtbar MD
100
AcDbCircle
 10
58.35691084088423
 20
230.6922439576391
 30
0.0
 40
0.0999999999999999
100
AcDbArc
 50
104.3704702510798
 51
180.0
  0
ARC
  5
318
330
70
100
AcDbEntity
  8
Sichtbar MD
100
AcDbCircle
 10
90.56452268551327
 20
219.0998558022139
 30
0.0
 40
10.99999999999998
100
AcDbArc
 50
274.4674998527585
 51
292.3801350519595
  0
ARC
  5
319
330
70
100
AcDbEntity
  8
Sichtbar MD
100
AcDbCircle
 10
108.9492989963634
 20
219.0998558022139
 30
0.0
 40
10.99999999999994
100
AcDbArc
 50
247.6198649480406
 51
265.5325001472415
  0
ARC
  5
31A
330
70
100
AcDbEntity
  8
Sichtbar MD
100
AcDbCircle
 10
99.75691084093838
 20
228.292243957639
 30
0.0
 40
20.00000000000002
100
AcDbArc
 50
255.5102374061156
 51
284.4897625938843
  0
SPLINE
  5
31B
330
70
100
AcDbEntity
  8
Sichtbar MD
100
AcDbSpline
210
0.0
220
0.0
230
1.0
 70
    28
 71
     2
 72
     6
 73
     3
 74
     0
 42
0.000000001
 43
0.0000000001
 40
0.0
 40
0.0
 40
0.0
 40
1.073798831469607
 40
1.073798831469607
 40
1.073798831469607
 10
134.7569108408961
 20
208.9273272266019
 30
0.0
 41
1.0
 10
134.7569108408973
 20
213.5698223365065
 30
0.0
 41
1.006804055853129
 10
134.7569108408979
 20
217.8102655761988
 30
0.0
 41
1.0
  0
SPLINE
  5
31C
330
70
100
AcDbEntity
  8
Sichtbar MD
100
AcDbSpline
210
0.0
220
0.0
230
1.0
 70
    28
 71
     2
 72
     6
 73
     3
 74
     0
 42
0.000000001
 43
0.0000000001
 40
0.0
 40
0.0
 40
0.0
 40
1.073798831469607
 40
1.073798831469607
 40
1.073798831469607
 10
134.7569108408979
 20
238.7742223390791
 30
0.0
 41
1.0
 10
134.7569108408973
 20
243.0146655787714
 30
0.0
 41
1.006804055853048
 10
134.7569108408961
 20
247.6571606886761
 30
0.0
 41
1.0
  0
LINE
  5
31D
330
70
100
AcDbEntity
  8
Sichtbar MD
100
AcDbLine
 10
134.7569108408979
 20
217.8102655761989
 30
0.0
 11
134.7569108408979
 21
238.7742223390791
 31
0.0
  0
ARC
  5
31E
330
70
100
AcDbEntity
  8
Sichtbar MD
100
AcDbCircle
 10
99.75691084089433
 20
228.292243957639
 30
0.0
 40
39.00000000000003
100
AcDbArc
 50
333.8230478283336
 51
26.17695217166657
  0
SPLINE
  5
31F
330
70
100
AcDbEntity
  8
Sichtbar MD
100
AcDbSpline
210
0.0
220
0.0
230
1.0
 70
    28
 71
     2
 72
     6
 73
     3
 74
     0
 42
0.000000001
 43
0.0000000001
 40
0.0
 40
0.0
 40
0.0
 40
1.073798831469609
 40
1.073798831469609
 40
1.073798831469609
 10
64.75691084089607
 20
247.6571606886761
 30
0.0
 41
1.0
 10
64.75691084089722
 20
243.0146655787714
 30
0.0
 41
1.00680405585305
 10
64.75691084089786
 20
238.7742223390791
 30
0.0
 41
1.0
  0
SPLINE
  5
320
330
70
100
AcDbEntity
  8
Sichtbar MD
100
AcDbSpline
210
0.0
220
0.0
230
1.0
 70
    28
 71
     2
 72
     6
 73
     3
 74
     0
 42
0.000000001
 43
0.0000000001
 40
0.0
 40
0.0
 40
0.0
 40
1.073798831469608
 40
1.073798831469608
 40
1.073798831469608
 10
64.75691084089786
 20
217.8102655761988
 30
0.0
 41
1.0
 10
64.75691084089723
 20
213.5698223365065
 30
0.0
 41
1.006804055853112
 10
64.75691084089607
 20
208.9273272266019
 30
0.0
 41
1.0
  0
LINE
  5
321
330
70
100
AcDbEntity
  8
Sichtbar MD
100
AcDbLine
 10
64.75691084089786
 20
238.7742223390791
 30
0.0
 11
64.75691084089786
 21
217.8102655761988
 31
0.0
  0
ARC
  5
322
330
70
100
AcDbEntity
  8
Sichtbar MD
100
AcDbCircle
 10
99.75691084089433
 20
228.292243957639
 30
0.0
 40
39.00000000000004
100
AcDbArc
 50
153.8230478283336
 51
206.1769521716666
  0
ARC
  5
323
330
70
100
AcDbEntity
  8
Sichtbar MD
100
AcDbCircle
 10
99.75691084089788
 20
228.292243957639
 30
0.0
 40
36.53589838486227
100
AcDbArc
 50
16.67217453652096
 51
163.3278254634787
  0
ARC
  5
324
330
70
100
AcDbEntity
  8
Sichtbar MD
100
AcDbCircle
 10
99.75691084089788
 20
228.292243957639
 30
0.0
 40
36.53589838486227
100
AcDbArc
 50
196.6721745365209
 51
343.3278254634789
  0
ARC
  5
325
330
70
100
AcDbEntity
  8
Sichtbar MD
100
AcDbCircle
 10
99.75691084089611
 20
228.292243957639
 30
0.0
 40
40.00000000000001
100
AcDbArc
 50
28.95502437185968
 51
151.0449756281401
  0
ARC
  5
326
330
70
100
AcDbEntity
  8
Sichtbar MD
100
AcDbCircle
 10
99.75691084089611
 20
228.292243957639
 30
0.0
 40
40.00000000000002
100
AcDbArc
 50
208.9550243718597
 51
331.0449756281402
  0
ARC
  5
327
330
70
100
AcDbEntity
  8
Sichtbar MD
100
AcDbCircle
 10
99.75691084089405
 20
228.292243957639
 30
0.0
 40
40.00000000000002
100
AcDbArc
 50
331.0449756281404
 51
28.95502437185989
  0
ARC
  5
328
330
70
100
AcDbEntity
  8
Sichtbar MD
100
AcDbCircle
 10
99.75691084089405
 20
228.292243957639
 30
0.0
 40
40.00000000000002
100
AcDbArc
 50
151.0449756281403
 51
208.9550243718599
  0
LINE
  5
329
330
70
100
AcDbEntity
  8
Mittelpunktmarkierung MD
  6
Continuous
100
AcDbLine
 10
96.23191084094685
 20
239.292243957639
 30
0.0
 11
76.28191084094685
 21
239.292243957639
 31
0.0
  0
LINE
  5
32A
330
70
100
AcDbEntity
  8
Mittelpunktmarkierung MD
  6
Continuous
100
AcDbLine
 10
86.25691084094684
 20
249.267243957639
 30
0.0
 11
86.25691084094684
 21
229.3172439576391
 31
0.0
  0
LINE
  5
32B
330
70
100
AcDbEntity
  8
Mittelpunktmarkierung MD
  6
Continuous
100
AcDbLine
 10
123.2319108409468
 20
239.292243957639
 30
0.0
 11
103.2819108409468
 21
239.292243957639
 31
0.0
  0
LINE
  5
32C
330
70
100
AcDbEntity
  8
Mittelpunktmarkierung MD
  6
Continuous
100
AcDbLine
 10
113.2569108409468
 20
249.267243957639
 30
0.0
 11
113.2569108409468
 21
229.3172439576391
 31
0.0
  0
LINE
  5
32D
330
70
100
AcDbEntity
  8
Mittelpunktmarkierung MD
  6
Continuous
100
AcDbLine
 10
111.5724108409468
 20
212.292243957639
 30
0.0
 11
87.94141084094677
 21
212.292243957639
 31
0.0
  0
LINE
  5
32E
330
70
100
AcDbEntity
  8
Mittelpunktmarkierung MD
  6
Continuous
100
AcDbLine
 10
99.75691084094677
 20
224.1077439576391
 30
0.0
 11
99.75691084094677
 21
200.476743957639
 31
0.0
  0
LINE
  5
32F
330
70
100
AcDbEntity
  8
Mittelpunktmarkierung MD
  6
Continuous
100
AcDbLine
 10
143.7569108408857
 20
228.2922439576391
 30
0.0
 11
55.756910840886
 21
228.2922439576391
 31
0.0
  0
LINE
  5
330
330
70
100
AcDbEntity
  8
Mittelpunktmarkierung MD
  6
Continuous
100
AcDbLine
 10
99.75691084088587
 20
272.292243957639
 30
0.0
 11
99.75691084088587
 21
184.2922439576392
 31
0.0
  0
LINE
  5
331
330
70
100
AcDbEntity
  8
Mittellinie MD
  6
Continuous
100
AcDbLine
 10
200.9499189259329
 20
228.2922439576393
 30
0.0
 11
526.1105174802641
 21
228.2922439576388
 31
0.0
  0
LINE
  5
332
330
70
100
AcDbEntity
  8
Skizziergeometrie MD
100
AcDbLine
 10
522.2350530890508
 20
240.2818227659209
 30
0.0
 11
507.5350530890509
 21
216.3026651493572
 31
0.0
  0
LINE
  5
333
330
70
100
AcDbEntity
  8
Skizziergeometrie MD
100
AcDbLine
 10
522.2350530890508
 20
216.3026651493572
 30
0.0
 11
507.5350530890509
 21
240.2818227659209
 31
0.0
  0
LINE
  5
334
330
70
100
AcDbEntity
  8
Skizziergeometrie MD
100
AcDbLine
 10
456.5350530890509
 20
240.2818227659208
 30
0.0
 11
472.9350530890509
 21
216.3026651493572
 31
0.0
  0
LINE
  5
335
330
70
100
AcDbEntity
  8
Skizziergeometrie MD
100
AcDbLine
 10
456.5350530890509
 20
216.3026651493572
 30
0.0
 11
472.9350530890509
 21
240.2818227659208
 31
0.0
  0
LINE
  5
336
330
70
100
AcDbEntity
  8
Skizziergeometrie MD
100
AcDbLine
 10
386.2350530890509
 20
252.4255237862866
 30
0.0
 11
402.2350530890508
 21
231.6589641289914
 31
0.0
  0
LINE
  5
337
330
70
100
AcDbEntity
  8
Skizziergeometrie MD
100
AcDbLine
 10
386.2350530890509
 20
231.6589641289914
 30
0.0
 11
402.2350530890508
 21
252.4255237862866
 31
0.0
  0
LINE
  5
338
330
70
100
AcDbEntity
  8
Skizziergeometrie MD
100
AcDbLine
 10
345.2350530890509
 20
247.6571606886761
 30
0.0
 11
350.235053089051
 21
208.9273272266019
 31
0.0
  0
LINE
  5
339
330
70
100
AcDbEntity
  8
Skizziergeometrie MD
100
AcDbLine
 10
345.2350530890509
 20
208.9273272266019
 30
0.0
 11
350.235053089051
 21
247.6571606886761
 31
0.0
  0
LINE
  5
33A
330
70
100
AcDbEntity
  8
Skizziergeometrie MD
100
AcDbLine
 10
266.735053089051
 20
246.0686327922703
 30
0.0
 11
281.7350530890509
 21
210.515855123008
 31
0.0
  0
LINE
  5
33B
330
70
100
AcDbEntity
  8
Skizziergeometrie MD
100
AcDbLine
 10
266.735053089051
 20
210.515855123008
 30
0.0
 11
281.735053089051
 21
246.0686327922703
 31
0.0
  0
LINE
  5
33C
330
70
100
AcDbEntity
  8
Mittelpunktmarkierung MD
  6
Continuous
100
AcDbLine
 10
314.135053089051
 20
228.2922439576391
 30
0.0
 11
305.335053089051
 21
228.2922439576391
 31
0.0
  0
LINE
  5
33D
330
70
100
AcDbEntity
  8
Mittelpunktmarkierung MD
  6
Continuous
100
AcDbLine
 10
309.7350530890509
 20
232.6922439576391
 30
0.0
 11
309.7350530890509
 21
223.8922439576391
 31
0.0
  0
ENDSEC
  0
SECTION
  2
OBJECTS
  0
DICTIONARY
  5
C
330
0
100
AcDbDictionary
281
     1
  3
ACAD_CIP_PREVIOUS_PRODUCT_INFO
350
33E
  3
ACAD_COLOR
350
63
  3
ACAD_DETAILVIEWSTYLE
350
6A
  3
ACAD_GROUP
350
D
  3
ACAD_LAYOUT
350
62
  3
ACAD_MATERIAL
350
10
  3
ACAD_MLEADERSTYLE
350
66
  3
ACAD_MLINESTYLE
350
5F
  3
ACAD_PLOTSETTINGS
350
61
  3
ACAD_PLOTSTYLENAME
350
E
  3
ACAD_SCALELIST
350
42
  3
ACAD_SECTIONVIEWSTYLE
350
68
  3
ACAD_TABLESTYLE
350
64
  3
ACAD_VISUALSTYLE
350
29
  3
ACDB_RECOMPOSE_DATA
350
347
  3
AcDbVariableDictionary
350
33F
  0
XRECORD
  5
33E
102
{ACAD_REACTORS
330
C
102
}
330
C
100
AcDbXrecord
280
     1
300
INVPROSA
300
2018
300

  0
DICTIONARY
  5
63
102
{ACAD_REACTORS
330
C
102
}
330
C
100
AcDbDictionary
281
     1
  0
DICTIONARY
  5
6A
102
{ACAD_REACTORS
330
C
102
}
330
C
100
AcDbDictionary
281
     1
  3
Imperial24
350
6B
  0
DICTIONARY
  5
D
102
{ACAD_REACTORS
330
C
102
}
330
C
100
AcDbDictionary
281
     1
  0
DICTIONARY
  5
62
102
{ACAD_REACTORS
330
C
102
}
330
C
100
AcDbDictionary
281
     1
  3
Layout1
350
6F
  3
Layout2
350
77
  3
Model
350
73
  0
DICTIONARY
  5
10
102
{ACAD_REACTORS
330
C
102
}
330
C
100
AcDbDictionary
281
     1
  3
ByBlock
350
19
  3
ByLayer
350
11
  3
Global
350
21
  0
DICTIONARY
  5
66
102
{ACAD_REACTORS
330
C
102
}
330
C
100
AcDbDictionary
281
     1
  3
Standard
350
67
  0
DICTIONARY
  5
5F
102
{ACAD_REACTORS
330
C
102
}
330
C
100
AcDbDictionary
281
     1
  3
Standard
350
60
  0
DICTIONARY
  5
61
102
{ACAD_REACTORS
330
C
102
}
330
C
100
AcDbDictionary
281
     1
  0
ACDBDICTIONARYWDFLT
  5
E
102
{ACAD_REACTORS
330
C
102
}
330
C
100
AcDbDictionary
281
     1
  3
Normal
350
F
100
AcDbDictionaryWithDefault
340
F
  0
DICTIONARY
  5
42
102
{ACAD_REACTORS
330
C
102
}
330
C
100
AcDbDictionary
281
     1
  3
A0
350
43
  3
A1
350
44
  3
A2
350
45
  3
A3
350
46
  3
A4
350
47
  3
A5
350
48
  3
A6
350
49
  3
A7
350
4A
  3
A8
350
4B
  3
A9
350
4C
  3
B0
350
4D
  3
B1
350
4E
  3
B2
350
4F
  3
B3
350
50
  3
B4
350
51
  3
B5
350
52
  3
B6
350
53
  0
DICTIONARY
  5
68
102
{ACAD_REACTORS
330
C
102
}
330
C
100
AcDbDictionary
281
     1
  3
Imperial24
350
69
  0
DICTIONARY
  5
64
102
{ACAD_REACTORS
330
C
102
}
330
C
100
AcDbDictionary
281
     1
  3
Standard
350
65
  0
DICTIONARY
  5
29
102
{ACAD_REACTORS
330
C
102
}
330
C
100
AcDbDictionary
281
     1
  3
2dWireframe
350
2F
  3
Basic
350
2E
  3
Brighten
350
35
  3
ColorChange
350
39
  3
Conceptual
350
32
  3
Dim
350
34
  3
EdgeColorOff
350
41
  3
Facepattern
350
38
  3
Flat
350
2A
  3
FlatWithEdges
350
2B
  3
Gouraud
350
2C
  3
GouraudWithEdges
350
2D
  3
Hidden
350
31
  3
JitterOff
350
3F
  3
Linepattern
350
37
  3
OverhangOff
350
40
  3
Realistic
350
33
  3
Shaded
350
3E
  3
Shaded with edges
350
3D
  3
Shades of Gray
350
3A
  3
Sketchy
350
3B
  3
Thicken
350
36
  3
Wireframe
350
30
  3
X-Ray
350
3C
  0
XRECORD
  5
347
102
{ACAD_REACTORS
330
C
102
}
330
C
100
AcDbXrecord
280
     1
 90
        1
330
65
  0
DICTIONARY
  5
33F
102
{ACAD_REACTORS
330
C
102
}
330
C
100
AcDbDictionary
281
     1
  3
CANNOSCALE
350
344
  3
CMLEADERSTYLE
350
341
  3
CTABLESTYLE
350
340
  3
CVIEWDETAILSTYLE
350
342
  3
CVIEWSECTIONSTYLE
350
343
  0
ACDBDETAILVIEWSTYLE
  5
6B
102
{ACAD_REACTORS
330
6A
102
}
330
6A
100
AcDbModelDocViewStyle
 70
     0
  3
Imperial24
290
     1
300
Imperial24
 90
        0
100
AcDbDetailViewStyle
 70
     0
 71
     0
 90
        3
 71
     1
340
55
 62
   256
 40
0.24
340
0
 62
   256
 40
0.24
300

 40
0.36
280
     3
 71
     2
340
5D
 90
       25
 62
   256
 71
     3
340
55
 62
   256
 40
0.24
 90
        1
 40
0.75
 90
        1
300
%<\AcVar ViewType \f "%tc1">% %<\AcVar ViewDetailId>%\PVARIA %<\AcVar ViewScale \f "%sn">%
 71
     4
340
5D
 90
       25
 62
   256
340
5D
 90
       25
 62
   256
280
     0
  0
LAYOUT
  5
6F
102
{ACAD_REACTORS
330
62
102
}
330
62
100
AcDbPlotSettings
  1

  2

  4

  6

 40
0.0
 41
0.0
 42
0.0
 43
0.0
 44
0.0
 45
0.0
 46
0.0
 47
0.0
 48
0.0
 49
0.0
140
0.0
141
0.0
142
1.0
143
1.0
 70
   688
 72
     0
 73
     0
 74
     5
  7

 75
    16
147
1.0
 76
     0
 77
     2
 78
   300
148
0.0
149
0.0
100
AcDbLayout
  1
Layout1
 70
     1
 71
     1
 10
0.0
 20
0.0
 11
12.0
 21
9.0
 12
0.0
 22
0.0
 32
0.0
 14
0.0
 24
0.0
 34
0.0
 15
0.0
 25
0.0
 35
0.0
146
0.0
 13
0.0
 23
0.0
 33
0.0
 16
1.0
 26
0.0
 36
0.0
 17
0.0
 27
1.0
 37
0.0
 76
     0
330
6C
  0
LAYOUT
  5
77
102
{ACAD_REACTORS
330
62
102
}
330
62
100
AcDbPlotSettings
  1

  2

  4

  6

 40
0.0
 41
0.0
 42
0.0
 43
0.0
 44
0.0
 45
0.0
 46
0.0
 47
0.0
 48
0.0
 49
0.0
140
0.0
141
0.0
142
1.0
143
1.0
 70
   688
 72
     0
 73
     0
 74
     5
  7

 75
    16
147
1.0
 76
     0
 77
     2
 78
   300
148
0.0
149
0.0
100
AcDbLayout
  1
Layout2
 70
     1
 71
     2
 10
0.0
 20
0.0
 11
12.0
 21
9.0
 12
0.0
 22
0.0
 32
0.0
 14
0.0
 24
0.0
 34
0.0
 15
0.0
 25
0.0
 35
0.0
146
0.0
 13
0.0
 23
0.0
 33
0.0
 16
1.0
 26
0.0
 36
0.0
 17
0.0
 27
1.0
 37
0.0
 76
     0
330
74
  0
LAYOUT
  5
73
102
{ACAD_REACTORS
330
62
102
}
330
62
100
AcDbPlotSettings
  1

  2

  4

  6

 40
0.0
 41
0.0
 42
0.0
 43
0.0
 44
0.0
 45
0.0
 46
0.0
 47
0.0
 48
0.0
 49
0.0
140
0.0
141
0.0
142
1.0
143
1.0
 70
  1712
 72
     0
 73
     0
 74
     0
  7

 75
     0
147
1.0
 76
     0
 77
     2
 78
   300
148
0.0
149
0.0
100
AcDbLayout
  1
Model
 70
     1
 71
     0
 10
0.0
 20
0.0
 11
12.0
 21
9.0
 12
0.0
 22
0.0
 32
0.0
 14
0.0
 24
0.0
 34
0.0
 15
0.0
 25
0.0
 35
0.0
146
0.0
 13
0.0
 23
0.0
 33
0.0
 16
1.0
 26
0.0
 36
0.0
 17
0.0
 27
1.0
 37
0.0
 76
     0
330
70
  0
MATERIAL
  5
19
102
{ACAD_XDICTIONARY
360
1A
102
}
102
{ACAD_REACTORS
330
10
102
}
330
10
100
AcDbMaterial
  1
ByBlock
 72
     0
 43
0.0208333333333333
 43
0.0
 43
0.0
 43
0.0
 43
0.0
 43
0.0208333333333333
 43
0.0
 43
0.0
 43
0.0
 43
0.0
 43
1.0
 43
0.0
 43
0.0
 43
0.0
 43
0.0
 43
1.0
 77
     0
 47
0.0208333333333333
 47
0.0
 47
0.0
 47
0.0
 47
0.0
 47
0.0208333333333333
 47
0.0
 47
0.0
 47
0.0
 47
0.0
 47
1.0
 47
0.0
 47
0.0
 47
0.0
 47
0.0
 47
1.0
171
     0
 49
0.0208333333333333
 49
0.0
 49
0.0
 49
0.0
 49
0.0
 49
0.0208333333333333
 49
0.0
 49
0.0
 49
0.0
 49
0.0
 49
1.0
 49
0.0
 49
0.0
 49
0.0
 49
0.0
 49
1.0
175
     0
142
0.0208333333333333
142
0.0
142
0.0
142
0.0
142
0.0
142
0.0208333333333333
142
0.0
142
0.0
142
0.0
142
0.0
142
1.0
142
0.0
142
0.0
142
0.0
142
0.0
142
1.0
179
     0
144
0.0208333333333333
144
0.0
144
0.0
144
0.0
144
0.0
144
0.0208333333333333
144
0.0
144
0.0
144
0.0
144
0.0
144
1.0
144
0.0
144
0.0
144
0.0
144
0.0
144
1.0
147
0.0208333333333333
147
0.0
147
0.0
147
0.0
147
0.0
147
0.0208333333333333
147
0.0
147
0.0
147
0.0
147
0.0
147
1.0
147
0.0
147
0.0
147
0.0
147
0.0
147
1.0
  0
MATERIAL
  5
11
102
{ACAD_XDICTIONARY
360
12
102
}
102
{ACAD_REACTORS
330
10
102
}
330
10
100
AcDbMaterial
  1
ByLayer
 72
     0
 43
0.0208333333333333
 43
0.0
 43
0.0
 43
0.0
 43
0.0
 43
0.0208333333333333
 43
0.0
 43
0.0
 43
0.0
 43
0.0
 43
1.0
 43
0.0
 43
0.0
 43
0.0
 43
0.0
 43
1.0
 77
     0
 47
0.0208333333333333
 47
0.0
 47
0.0
 47
0.0
 47
0.0
 47
0.0208333333333333
 47
0.0
 47
0.0
 47
0.0
 47
0.0
 47
1.0
 47
0.0
 47
0.0
 47
0.0
 47
0.0
 47
1.0
171
     0
 49
0.0208333333333333
 49
0.0
 49
0.0
 49
0.0
 49
0.0
 49
0.0208333333333333
 49
0.0
 49
0.0
 49
0.0
 49
0.0
 49
1.0
 49
0.0
 49
0.0
 49
0.0
 49
0.0
 49
1.0
175
     0
142
0.0208333333333333
142
0.0
142
0.0
142
0.0
142
0.0
142
0.0208333333333333
142
0.0
142
0.0
142
0.0
142
0.0
142
1.0
142
0.0
142
0.0
142
0.0
142
0.0
142
1.0
179
     0
144
0.0208333333333333
144
0.0
144
0.0
144
0.0
144
0.0
144
0.0208333333333333
144
0.0
144
0.0
144
0.0
144
0.0
144
1.0
144
0.0
144
0.0
144
0.0
144
0.0
144
1.0
147
0.0208333333333333
147
0.0
147
0.0
147
0.0
147
0.0
147
0.0208333333333333
147
0.0
147
0.0
147
0.0
147
0.0
147
1.0
147
0.0
147
0.0
147
0.0
147
0.0
147
1.0
  0
MATERIAL
  5
21
102
{ACAD_XDICTIONARY
360
22
102
}
102
{ACAD_REACTORS
330
10
102
}
330
10
100
AcDbMaterial
  1
Global
 72
     0
 43
0.0208333333333333
 43
0.0
 43
0.0
 43
0.0
 43
0.0
 43
0.0208333333333333
 43
0.0
 43
0.0
 43
0.0
 43
0.0
 43
1.0
 43
0.0
 43
0.0
 43
0.0
 43
0.0
 43
1.0
 77
     0
 47
0.0208333333333333
 47
0.0
 47
0.0
 47
0.0
 47
0.0
 47
0.0208333333333333
 47
0.0
 47
0.0
 47
0.0
 47
0.0
 47
1.0
 47
0.0
 47
0.0
 47
0.0
 47
0.0
 47
1.0
171
     0
 49
0.0208333333333333
 49
0.0
 49
0.0
 49
0.0
 49
0.0
 49
0.0208333333333333
 49
0.0
 49
0.0
 49
0.0
 49
0.0
 49
1.0
 49
0.0
 49
0.0
 49
0.0
 49
0.0
 49
1.0
175
     0
142
0.0208333333333333
142
0.0
142
0.0
142
0.0
142
0.0
142
0.0208333333333333
142
0.0
142
0.0
142
0.0
142
0.0
142
1.0
142
0.0
142
0.0
142
0.0
142
0.0
142
1.0
179
     0
144
0.0208333333333333
144
0.0
144
0.0
144
0.0
144
0.0
144
0.0208333333333333
144
0.0
144
0.0
144
0.0
144
0.0
144
1.0
144
0.0
144
0.0
144
0.0
144
0.0
144
1.0
147
0.0208333333333333
147
0.0
147
0.0
147
0.0
147
0.0
147
0.0208333333333333
147
0.0
147
0.0
147
0.0
147
0.0
147
1.0
147
0.0
147
0.0
147
0.0
147
0.0
147
1.0
  0
MLEADERSTYLE
  5
67
102
{ACAD_REACTORS
330
66
102
}
330
66
100
AcDbMLeaderStyle
179
     2
170
     2
171
     1
172
     0
 90
        2
 40
0.0
 41
0.0
173
     1
 91
-1056964608
340
5B
 92
       -2
290
     1
 42
0.09
291
     1
 43
0.36
  3
Standard
 44
0.18
300

342
55
174
     1
178
     6
175
     1
176
     0
 93
-1056964608
 45
0.18
292
     0
297
     0
 46
0.18
 94
-1056964608
 47
1.0
 49
1.0
140
1.0
293
     1
141
0.0
294
     1
177
     0
142
1.0
295
     1
296
     0
143
0.125
271
     0
272
     9
273
     9
298
     1
  0
MLINESTYLE
  5
60
102
{ACAD_REACTORS
330
5F
102
}
330
5F
100
AcDbMlineStyle
  2
STANDARD
 70
     0
  3

 62
   256
 51
90.0
 52
90.0
 71
     2
 49
0.5
 62
   256
  6
BYLAYER
 49
-0.5
 62
   256
  6
BYLAYER
  0
ACDBPLACEHOLDER
  5
F
102
{ACAD_REACTORS
330
E
102
}
330
E
  0
SCALE
  5
43
102
{ACAD_REACTORS
330
42
102
}
330
42
100
AcDbScale
 70
     0
300
1:1
140
1.0
141
1.0
290
     1
  0
SCALE
  5
44
102
{ACAD_REACTORS
330
42
102
}
330
42
100
AcDbScale
 70
     0
300
1/128" = 1'-0"
140
0.0078125
141
12.0
290
     0
  0
SCALE
  5
45
102
{ACAD_REACTORS
330
42
102
}
330
42
100
AcDbScale
 70
     0
300
1/64" = 1'-0"
140
0.015625
141
12.0
290
     0
  0
SCALE
  5
46
102
{ACAD_REACTORS
330
42
102
}
330
42
100
AcDbScale
 70
     0
300
1/32" = 1'-0"
140
0.03125
141
12.0
290
     0
  0
SCALE
  5
47
102
{ACAD_REACTORS
330
42
102
}
330
42
100
AcDbScale
 70
     0
300
1/16" = 1'-0"
140
0.0625
141
12.0
290
     0
  0
SCALE
  5
48
102
{ACAD_REACTORS
330
42
102
}
330
42
100
AcDbScale
 70
     0
300
3/32" = 1'-0"
140
0.09375
141
12.0
290
     0
  0
SCALE
  5
49
102
{ACAD_REACTORS
330
42
102
}
330
42
100
AcDbScale
 70
     0
300
1/8" = 1'-0"
140
0.125
141
12.0
290
     0
  0
SCALE
  5
4A
102
{ACAD_REACTORS
330
42
102
}
330
42
100
AcDbScale
 70
     0
300
3/16" = 1'-0"
140
0.1875
141
12.0
290
     0
  0
SCALE
  5
4B
102
{ACAD_REACTORS
330
42
102
}
330
42
100
AcDbScale
 70
     0
300
1/4" = 1'-0"
140
0.25
141
12.0
290
     0
  0
SCALE
  5
4C
102
{ACAD_REACTORS
330
42
102
}
330
42
100
AcDbScale
 70
     0
300
3/8" = 1'-0"
140
0.375
141
12.0
290
     0
  0
SCALE
  5
4D
102
{ACAD_REACTORS
330
42
102
}
330
42
100
AcDbScale
 70
     0
300
1/2" = 1'-0"
140
0.5
141
12.0
290
     0
  0
SCALE
  5
4E
102
{ACAD_REACTORS
330
42
102
}
330
42
100
AcDbScale
 70
     0
300
3/4" = 1'-0"
140
0.75
141
12.0
290
     0
  0
SCALE
  5
4F
102
{ACAD_REACTORS
330
42
102
}
330
42
100
AcDbScale
 70
     0
300
1" = 1'-0"
140
1.0
141
12.0
290
     0
  0
SCALE
  5
50
102
{ACAD_REACTORS
330
42
102
}
330
42
100
AcDbScale
 70
     0
300
1-1/2" = 1'-0"
140
1.5
141
12.0
290
     0
  0
SCALE
  5
51
102
{ACAD_REACTORS
330
42
102
}
330
42
100
AcDbScale
 70
     0
300
3" = 1'-0"
140
3.0
141
12.0
290
     0
  0
SCALE
  5
52
102
{ACAD_REACTORS
330
42
102
}
330
42
100
AcDbScale
 70
     0
300
6" = 1'-0"
140
6.0
141
12.0
290
     0
  0
SCALE
  5
53
102
{ACAD_REACTORS
330
42
102
}
330
42
100
AcDbScale
 70
     0
300
1'-0" = 1'-0"
140
12.0
141
12.0
290
     0
  0
ACDBSECTIONVIEWSTYLE
  5
69
102
{ACAD_REACTORS
330
68
102
}
330
68
100
AcDbModelDocViewStyle
 70
     0
  3
Imperial24
290
     1
300
Imperial24
 90
        0
100
AcDbSectionViewStyle
 70
     0
 71
     0
 90
       78
 71
     1
340
55
 62
   256
 40
0.24
340
0
340
0
 62
   256
 40
0.24
300
I, O, Q, S, X, Z
 40
0.48
 90
        3
 40
0.18
 90
        1
 71
     2
340
5D
 90
       25
 62
   256
340
5D
 90
       50
 62
   256
 40
0.24
 40
0.0
 40
0.24
 71
     3
340
55
 62
   256
 40
0.24
 90
        1
 40
0.75
 90
        1
300
%<\AcVar ViewType \f "%tc1">% %<\AcVar ViewSectionStartId>%-%<\AcVar ViewSectionEndId>%\PVARIA %<\AcVar ViewScale \f "%sn">%
 71
     4
 62
   256
 62
   257
300
ANSI31
 40
1.0
 90
        0
290
     0
290
     0
 90
        6
 40
0.0
 40
1.570796326794896
 40
0.2617993877991494
 40
1.308996938995747
 40
-0.2617993877991494
 40
1.832595714594046
  0
TABLESTYLE
  5
65
102
{ACAD_XDICTIONARY
360
345
102
}
102
{ACAD_REACTORS
330
64
102
}
330
64
100
AcDbTableStyle
280
     0
  3
Standard
 70
     0
 71
     0
 40
0.06
 41
0.06
280
     0
281
     0
  7
Standard
140
0.18
170
     2
 62
     0
 63
     7
283
     0
 90
      512
 91
        0
  1

274
    -2
284
     1
 64
     0
275
    -2
285
     1
 65
     0
276
    -2
286
     1
 66
     0
277
    -2
287
     1
 67
     0
278
    -2
288
     1
 68
     0
279
    -2
289
     1
 69
     0
  7
Standard
140
0.25
170
     5
 62
     0
 63
     7
283
     0
 90
      512
 91
        0
  1

274
    -2
284
     1
 64
     0
275
    -2
285
     1
 65
     0
276
    -2
286
     1
 66
     0
277
    -2
287
     1
 67
     0
278
    -2
288
     1
 68
     0
279
    -2
289
     1
 69
     0
  7
Standard
140
0.18
170
     5
 62
     0
 63
     7
283
     0
 90
      512
 91
        0
  1

274
    -2
284
     1
 64
     0
275
    -2
285
     1
 65
     0
276
    -2
286
     1
 66
     0
277
    -2
287
     1
 67
     0
278
    -2
288
     1
 68
     0
279
    -2
289
     1
 69
     0
  0
VISUALSTYLE
  5
2F
102
{ACAD_REACTORS
330
29
102
}
330
29
100
AcDbVisualStyle
  2
2dWireframe
 70
     4
177
     3
291
     0
 70
    58
 90
        0
176
     1
 90
        2
176
     1
 90
        0
176
     1
 90
        0
176
     1
 40
0.6
176
     1
 40
30.0
176
     1
 62
     7
420
 16777215
176
     1
 90
        1
176
     1
 90
        4
176
     1
 62
     7
176
     1
 62
   257
176
     1
 90
        1
176
     1
 90
        1
176
     1
 40
1.0
176
     1
 90
        0
176
     1
 62
   257
176
     1
 40
1.0
176
     1
 90
        1
176
     1
 90
        6
176
     1
 90
        2
176
     1
 62
     7
176
     1
 90
        5
176
     1
 90
        0
176
     1
 90
        0
176
     1
290
     0
176
     1
 90
        1
176
     1
 40
0.0
176
     1
 90
        0
176
     1
290
     1
176
     1
290
     1
176
     1
290
     0
176
     1
290
     0
176
     1
290
     0
176
     1
290
     0
176
     1
290
     0
176
     1
290
     0
176
     1
290
     0
176
     1
 90
       50
176
     1
 40
0.0
176
     1
 40
1.0
176
     1
 90
        0
176
     1
 62
    18
420
        0
176
     1
 90
       50
176
     1
 90
        3
176
     1
 62
     5
420
      255
176
     1
290
     0
176
     1
 90
       50
176
     1
 90
       50
176
     1
 90
       50
176
     1
290
     0
176
     1
 90
       50
176
     1
 62
   256
176
     0
 40
1.0
176
     0
 90
        2
176
     1
  1
strokes_ogs.tif
176
     1
290
     0
176
     1
 40
1.0
176
     1
 40
1.0
176
     1
  0
VISUALSTYLE
  5
2E
102
{ACAD_REACTORS
330
29
102
}
330
29
100
AcDbVisualStyle
  2
Basic
 70
     7
177
     3
291
     1
 70
    58
 90
        1
176
     1
 90
        0
176
     1
 90
        1
176
     1
 90
        0
176
     1
 40
0.6
176
     1
 40
30.0
176
     1
 62
     7
420
 16777215
176
     1
 90
        0
176
     1
 90
        4
176
     1
 62
     7
176
     1
 62
   257
176
     1
 90
        1
176
     1
 90
        1
176
     1
 40
1.0
176
     1
 90
        8
176
     1
 62
     7
176
     1
 40
1.0
176
     1
 90
        1
176
     1
 90
        6
176
     1
 90
        2
176
     1
 62
     7
176
     1
 90
        5
176
     1
 90
        0
176
     1
 90
        0
176
     1
290
     0
176
     1
 90
        1
176
     1
 40
0.0
176
     1
 90
        0
176
     1
290
     0
176
     1
290
     1
176
     1
290
     1
176
     1
290
     0
176
     1
290
     0
176
     1
290
     0
176
     1
290
     0
176
     1
290
     0
176
     1
290
     0
176
     1
 90
       50
176
     1
 40
0.0
176
     1
 40
1.0
176
     1
 90
        0
176
     1
 62
    18
420
        0
176
     1
 90
       50
176
     1
 90
        3
176
     1
 62
     5
420
      255
176
     1
290
     0
176
     1
 90
       50
176
     1
 90
       50
176
     1
 90
       50
176
     1
290
     0
176
     1
 90
       50
176
     1
 62
   256
176
     0
 40
1.0
176
     0
 90
        2
176
     1
  1
strokes_ogs.tif
176
     1
290
     0
176
     1
 40
1.0
176
     1
 40
1.0
176
     1
  0
VISUALSTYLE
  5
35
102
{ACAD_REACTORS
330
29
102
}
330
29
100
AcDbVisualStyle
  2
Brighten
 70
    12
177
     3
291
     1
 70
    58
 90
        2
176
     1
 90
        2
176
     1
 90
        0
176
     1
 90
        0
176
     1
 40
0.6
176
     1
 40
30.0
176
     1
 62
     7
420
 16777215
176
     1
 90
        1
176
     1
 90
        4
176
     1
 62
     7
176
     1
 62
   257
176
     1
 90
        1
176
     1
 90
        1
176
     1
 40
1.0
176
     1
 90
        8
176
     1
 62
     7
176
     1
 40
1.0
176
     1
 90
        1
176
     1
 90
        6
176
     1
 90
        2
176
     1
 62
     7
176
     1
 90
        5
176
     1
 90
        0
176
     1
 90
        0
176
     1
290
     0
176
     1
 90
        1
176
     1
 40
50.0
176
     1
 90
        0
176
     1
290
     0
176
     1
290
     1
176
     1
290
     1
176
     1
290
     0
176
     1
290
     0
176
     1
290
     0
176
     1
290
     0
176
     1
290
     0
176
     1
290
     0
176
     1
 90
       50
176
     1
 40
0.0
176
     1
 40
1.0
176
     1
 90
        0
176
     1
 62
    18
420
        0
176
     1
 90
       50
176
     1
 90
        3
176
     1
 62
     5
420
      255
176
     1
290
     0
176
     1
 90
       50
176
     1
 90
       50
176
     1
 90
       50
176
     1
290
     0
176
     1
 90
       50
176
     1
 62
   256
176
     0
 40
1.0
176
     0
 90
        2
176
     1
  1
strokes_ogs.tif
176
     1
290
     0
176
     1
 40
1.0
176
     1
 40
1.0
176
     1
  0
VISUALSTYLE
  5
39
102
{ACAD_REACTORS
330
29
102
}
330
29
100
AcDbVisualStyle
  2
ColorChange
 70
    16
177
     3
291
     1
 70
    58
 90
        2
176
     1
 90
        2
176
     1
 90
        3
176
     1
 90
        0
176
     1
 40
0.6
176
     1
 40
30.0
176
     1
 62
     8
420
  8421504
176
     1
 90
        1
176
     1
 90
        4
176
     1
 62
     7
176
     1
 62
   257
176
     1
 90
        1
176
     1
 90
        1
176
     1
 40
1.0
176
     1
 90
        8
176
     1
 62
     8
420
  8421504
176
     1
 40
1.0
176
     1
 90
        1
176
     1
 90
        6
176
     1
 90
        2
176
     1
 62
     7
176
     1
 90
        5
176
     1
 90
        0
176
     1
 90
        0
176
     1
290
     0
176
     1
 90
        1
176
     1
 40
0.0
176
     1
 90
        0
176
     1
290
     0
176
     1
290
     1
176
     1
290
     1
176
     1
290
     0
176
     1
290
     0
176
     1
290
     0
176
     1
290
     0
176
     1
290
     0
176
     1
290
     0
176
     1
 90
       50
176
     1
 40
0.0
176
     1
 40
1.0
176
     1
 90
        0
176
     1
 62
    18
420
        0
176
     1
 90
       50
176
     1
 90
        3
176
     1
 62
     5
420
      255
176
     1
290
     0
176
     1
 90
       50
176
     1
 90
       50
176
     1
 90
       50
176
     1
290
     0
176
     1
 90
       50
176
     1
 62
   256
176
     0
 40
1.0
176
     0
 90
        2
176
     1
  1
strokes_ogs.tif
176
     1
290
     0
176
     1
 40
1.0
176
     1
 40
1.0
176
     1
  0
VISUALSTYLE
  5
32
102
{ACAD_REACTORS
330
29
102
}
330
29
100
AcDbVisualStyle
  2
Conceptual
 70
     9
177
     3
291
     0
 70
    58
 90
        3
176
     1
 90
        2
176
     1
 90
        0
176
     1
 90
        0
176
     1
 40
0.6
176
     1
 40
30.0
176
     1
 62
     7
420
 16777215
176
     1
 90
        2
176
     1
 90
        2
176
     1
 62
     7
176
     1
 62
   257
176
     1
 90
        1
176
     1
 90
        1
176
     1
 40
179.0
176
     1
 90
        8
176
     1
 62
     7
176
     1
 40
1.0
176
     1
 90
        1
176
     1
 90
        6
176
     1
 90
        2
176
     1
 62
     7
176
     1
 90
        3
176
     1
 90
        0
176
     1
 90
        0
176
     1
290
     0
176
     1
 90
        1
176
     1
 40
0.0
176
     1
 90
        0
176
     1
290
     0
176
     1
290
     1
176
     1
290
     1
176
     1
290
     0
176
     1
290
     0
176
     1
290
     0
176
     1
290
     0
176
     1
290
     0
176
     1
290
     0
176
     1
 90
       50
176
     1
 40
0.0
176
     1
 40
1.0
176
     1
 90
        0
176
     1
 62
    18
420
        0
176
     1
 90
       50
176
     1
 90
        3
176
     1
 62
     5
420
      255
176
     1
290
     0
176
     1
 90
       50
176
     1
 90
       50
176
     1
 90
       50
176
     1
290
     0
176
     1
 90
       50
176
     1
 62
   256
176
     0
 40
1.0
176
     0
 90
        2
176
     1
  1
strokes_ogs.tif
176
     1
290
     0
176
     1
 40
1.0
176
     1
 40
1.0
176
     1
  0
VISUALSTYLE
  5
34
102
{ACAD_REACTORS
330
29
102
}
330
29
100
AcDbVisualStyle
  2
Dim
 70
    11
177
     3
291
     1
 70
    58
 90
        2
176
     1
 90
        2
176
     1
 90
        0
176
     1
 90
        0
176
     1
 40
0.6
176
     1
 40
30.0
176
     1
 62
     7
420
 16777215
176
     1
 90
        1
176
     1
 90
        4
176
     1
 62
     7
176
     1
 62
   257
176
     1
 90
        1
176
     1
 90
        1
176
     1
 40
1.0
176
     1
 90
        8
176
     1
 62
     7
176
     1
 40
1.0
176
     1
 90
        1
176
     1
 90
        6
176
     1
 90
        2
176
     1
 62
     7
176
     1
 90
        5
176
     1
 90
        0
176
     1
 90
        0
176
     1
290
     0
176
     1
 90
        1
176
     1
 40
-50.0
176
     1
 90
        0
176
     1
290
     0
176
     1
290
     1
176
     1
290
     1
176
     1
290
     0
176
     1
290
     0
176
     1
290
     0
176
     1
290
     0
176
     1
290
     0
176
     1
290
     0
176
     1
 90
       50
176
     1
 40
0.0
176
     1
 40
1.0
176
     1
 90
        0
176
     1
 62
    18
420
        0
176
     1
 90
       50
176
     1
 90
        3
176
     1
 62
     5
420
      255
176
     1
290
     0
176
     1
 90
       50
176
     1
 90
       50
176
     1
 90
       50
176
     1
290
     0
176
     1
 90
       50
176
     1
 62
   256
176
     0
 40
1.0
176
     0
 90
        2
176
     1
  1
strokes_ogs.tif
176
     1
290
     0
176
     1
 40
1.0
176
     1
 40
1.0
176
     1
  0
VISUALSTYLE
  5
41
102
{ACAD_REACTORS
330
29
102
}
330
29
100
AcDbVisualStyle
  2
EdgeColorOff
 70
    22
177
     3
291
     1
 70
    58
 90
        2
176
     0
 90
        2
176
     0
 90
        0
176
     0
 90
        0
176
     0
 40
0.6
176
     0
 40
30.0
176
     0
 62
     7
420
 16777215
176
     0
 90
        1
176
     0
 90
        4
176
     0
 62
     7
176
     0
 62
   257
176
     0
 90
        1
176
     0
 90
        1
176
     0
 40
1.0
176
     0
 90
        8
176
     2
 62
     7
176
     0
 40
1.0
176
     0
 90
        1
176
     0
 90
        6
176
     0
 90
        2
176
     0
 62
     7
176
     0
 90
        5
176
     0
 90
        0
176
     0
 90
        0
176
     0
290
     0
176
     0
 90
        1
176
     0
 40
0.0
176
     0
 90
        0
176
     0
290
     0
176
     0
290
     1
176
     0
290
     1
176
     0
290
     0
176
     0
290
     0
176
     0
290
     0
176
     0
290
     0
176
     0
290
     0
176
     0
290
     0
176
     0
 90
       50
176
     0
 40
0.0
176
     0
 40
1.0
176
     0
 90
        0
176
     0
 62
    18
420
        0
176
     0
 90
       50
176
     0
 90
        3
176
     0
 62
     5
420
      255
176
     0
290
     0
176
     0
 90
       50
176
     0
 90
       50
176
     0
 90
       50
176
     0
290
     0
176
     0
 90
       50
176
     0
 62
   256
176
     0
 40
1.0
176
     0
 90
        2
176
     0
  1
strokes_ogs.tif
176
     0
290
     0
176
     0
 40
1.0
176
     0
 40
1.0
176
     0
  0
VISUALSTYLE
  5
38
102
{ACAD_REACTORS
330
29
102
}
330
29
100
AcDbVisualStyle
  2
Facepattern
 70
    15
177
     3
291
     1
 70
    58
 90
        2
176
     1
 90
        2
176
     1
 90
        0
176
     1
 90
        0
176
     1
 40
0.6
176
     1
 40
30.0
176
     1
 62
     7
420
 16777215
176
     1
 90
        1
176
     1
 90
        4
176
     1
 62
     7
176
     1
 62
   257
176
     1
 90
        1
176
     1
 90
        1
176
     1
 40
1.0
176
     1
 90
        8
176
     1
 62
     7
176
     1
 40
1.0
176
     1
 90
        1
176
     1
 90
        6
176
     1
 90
        2
176
     1
 62
     7
176
     1
 90
        5
176
     1
 90
        0
176
     1
 90
        0
176
     1
290
     0
176
     1
 90
        1
176
     1
 40
0.0
176
     1
 90
        0
176
     1
290
     0
176
     1
290
     1
176
     1
290
     1
176
     1
290
     0
176
     1
290
     0
176
     1
290
     0
176
     1
290
     0
176
     1
290
     0
176
     1
290
     0
176
     1
 90
       50
176
     1
 40
0.0
176
     1
 40
1.0
176
     1
 90
        0
176
     1
 62
    18
420
        0
176
     1
 90
       50
176
     1
 90
        3
176
     1
 62
     5
420
      255
176
     1
290
     0
176
     1
 90
       50
176
     1
 90
       50
176
     1
 90
       50
176
     1
290
     0
176
     1
 90
       50
176
     1
 62
   256
176
     0
 40
1.0
176
     0
 90
        2
176
     1
  1
strokes_ogs.tif
176
     1
290
     0
176
     1
 40
1.0
176
     1
 40
1.0
176
     1
  0
VISUALSTYLE
  5
2A
102
{ACAD_REACTORS
330
29
102
}
330
29
100
AcDbVisualStyle
  2
Flat
 70
     0
177
     3
291
     1
 70
    58
 90
        2
176
     1
 90
        1
176
     1
 90
        1
176
     1
 90
        2
176
     1
 40
0.6
176
     1
 40
30.0
176
     1
 62
     7
420
 16777215
176
     1
 90
        0
176
     1
 90
        0
176
     1
 62
     7
176
     1
 62
   257
176
     1
 90
        1
176
     1
 90
        1
176
     1
 40
1.0
176
     1
 90
        8
176
     1
 62
     7
176
     1
 40
1.0
176
     1
 90
        1
176
     1
 90
        6
176
     1
 90
        2
176
     1
 62
     7
176
     1
 90
        5
176
     1
 90
        0
176
     1
 90
        0
176
     1
290
     0
176
     1
 90
       13
176
     1
 40
0.0
176
     1
 90
        0
176
     1
290
     0
176
     1
290
     1
176
     1
290
     1
176
     1
290
     0
176
     1
290
     0
176
     1
290
     0
176
     1
290
     0
176
     1
290
     0
176
     1
290
     0
176
     1
 90
       50
176
     1
 40
0.0
176
     1
 40
1.0
176
     1
 90
        0
176
     1
 62
    18
420
        0
176
     1
 90
       50
176
     1
 90
        3
176
     1
 62
     5
420
      255
176
     1
290
     0
176
     1
 90
       50
176
     1
 90
       50
176
     1
 90
       50
176
     1
290
     0
176
     1
 90
       50
176
     1
 62
   256
176
     0
 40
1.0
176
     0
 90
        2
176
     1
  1
strokes_ogs.tif
176
     1
290
     0
176
     1
 40
1.0
176
     1
 40
1.0
176
     1
  0
VISUALSTYLE
  5
2B
102
{ACAD_REACTORS
330
29
102
}
330
29
100
AcDbVisualStyle
  2
FlatWithEdges
 70
     1
177
     3
291
     1
 70
    58
 90
        2
176
     1
 90
        1
176
     1
 90
        1
176
     1
 90
        2
176
     1
 40
0.6
176
     1
 40
30.0
176
     1
 62
     7
420
 16777215
176
     1
 90
        1
176
     1
 90
        0
176
     1
 62
     7
176
     1
 62
   257
176
     1
 90
        1
176
     1
 90
        1
176
     1
 40
1.0
176
     1
 90
        0
176
     1
 62
   257
176
     1
 40
1.0
176
     1
 90
        1
176
     1
 90
        6
176
     1
 90
        2
176
     1
 62
     7
176
     1
 90
        5
176
     1
 90
        0
176
     1
 90
        0
176
     1
290
     0
176
     1
 90
       13
176
     1
 40
0.0
176
     1
 90
        0
176
     1
290
     0
176
     1
290
     1
176
     1
290
     1
176
     1
290
     0
176
     1
290
     0
176
     1
290
     0
176
     1
290
     0
176
     1
290
     0
176
     1
290
     0
176
     1
 90
       50
176
     1
 40
0.0
176
     1
 40
1.0
176
     1
 90
        0
176
     1
 62
    18
420
        0
176
     1
 90
       50
176
     1
 90
        3
176
     1
 62
     5
420
      255
176
     1
290
     0
176
     1
 90
       50
176
     1
 90
       50
176
     1
 90
       50
176
     1
290
     0
176
     1
 90
       50
176
     1
 62
   256
176
     0
 40
1.0
176
     0
 90
        2
176
     1
  1
strokes_ogs.tif
176
     1
290
     0
176
     1
 40
1.0
176
     1
 40
1.0
176
     1
  0
VISUALSTYLE
  5
2C
102
{ACAD_REACTORS
330
29
102
}
330
29
100
AcDbVisualStyle
  2
Gouraud
 70
     2
177
     3
291
     1
 70
    58
 90
        2
176
     1
 90
        2
176
     1
 90
        1
176
     1
 90
        2
176
     1
 40
0.6
176
     1
 40
30.0
176
     1
 62
     7
420
 16777215
176
     1
 90
        0
176
     1
 90
        0
176
     1
 62
     7
176
     1
 62
   257
176
     1
 90
        1
176
     1
 90
        1
176
     1
 40
1.0
176
     1
 90
        0
176
     1
 62
     7
176
     1
 40
1.0
176
     1
 90
        1
176
     1
 90
        6
176
     1
 90
        2
176
     1
 62
     7
176
     1
 90
        5
176
     1
 90
        0
176
     1
 90
        0
176
     1
290
     0
176
     1
 90
       13
176
     1
 40
0.0
176
     1
 90
        0
176
     1
290
     0
176
     1
290
     1
176
     1
290
     1
176
     1
290
     0
176
     1
290
     0
176
     1
290
     0
176
     1
290
     0
176
     1
290
     0
176
     1
290
     0
176
     1
 90
       50
176
     1
 40
0.0
176
     1
 40
1.0
176
     1
 90
        0
176
     1
 62
    18
420
        0
176
     1
 90
       50
176
     1
 90
        3
176
     1
 62
     5
420
      255
176
     1
290
     0
176
     1
 90
       50
176
     1
 90
       50
176
     1
 90
       50
176
     1
290
     0
176
     1
 90
       50
176
     1
 62
   256
176
     0
 40
1.0
176
     0
 90
        2
176
     1
  1
strokes_ogs.tif
176
     1
290
     0
176
     1
 40
1.0
176
     1
 40
1.0
176
     1
  0
VISUALSTYLE
  5
2D
102
{ACAD_REACTORS
330
29
102
}
330
29
100
AcDbVisualStyle
  2
GouraudWithEdges
 70
     3
177
     3
291
     1
 70
    58
 90
        2
176
     1
 90
        2
176
     1
 90
        1
176
     1
 90
        2
176
     1
 40
0.6
176
     1
 40
30.0
176
     1
 62
     7
420
 16777215
176
     1
 90
        1
176
     1
 90
        0
176
     1
 62
     7
176
     1
 62
   257
176
     1
 90
        1
176
     1
 90
        1
176
     1
 40
1.0
176
     1
 90
        0
176
     1
 62
   257
176
     1
 40
1.0
176
     1
 90
        1
176
     1
 90
        6
176
     1
 90
        2
176
     1
 62
     7
176
     1
 90
        5
176
     1
 90
        0
176
     1
 90
        0
176
     1
290
     0
176
     1
 90
       13
176
     1
 40
0.0
176
     1
 90
        0
176
     1
290
     0
176
     1
290
     1
176
     1
290
     1
176
     1
290
     0
176
     1
290
     0
176
     1
290
     0
176
     1
290
     0
176
     1
290
     0
176
     1
290
     0
176
     1
 90
       50
176
     1
 40
0.0
176
     1
 40
1.0
176
     1
 90
        0
176
     1
 62
    18
420
        0
176
     1
 90
       50
176
     1
 90
        3
176
     1
 62
     5
420
      255
176
     1
290
     0
176
     1
 90
       50
176
     1
 90
       50
176
     1
 90
       50
176
     1
290
     0
176
     1
 90
       50
176
     1
 62
   256
176
     0
 40
1.0
176
     0
 90
        2
176
     1
  1
strokes_ogs.tif
176
     1
290
     0
176
     1
 40
1.0
176
     1
 40
1.0
176
     1
  0
VISUALSTYLE
  5
31
102
{ACAD_REACTORS
330
29
102
}
330
29
100
AcDbVisualStyle
  2
Hidden
 70
     6
177
     3
291
     0
 70
    58
 90
        1
176
     1
 90
        2
176
     1
 90
        2
176
     1
 90
        0
176
     1
 40
0.6
176
     1
 40
30.0
176
     1
 62
     7
420
 16777215
176
     1
 90
        2
176
     1
 90
        2
176
     1
 62
     7
176
     1
 62
   257
176
     1
 90
        2
176
     1
 90
        1
176
     1
 40
40.0
176
     1
 90
        0
176
     1
 62
   257
176
     1
 40
1.0
176
     1
 90
        1
176
     1
 90
        6
176
     1
 90
        2
176
     1
 62
     7
176
     1
 90
        3
176
     1
 90
        0
176
     1
 90
        0
176
     1
290
     0
176
     1
 90
        1
176
     1
 40
0.0
176
     1
 90
        0
176
     1
290
     0
176
     1
290
     1
176
     1
290
     1
176
     1
290
     0
176
     1
290
     0
176
     1
290
     0
176
     1
290
     0
176
     1
290
     0
176
     1
290
     0
176
     1
 90
       50
176
     1
 40
0.0
176
     1
 40
1.0
176
     1
 90
        0
176
     1
 62
    18
420
        0
176
     1
 90
       50
176
     1
 90
        3
176
     1
 62
     5
420
      255
176
     1
290
     0
176
     1
 90
       50
176
     1
 90
       50
176
     1
 90
       50
176
     1
290
     0
176
     1
 90
       50
176
     1
 62
   256
176
     0
 40
1.0
176
     0
 90
        2
176
     1
  1
strokes_ogs.tif
176
     1
290
     0
176
     1
 40
1.0
176
     1
 40
1.0
176
     1
  0
VISUALSTYLE
  5
3F
102
{ACAD_REACTORS
330
29
102
}
330
29
100
AcDbVisualStyle
  2
JitterOff
 70
    20
177
     3
291
     1
 70
    58
 90
        2
176
     0
 90
        2
176
     0
 90
        0
176
     0
 90
        0
176
     0
 40
0.6
176
     0
 40
30.0
176
     0
 62
     7
420
 16777215
176
     0
 90
        1
176
     0
 90
        4
176
     0
 62
     7
176
     0
 62
   257
176
     0
 90
        1
176
     0
 90
        1
176
     0
 40
1.0
176
     0
 90
       10
176
     2
 62
     7
176
     0
 40
1.0
176
     0
 90
        1
176
     0
 90
        6
176
     0
 90
        2
176
     0
 62
     7
176
     0
 90
        5
176
     0
 90
        0
176
     0
 90
        0
176
     0
290
     0
176
     0
 90
        1
176
     0
 40
0.0
176
     0
 90
        0
176
     0
290
     0
176
     0
290
     1
176
     0
290
     1
176
     0
290
     0
176
     0
290
     0
176
     0
290
     0
176
     0
290
     0
176
     0
290
     0
176
     0
290
     0
176
     0
 90
       50
176
     0
 40
0.0
176
     0
 40
1.0
176
     0
 90
        0
176
     0
 62
    18
420
        0
176
     0
 90
       50
176
     0
 90
        3
176
     0
 62
     5
420
      255
176
     0
290
     0
176
     0
 90
       50
176
     0
 90
       50
176
     0
 90
       50
176
     0
290
     0
176
     0
 90
       50
176
     0
 62
   256
176
     0
 40
1.0
176
     0
 90
        2
176
     0
  1
strokes_ogs.tif
176
     0
290
     0
176
     0
 40
1.0
176
     0
 40
1.0
176
     0
  0
VISUALSTYLE
  5
37
102
{ACAD_REACTORS
330
29
102
}
330
29
100
AcDbVisualStyle
  2
Linepattern
 70
    14
177
     3
291
     1
 70
    58
 90
        2
176
     1
 90
        2
176
     1
 90
        0
176
     1
 90
        0
176
     1
 40
0.6
176
     1
 40
30.0
176
     1
 62
     7
420
 16777215
176
     1
 90
        1
176
     1
 90
        4
176
     1
 62
     7
176
     1
 62
   257
176
     1
 90
        7
176
     1
 90
        7
176
     1
 40
1.0
176
     1
 90
        8
176
     1
 62
     7
176
     1
 40
1.0
176
     1
 90
        1
176
     1
 90
        6
176
     1
 90
        2
176
     1
 62
     7
176
     1
 90
        5
176
     1
 90
        0
176
     1
 90
        0
176
     1
290
     0
176
     1
 90
        1
176
     1
 40
0.0
176
     1
 90
        0
176
     1
290
     0
176
     1
290
     1
176
     1
290
     1
176
     1
290
     0
176
     1
290
     0
176
     1
290
     0
176
     1
290
     0
176
     1
290
     0
176
     1
290
     0
176
     1
 90
       50
176
     1
 40
0.0
176
     1
 40
1.0
176
     1
 90
        0
176
     1
 62
    18
420
        0
176
     1
 90
       50
176
     1
 90
        3
176
     1
 62
     5
420
      255
176
     1
290
     0
176
     1
 90
       50
176
     1
 90
       50
176
     1
 90
       50
176
     1
290
     0
176
     1
 90
       50
176
     1
 62
   256
176
     0
 40
1.0
176
     0
 90
        2
176
     1
  1
strokes_ogs.tif
176
     1
290
     0
176
     1
 40
1.0
176
     1
 40
1.0
176
     1
  0
VISUALSTYLE
  5
40
102
{ACAD_REACTORS
330
29
102
}
330
29
100
AcDbVisualStyle
  2
OverhangOff
 70
    21
177
     3
291
     1
 70
    58
 90
        2
176
     0
 90
        2
176
     0
 90
        0
176
     0
 90
        0
176
     0
 40
0.6
176
     0
 40
30.0
176
     0
 62
     7
420
 16777215
176
     0
 90
        1
176
     0
 90
        4
176
     0
 62
     7
176
     0
 62
   257
176
     0
 90
        1
176
     0
 90
        1
176
     0
 40
1.0
176
     0
 90
        9
176
     2
 62
     7
176
     0
 40
1.0
176
     0
 90
        1
176
     0
 90
        6
176
     0
 90
        2
176
     0
 62
     7
176
     0
 90
        5
176
     0
 90
        0
176
     0
 90
        0
176
     0
290
     0
176
     0
 90
        1
176
     0
 40
0.0
176
     0
 90
        0
176
     0
290
     0
176
     0
290
     1
176
     0
290
     1
176
     0
290
     0
176
     0
290
     0
176
     0
290
     0
176
     0
290
     0
176
     0
290
     0
176
     0
290
     0
176
     0
 90
       50
176
     0
 40
0.0
176
     0
 40
1.0
176
     0
 90
        0
176
     0
 62
    18
420
        0
176
     0
 90
       50
176
     0
 90
        3
176
     0
 62
     5
420
      255
176
     0
290
     0
176
     0
 90
       50
176
     0
 90
       50
176
     0
 90
       50
176
     0
290
     0
176
     0
 90
       50
176
     0
 62
   256
176
     0
 40
1.0
176
     0
 90
        2
176
     0
  1
strokes_ogs.tif
176
     0
290
     0
176
     0
 40
1.0
176
     0
 40
1.0
176
     0
  0
VISUALSTYLE
  5
33
102
{ACAD_REACTORS
330
29
102
}
330
29
100
AcDbVisualStyle
  2
Realistic
 70
     8
177
     3
291
     0
 70
    58
 90
        2
176
     1
 90
        3
176
     1
 90
        0
176
     1
 90
        2
176
     1
 40
0.6
176
     1
 40
30.0
176
     1
 62
     7
420
 16777215
176
     1
 90
        0
176
     1
 90
        0
176
     1
 62
     7
176
     1
 62
   257
176
     1
 90
        1
176
     1
 90
        1
176
     1
 40
1.0
176
     1
 90
        8
176
     1
 62
   257
176
     1
 40
1.0
176
     1
 90
        1
176
     1
 90
        6
176
     1
 90
        2
176
     1
 62
     7
176
     1
 90
        3
176
     1
 90
        0
176
     1
 90
        0
176
     1
290
     0
176
     1
 90
       13
176
     1
 40
0.0
176
     1
 90
        0
176
     1
290
     0
176
     1
290
     1
176
     1
290
     1
176
     1
290
     0
176
     1
290
     0
176
     1
290
     0
176
     1
290
     0
176
     1
290
     0
176
     1
290
     0
176
     1
 90
       50
176
     1
 40
0.0
176
     1
 40
1.0
176
     1
 90
        0
176
     1
 62
    18
420
        0
176
     1
 90
       50
176
     1
 90
        3
176
     1
 62
     5
420
      255
176
     1
290
     0
176
     1
 90
       50
176
     1
 90
       50
176
     1
 90
       50
176
     1
290
     0
176
     1
 90
       50
176
     1
 62
   256
176
     0
 40
1.0
176
     0
 90
        2
176
     1
  1
strokes_ogs.tif
176
     1
290
     0
176
     1
 40
1.0
176
     1
 40
1.0
176
     1
  0
VISUALSTYLE
  5
3E
102
{ACAD_REACTORS
330
29
102
}
330
29
100
AcDbVisualStyle
  2
Shaded
 70
    27
177
     3
291
     0
 70
    58
 90
        2
176
     1
 90
        2
176
     1
 90
        1
176
     1
 90
        2
176
     1
 40
0.6
176
     1
 40
30.0
176
     1
 62
     7
420
 16777215
176
     1
 90
        0
176
     1
 90
        4
176
     1
 62
     7
176
     1
 62
   257
176
     1
 90
        1
176
     1
 90
        1
176
     1
 40
1.0
176
     1
 90
        8
176
     1
 62
   257
176
     1
 40
1.0
176
     1
 90
        1
176
     1
 90
        6
176
     1
 90
        2
176
     1
 62
     8
420
  7895160
176
     1
 90
        3
176
     1
 90
        0
176
     1
 90
        0
176
     1
290
     0
176
     1
 90
        5
176
     1
 40
0.0
176
     1
 90
        0
176
     1
290
     0
176
     1
290
     1
176
     1
290
     1
176
     1
290
     0
176
     1
290
     0
176
     1
290
     0
176
     1
290
     0
176
     1
290
     0
176
     1
290
     0
176
     1
 90
       50
176
     1
 40
0.0
176
     1
 40
1.0
176
     1
 90
        0
176
     1
 62
    18
420
        0
176
     1
 90
       50
176
     1
 90
        3
176
     1
 62
     5
420
      255
176
     1
290
     0
176
     1
 90
       50
176
     1
 90
       50
176
     1
 90
       50
176
     1
290
     0
176
     1
 90
       50
176
     1
 62
   256
176
     0
 40
1.0
176
     0
 90
        2
176
     1
  1
strokes_ogs.tif
176
     1
290
     0
176
     1
 40
1.0
176
     1
 40
1.0
176
     1
  0
VISUALSTYLE
  5
3D
102
{ACAD_REACTORS
330
29
102
}
330
29
100
AcDbVisualStyle
  2
Shaded with edges
 70
    26
177
     3
291
     0
 70
    58
 90
        2
176
     1
 90
        2
176
     1
 90
        1
176
     1
 90
        2
176
     1
 40
0.6
176
     1
 40
30.0
176
     1
 62
     7
420
 16777215
176
     1
 90
        1
176
     1
 90
        2
176
     1
 62
     7
176
     1
 62
   257
176
     1
 90
        2
176
     1
 90
        1
176
     1
 40
1.0
176
     1
 90
        8
176
     1
 62
   257
176
     1
 40
1.0
176
     1
 90
        1
176
     1
 90
        6
176
     1
 90
        2
176
     1
 62
     7
176
     1
 90
        3
176
     1
 90
        0
176
     1
 90
        0
176
     1
290
     0
176
     1
 90
        5
176
     1
 40
0.0
176
     1
 90
        0
176
     1
290
     0
176
     1
290
     1
176
     1
290
     1
176
     1
290
     0
176
     1
290
     0
176
     1
290
     0
176
     1
290
     0
176
     1
290
     0
176
     1
290
     0
176
     1
 90
       50
176
     1
 40
0.0
176
     1
 40
1.0
176
     1
 90
        0
176
     1
 62
    18
420
        0
176
     1
 90
       50
176
     1
 90
        3
176
     1
 62
     5
420
      255
176
     1
290
     0
176
     1
 90
       50
176
     1
 90
       50
176
     1
 90
       50
176
     1
290
     0
176
     1
 90
       50
176
     1
 62
   256
176
     0
 40
1.0
176
     0
 90
        2
176
     1
  1
strokes_ogs.tif
176
     1
290
     0
176
     1
 40
1.0
176
     1
 40
1.0
176
     1
  0
VISUALSTYLE
  5
3A
102
{ACAD_REACTORS
330
29
102
}
330
29
100
AcDbVisualStyle
  2
Shades of Gray
 70
    23
177
     3
291
     0
 70
    58
 90
        2
176
     1
 90
        2
176
     1
 90
        3
176
     1
 90
        0
176
     1
 40
0.6
176
     1
 40
30.0
176
     1
 62
     7
420
 16777215
176
     1
 90
        2
176
     1
 90
        2
176
     1
 62
     7
176
     1
 62
     7
176
     1
 90
        1
176
     1
 90
        1
176
     1
 40
40.0
176
     1
 90
        8
176
     1
 62
     7
176
     1
 40
1.0
176
     1
 90
        1
176
     1
 90
        6
176
     1
 90
        2
176
     1
 62
     7
176
     1
 90
        3
176
     1
 90
        0
176
     1
 90
        0
176
     1
290
     0
176
     1
 90
        1
176
     1
 40
0.0
176
     1
 90
        0
176
     1
290
     0
176
     1
290
     1
176
     1
290
     1
176
     1
290
     0
176
     1
290
     0
176
     1
290
     0
176
     1
290
     0
176
     1
290
     0
176
     1
290
     0
176
     1
 90
       50
176
     1
 40
0.0
176
     1
 40
1.0
176
     1
 90
        0
176
     1
 62
    18
420
        0
176
     1
 90
       50
176
     1
 90
        3
176
     1
 62
     5
420
      255
176
     1
290
     0
176
     1
 90
       50
176
     1
 90
       50
176
     1
 90
       50
176
     1
290
     0
176
     1
 90
       50
176
     1
 62
   256
176
     0
 40
1.0
176
     0
 90
        2
176
     1
  1
strokes_ogs.tif
176
     1
290
     0
176
     1
 40
1.0
176
     1
 40
1.0
176
     1
  0
VISUALSTYLE
  5
3B
102
{ACAD_REACTORS
330
29
102
}
330
29
100
AcDbVisualStyle
  2
Sketchy
 70
    24
177
     3
291
     0
 70
    58
 90
        1
176
     1
 90
        2
176
     1
 90
        2
176
     1
 90
        0
176
     1
 40
0.6
176
     1
 40
30.0
176
     1
 62
     7
420
 16777215
176
     1
 90
        2
176
     1
 90
        2
176
     1
 62
     7
176
     1
 62
     7
176
     1
 90
        1
176
     1
 90
        1
176
     1
 40
40.0
176
     1
 90
       11
176
     1
 62
     7
176
     1
 40
1.0
176
     1
 90
        1
176
     1
 90
        6
176
     1
 90
        2
176
     1
 62
     7
176
     1
 90
        6
176
     1
 90
        0
176
     1
 90
        0
176
     1
290
     0
176
     1
 90
        1
176
     1
 40
0.0
176
     1
 90
        0
176
     1
290
     0
176
     1
290
     1
176
     1
290
     1
176
     1
290
     0
176
     1
290
     0
176
     1
290
     0
176
     1
290
     0
176
     1
290
     0
176
     1
290
     0
176
     1
 90
       50
176
     1
 40
0.0
176
     1
 40
1.0
176
     1
 90
        0
176
     1
 62
    18
420
        0
176
     1
 90
       50
176
     1
 90
        3
176
     1
 62
     5
420
      255
176
     1
290
     0
176
     1
 90
       50
176
     1
 90
       50
176
     1
 90
       50
176
     1
290
     0
176
     1
 90
       50
176
     1
 62
   256
176
     0
 40
1.0
176
     0
 90
        2
176
     1
  1
strokes_ogs.tif
176
     1
290
     0
176
     1
 40
1.0
176
     1
 40
1.0
176
     1
  0
VISUALSTYLE
  5
36
102
{ACAD_REACTORS
330
29
102
}
330
29
100
AcDbVisualStyle
  2
Thicken
 70
    13
177
     3
291
     1
 70
    58
 90
        2
176
     1
 90
        2
176
     1
 90
        0
176
     1
 90
        0
176
     1
 40
0.6
176
     1
 40
30.0
176
     1
 62
     7
420
 16777215
176
     1
 90
        1
176
     1
 90
        4
176
     1
 62
     7
176
     1
 62
   257
176
     1
 90
        1
176
     1
 90
        1
176
     1
 40
1.0
176
     1
 90
       12
176
     1
 62
     7
176
     1
 40
1.0
176
     1
 90
        1
176
     1
 90
        6
176
     1
 90
        2
176
     1
 62
     7
176
     1
 90
        5
176
     1
 90
        0
176
     1
 90
        0
176
     1
290
     0
176
     1
 90
        1
176
     1
 40
0.0
176
     1
 90
        0
176
     1
290
     0
176
     1
290
     1
176
     1
290
     1
176
     1
290
     0
176
     1
290
     0
176
     1
290
     0
176
     1
290
     0
176
     1
290
     0
176
     1
290
     0
176
     1
 90
       50
176
     1
 40
0.0
176
     1
 40
1.0
176
     1
 90
        0
176
     1
 62
    18
420
        0
176
     1
 90
       50
176
     1
 90
        3
176
     1
 62
     5
420
      255
176
     1
290
     0
176
     1
 90
       50
176
     1
 90
       50
176
     1
 90
       50
176
     1
290
     0
176
     1
 90
       50
176
     1
 62
   256
176
     0
 40
1.0
176
     0
 90
        2
176
     1
  1
strokes_ogs.tif
176
     1
290
     0
176
     1
 40
1.0
176
     1
 40
1.0
176
     1
  0
VISUALSTYLE
  5
30
102
{ACAD_REACTORS
330
29
102
}
330
29
100
AcDbVisualStyle
  2
Wireframe
 70
     5
177
     3
291
     0
 70
    58
 90
        0
176
     1
 90
        2
176
     1
 90
        0
176
     1
 90
        0
176
     1
 40
0.6
176
     1
 40
30.0
176
     1
 62
     7
420
 16777215
176
     1
 90
        1
176
     1
 90
        4
176
     1
 62
     7
176
     1
 62
   257
176
     1
 90
        1
176
     1
 90
        1
176
     1
 40
1.0
176
     1
 90
        0
176
     1
 62
   257
176
     1
 40
1.0
176
     1
 90
        1
176
     1
 90
        6
176
     1
 90
        2
176
     1
 62
     7
176
     1
 90
        3
176
     1
 90
        0
176
     1
 90
        0
176
     1
290
     0
176
     1
 90
        1
176
     1
 40
0.0
176
     1
 90
        0
176
     1
290
     0
176
     1
290
     1
176
     1
290
     1
176
     1
290
     0
176
     1
290
     0
176
     1
290
     0
176
     1
290
     0
176
     1
290
     0
176
     1
290
     0
176
     1
 90
       50
176
     1
 40
0.0
176
     1
 40
1.0
176
     1
 90
        0
176
     1
 62
    18
420
        0
176
     1
 90
       50
176
     1
 90
        3
176
     1
 62
     5
420
      255
176
     1
290
     0
176
     1
 90
       50
176
     1
 90
       50
176
     1
 90
       50
176
     1
290
     0
176
     1
 90
       50
176
     1
 62
   256
176
     0
 40
1.0
176
     0
 90
        2
176
     1
  1
strokes_ogs.tif
176
     1
290
     0
176
     1
 40
1.0
176
     1
 40
1.0
176
     1
  0
VISUALSTYLE
  5
3C
102
{ACAD_REACTORS
330
29
102
}
330
29
100
AcDbVisualStyle
  2
X-Ray
 70
    25
177
     3
291
     0
 70
    58
 90
        2
176
     1
 90
        2
176
     1
 90
        1
176
     1
 90
        1
176
     1
 40
0.5
176
     1
 40
30.0
176
     1
 62
     7
420
 16777215
176
     1
 90
        1
176
     1
 90
        0
176
     1
 62
     7
176
     1
 62
   257
176
     1
 90
        1
176
     1
 90
        1
176
     1
 40
1.0
176
     1
 90
        8
176
     1
 62
     7
176
     1
 40
1.0
176
     1
 90
        1
176
     1
 90
        6
176
     1
 90
        2
176
     1
 62
     7
176
     1
 90
        3
176
     1
 90
        0
176
     1
 90
        0
176
     1
290
     0
176
     1
 90
       13
176
     1
 40
0.0
176
     1
 90
        0
176
     1
290
     0
176
     1
290
     1
176
     1
290
     1
176
     1
290
     0
176
     1
290
     0
176
     1
290
     0
176
     1
290
     0
176
     1
290
     0
176
     1
290
     0
176
     1
 90
       50
176
     1
 40
0.0
176
     1
 40
1.0
176
     1
 90
        0
176
     1
 62
    18
420
        0
176
     1
 90
       50
176
     1
 90
        3
176
     1
 62
     5
420
      255
176
     1
290
     0
176
     1
 90
       50
176
     1
 90
       50
176
     1
 90
       50
176
     1
290
     0
176
     1
 90
       50
176
     1
 62
   256
176
     0
 40
1.0
176
     0
 90
        2
176
     1
  1
strokes_ogs.tif
176
     1
290
     0
176
     1
 40
1.0
176
     1
 40
1.0
176
     1
  0
DICTIONARYVAR
  5
344
102
{ACAD_REACTORS
330
33F
102
}
330
33F
100
DictionaryVariables
280
     0
  1
1:1
  0
DICTIONARYVAR
  5
341
102
{ACAD_REACTORS
330
33F
102
}
330
33F
100
DictionaryVariables
280
     0
  1
STANDARD
  0
DICTIONARYVAR
  5
340
102
{ACAD_REACTORS
330
33F
102
}
330
33F
100
DictionaryVariables
280
     0
  1
STANDARD
  0
DICTIONARYVAR
  5
342
102
{ACAD_REACTORS
330
33F
102
}
330
33F
100
DictionaryVariables
280
     0
  1
Imperial24
  0
DICTIONARYVAR
  5
343
102
{ACAD_REACTORS
330
33F
102
}
330
33F
100
DictionaryVariables
280
     0
  1
Imperial24
  0
DICTIONARY
  5
1A
330
19
100
AcDbDictionary
280
     1
281
     1
  3
BUMPTILE
360
1C
  3
DIFFUSETILE
360
1B
  3
OPACITYTILE
360
1F
  3
REFLECTIONTILE
360
1E
  3
REFRACTIONTILE
360
20
  3
SPECULARTILE
360
1D
  0
DICTIONARY
  5
12
330
11
100
AcDbDictionary
280
     1
281
     1
  3
BUMPTILE
360
14
  3
DIFFUSETILE
360
13
  3
FBXASSET
360
EC
  3
OPACITYTILE
360
17
  3
REFLECTIONTILE
360
16
  3
REFRACTIONTILE
360
18
  3
SPECULARTILE
360
15
  0
DICTIONARY
  5
22
330
21
100
AcDbDictionary
280
     1
281
     1
  3
BUMPTILE
360
24
  3
DIFFUSETILE
360
23
  3
OPACITYTILE
360
27
  3
REFLECTIONTILE
360
26
  3
REFRACTIONTILE
360
28
  3
SPECULARTILE
360
25
  0
DICTIONARY
  5
345
330
65
100
AcDbDictionary
280
     1
281
     1
  3
ACAD_ROUNDTRIP_2008_TABLESTYLE_CELLSTYLEMAP
360
346
  0
XRECORD
  5
1C
102
{ACAD_REACTORS
330
1A
102
}
330
1A
100
AcDbXrecord
280
     1
270
     1
271
     1
  0
XRECORD
  5
1B
102
{ACAD_REACTORS
330
1A
102
}
330
1A
100
AcDbXrecord
280
     1
270
     1
271
     1
  0
XRECORD
  5
1F
102
{ACAD_REACTORS
330
1A
102
}
330
1A
100
AcDbXrecord
280
     1
270
     1
271
     1
  0
XRECORD
  5
1E
102
{ACAD_REACTORS
330
1A
102
}
330
1A
100
AcDbXrecord
280
     1
270
     1
271
     1
  0
XRECORD
  5
20
102
{ACAD_REACTORS
330
1A
102
}
330
1A
100
AcDbXrecord
280
     1
270
     1
271
     1
  0
XRECORD
  5
1D
102
{ACAD_REACTORS
330
1A
102
}
330
1A
100
AcDbXrecord
280
     1
270
     1
271
     1
  0
XRECORD
  5
14
102
{ACAD_REACTORS
330
12
102
}
330
12
100
AcDbXrecord
280
     1
270
     1
271
     1
  0
XRECORD
  5
13
102
{ACAD_REACTORS
330
12
102
}
330
12
100
AcDbXrecord
280
     1
270
     1
271
     1
  0
XRECORD
  5
EC
102
{ACAD_REACTORS
330
12
102
}
330
12
100
AcDbXrecord
280
     1
 70
     1
 90
1959938040
 71
     1
  1
EF5BB6EC-6B17-4A0C-AFBE-BC5789DD2BA4
311
504B03041400060808001575494DD88AFCB9F9000000A80100004F00000045424633363644312D373741332D343745442D393344372D4134424646453738463041362F4173736574446174612F446566696E6974696F6E4974657261746F7250726F706572746965732E62696EBD50B14EC4300C0D2C888181819D81D5A425
311
699322219434090B2C771F8042097795DADEA969856EBB91BF0647945FC0D273ACE7D8EFC95F8490EF25B024278823E60B7C9FC210C6B65937DBD07B72868C3E3CFB43186FB0143277AE1035E8ACE6C0A564209D7590E72CABAC12D61A768AFFD298091F7EEEA6B4F3A58D4DE83A3F84DD1C2F915844AE7B3FA198EF6ED3D0
311
3949F98820E4AF11D3A6CDAFA5E4F213E1DFF7F78F3EC6303D50AB1D2B4B9383108A0117D640C58C00C5B573564897A992AE42DCCD631322B5AED0BAB435943A17C055568372DA82AE0B212B63EEB4E274DAA6D35CA1D2DCBF0DBEED6846170BAFFB6183FC7FC50F504B03041400060808001575494DA53975E2EC00000030
311
0200004500000045424633363644312D373741332D343745442D393344372D4134424646453738463041362F4173736574446174612F496E7374616E636550726F706572746965732E62696EEB606060F80F0540260323103700495E20ED9E9A975A94991C9C9C919A9BA802147075337572327375D635733234D735713470
311
D675747372D575723635B7B0747131727234614768046931363471713532B5D435353131D635313332D475727372D13534373670367376B67474B5042A03DBCBA019D37FE8ABC6157B20CD04146B0062181F4C03F940F0C11EA29A8141C08141002C0426541C106CAC2CA046088033B02A030AC2157C6006F21A8018AAF501
311
94E6010A610250382264E08660284CD9E98021862280A91564B406929A0FF62C401E28B6F88038B83CB1243943D7A928312F25350524432B0000504B03041400060808001575494D88E57597CD3F0000904100006B00000045424633363644312D373741332D343745442D393344372D4134424646453738463041362F5265
311
736F75726365732F45463542423645432D364231372D344130432D414642452D4243353738394444324241342F7468756D626E61696C2F302F67656E657269635F706E67355B773CD4FF1FBF73E71C0E67EF7576C9DEF3EC995D46C6A1EC5046649CBDF79E192942562825CE965D8A868C2842C8DE9FDFD1F7E7F138F7078F
311
CF6B3F5FCFD7EBFDFEC41B196891913091804020321D6D7513FC77D8C5070EC3FFEE51B21F068154CC75D455CC028A3EA68992803810109FDDE5D5CEC5521B28A1B422BF80741695D5B529DA1C2D058AD2388BDA9F476F7C2CADC939304173DBF48A452BF8A700C0C70C3D121C1AA15A5270C22E2B9E28763651F7DA0D12CE
311
11077B2ECD0D560B5E3DE2368B1E65C5E1C87384A4CC5F2D9FB8BE39E9B77C753783A37998F5CEF1B4FEE553463245C9712270880DF339E0B882A6BA713D865F6F384C842D440934EF264F4A304F8DE4EEFA1E2BF5E2D91F5ADD9613D6E31DDB33ED31DB1D7916CAF091286EA3D31B9CFECB78BB0060245B943C4C040119FF
311
780A74DD308BA9D028678674EB5504ECF284EE814DAED07440BAF649BE4B55DA2890F4D73E2D489A59EE54FDB0A85B59F2F52C4858A02705C4815A792B0C4A996A2023ECB195073E115E3E3647F64243A8338F2000BCB58DA5692C7E7C3D413F963FEDF3CF00FBB0F831A9D51360FECA43819F527B89FA260EB63C5DA67683
311
0AA3626A3693B23F1A17A0DFFCE3EE164E31B5365EDF0C89EF64D8E38AB0BA9A1117D7C3A0EC44F44F4023095E80BA610DE336D0F99593A88BFC5306E72DF98F7FD132ED95878DF2964EA7E43071359FD83B2BDF9C6B5BDF768F0F3C0FC351199526F53D9460A34511F75D1B63E488178569472C91A94497807A3FD4A390C6
311
558F26D416365C3656DE6E769DA9D8FC73774E1709812842DD8EF96AED1960F79D21B395CDDFE6F92CB4EB962A4668C76990E2EF29798C8941D67DA50F4A5F947872460F1F6FDB794E8A29FD7AC0C0D6E0714339CE258FB17AE8535221E3464A10F29A0BE5EEECEFC5675926A89F49EB14E5711894F6586DB5754EB4D5DA9C
311
6437EBA57DB97A24F8B8A8DB295FFD73266CF57E82694DF5166DDF93573AFE9C9C5EB05F8FEF8E89E0A8917B0B3724DB7BEBB53252581EFC3E38166BA131A3A5B42FE2AD00A769BBFA4458D2DE7822F8C4F63D0B8E21B285AE13325F3410A435C648C9D91FDEB109E73CEDA7BC796961AF79175E1A3CE4C5E8B0D009B0C9E2
311
9EFD98BC8E97554E3D8D838424E270F7685226E5AC268E021EDE3522D583E8F20C0BDE2959EF5BBFEEDAB32FE9A3ED0E39F211A86AA9DEBFC68182EDED132AB8BB794442D2D7EA9F4D8BFF52BC4D55BB165124EE90A42D101E67BBBB292FFB4F66DE5BF2300E44546757DA7CEF8932BFC9F92A0707953491A55C5A5ACEDABD
311
9FA1AEA01BAC3DC5A24E22E7C47213493996EFBC369D086ED9397C9BA6C7F9855C7BD5E15BFC8C53DB3D2A4C5901A57ACD2FBDF4D1676E95338B2C2BCE65FDA4C64F5FEFDC7D9CA5AA1FCF11E193F2FDABF0F4916BF13FB916A224380E6462A9815F2300DC49CC4DF8D055CEF76462F4B7A7ACA7365C2707891370BC1D0AA6
311
203C44CCAB47084FEC057F27FFCD57F89B8B9852459798A675C66BD7CE572CAF71FF7E6D7ECF7BF62CAB7B3F1107DCD04DC55A3F9961700286141C94A4F771FEB2BCDA2DDEE0CB0BAE402FF1DB0100F8E475DFFFC074DDB4498AB7D186A7654DDB1CB680D703D47CEB4E72F8CB13D86A4AA68116E26387B93FD6738779B34F
311
EDB8E517EDF2BAF28D9BE93A1D3A164320E07D42E514725C29515FF361754213EDE06B079A2E99EB1CA82A02019EADEEB87B9AF005BD04BBCECB14AACD6B24EFBE482194A97DD32400685FF1FEF1544D1B14EFB1E7F08E6D2CD2AF52DE757F35F5E62332EE88EA26417AD5C3E0E319D68F25414E6D672BD4522B278C57D18F
311
0113921C71D96527E091F00CEB15AE23D24667369BD3CEFA10C7549D930890BA4366F4EBC55F01F746109F98ABCDD5A3EE06619C6AD78AB33E48E4C9BD21BF7478B385EC05C4F8987E2C1BFA0A60EBEDAA0AE0B015C2720ECE180FB6F2DEFBEB822D96338C9B63822183BBF52FB664A7AE57003AABCE512BF77E7E31BDA2E7
311
39AC4C131657DDFE5225E900FB56CC01CDE808FA4A9C9DA16AC679656BB64796283D89812B8F91136AE18EE5EBBAF47A73BE3C153EB5D4CD491B4BFB4FE690A4CF9ABA08C0D8AA64220C438C96EA6CA80B58FE5761E697B3A292EB9FBDA502FA863E49FE694ADDFFF9D62C520BDD1A22014147A0903A05B9B729F54272EF83
311
931FEEC057BFF8C8055C279EAC5C0011804828734024F6CFA319C9CC6867C727184465CD9BB7ED386AFFD96B294A85E3802FAE47244602D8273615952B98C4F23F7EAE4463D9D638EEE374A20959E0FE519C4CFB0FBFE5DD80C2AA3F9DB961D1BDE57E67C9BB47B77FDD74EE3094F5DBBE3EBC1FBDB7393F5116263009E2EF
311
E1AF9A221B2AE234C902BF70E9F280ED23E73908361565964333A3F01D0B006AF32FB21AA1316744B489D5A198E85299241735BE559675130955C902A8ED761FC0DBE337A9F91919AF5CE32AF902ADF9AB2615E00E8A94586BA1A90839B61832FF1BFB76D2EFADE6DB1BA04CCAD3DA649E7E2A0219F592E22F2AD54847EEA8
311
E42271011E9074F8F3DD9FBA6CDF88FFC9FC7E811AD1CA8F4557CE4AFC7BBEDCF0114A48689F20A584520C74DA8127124B767E2FB91A6B186246727BE63C9445BAE02088D58B8EFDC0F1072407CD9B89A13F6303B4A928F593AD489B58E6869325790ADC406036C591729FE14021F94B7796BB11848D463536A092A26F077F
311
94639F7CEEE2A724C66EC885F4A24F8B8A0AC321F8FD149BA529460FAA34E4663C02D41FDF80BCA222D42F0ABFF8490F4FA74C673807C2051D8E467B47B616072860069A9A303ABA9B319D58404461401B0A0F9BE5E1E151C14BC33B32ABE03DDE91708DFAEB15E7C0D593C86BB7D7EC17BE56E57975F077BFD5525F3A1A36
311
1D584A75E08CF29FC7B44B2B3085014F3A5A14517377C3F6B8F37E59514C3B12F8AACDEDDA4DFC49BE5710101534CD6FB6DE15B50F11A09472AABA727F0C49D9CB906B158030065F48EB3625E010CEC1D511D0053474B11E6A4F01C0D6EF1BED3A944FDEC70E0DDCDC756C86545910E0DAE3BE3AA9A404574C2995CD5CAF95
311
49226BC94B4F4F0F5F9086F418F6B32346464610D8BC7391D3C3A3CCF04CFC1FB2A3A3170E369511868F14EEA4E5E438CC73DB1F3248AA94B6B2FF33B222FF3D1E7BF146CAD229770158063BCE4F5391964DF62F7E52A7BE0EEA829C9E13C4C147D6F93FE59E111DAB5E4594D6F3CD1AD375EE039930EFE5AF2BB2D41C83C7
311
DABD8C659BAFBE8FAB392CA634F3D15C1D945DB4588D2B0824A4EC928AAC565557CA2F0DAA588CA5BE30B3A8004F7BF005E96CBF891D7F18112A3619FDF530DC8AA64954258E1811789B5189B49B4EB53F5F89F7D37523894F3EB57B373763C91E502F52CC99EB7BDDF933FC324C4FFC2561DFFA7339FAFDD0A4BFBE6D3A8F
311
F9ED1FC49898139864602458968913181918F719CCF5A68B2EE9C1FF050E34E63107003B8120FA982C21B30A874E4F5E4B38D5A8290C4B8D9BE48A0BE31EA995BDC37AC6DE90BA17D259DEF53605D55922FEB1855D915B659FBEB350EE0DFB2F9F766E1C84CC8964B75D08667445EAB966015F63A18A9E0A325C1B3DC628C0
311
D3CB60F767FA93CC65F25458BD23C3B312716E5F40E5858AC06EBA9AB14F95DB99147B832069201541D09A0D856E12C629CF32683760EE855537D1901988D5EBC156676C7DD51D7207CF3267AF1D76C2AD867315E44618015313A98B19941C696FED3461CAA9B5415F918556D7802EDACEFD6B2E45853A9735DFC9DBF7E440
311
F9319F8B6805A973BCCDC76C069A9144E51F187EDCC12FC31B5DEAAF0A76137199B106EC84ADA6B6EE697D4E6A96E007417F4E880E8B1E89B4BCE9D81EF611E2ED8F0C1A6C25F620FAFAAB656A7C42D464880E8AFAB0E0FC8EA38CA9A8AEEAEE3E4648BA4680270A89743CDD3E6C6CBF34B7B640EFA285ABC7EA0A1E28F3CC
311
963D114A80123EE66D0AF7D5380EB41909B605AB4765B709B808590458157E69BA1378FEC4B48CAF6A730E3BE3C5EF2DD1A5EAF94B1DDE50CEB55DDFD7EE9A16747FA4B223359FB1FCC69E1194892BABB93A1D5C4E807AC0EA2E30180811E77A2291F6E7F7FAA5E0F60215BC6024E48DE436C511F0628B8CA189982D4D83CC
311
A17D305A7E923C37941CFDFDCD93ACAF735EF5F0E61BBD3E6C41A59B242790D3A3BAC7064DCD89AA2E37214EC839820949D5CAA31E240D2948E48F690298974A96BA9A8432BC90F5071D6537C9666EA4564796B7AFFFA548077BEEA75F63083435074BA182F3699557397F71548383FDA8CA34D99B981E72835ECDA5DDDC15
311
1315173D05A21F651AAF8524E88209E2E7A737ED1045800CE3390050BCFB8BE588DF111617874C62575039CA588EEFDEFEFE319B739DE2EDC147092A262611E159650E787917885EF08F1F51B8F2D8A71D60B58B190FEF9541A1BE94BC19FEA50784DA1419FE4B0FB51B8D36B5FF8E1286FD8AF42B91E59A5F1CC4D60174E7
311
64045FD8C57B18209B217F89A62252BD20BE0E63E12B8E8F029FE19E0E8D0870F58721A557082250D5424F7909369376E41666C0EE77CD87CB283F661D5FB6D0DA023CB67320A20DC7BE661E9E1BFE5463085C557DA1FF9BE835733766C3D139F2CF9E2208873AD0EB4814DE9E6BF2CAF81614D4D43906ED1C05A3265CABBF
311
E192770FC2F64F940CB6B17B5F166F133C9AEEAD2641807C3E69515171DD74C4A85311513D6EC9530B3B601B6BA3EBFF3B5C3D2F7D69765141E345F75433953D013ADDF8F6AA7DC3F4A7563FE5C7D367937E2900D7EAD0F9FC9A4A1A9B5BDF1FEF08532660C01C5D6DE22199AA774383E306DAB87E301ABB7D213887F9869D
311
4942D0D71E94B27EDF216A318BD488D45DF84529EF575AF3C3938C0AAA0215B01994153E2054A0B894DA5C784980633AAD48576957CF4AEAEAFADC7C587368551C73DBE1E57C58AC713303A8BFC258BD04B51724459FF9E24C03A81E0E0679CEB9B348C0DC998FEB9C6D6EFA77D247CC8F92D3848599ED89A23218D0636465
311
AD1CEEB7DC140D7426F83491C4E8E8281C2FB35240918FFECE880CA2A42D70E8B20B34DF5221C7DB0CF90ECCB9C745B37A47E9B716FF7A97B7A252C1F3814DC7B1E1A7F72B8751D524EF7CAE45B0C73B3BE7D08ED39781B380DDFC9AA4A4749C9493DB5BAD07A6EA6C092FBD0E85DB004DF06B8C9D3089C5320187E4CE1846
311
158C7EA7DDAE8AD9AFFF21AA3A1026BB06A259845E8232DEE62811A4DA9CEAB3A4887320B76E2AE5615EAB7BDF738CBDD01F1E64064BC13D9EC53576751CA8CACD58B3CEB0E6CA585BD089B2A59B9FC101403387AADBDBE70586B93D64BF3AD4453EF9C3B6A93817E8346991798601344F79A83C51F3D50F7BF2683A3605F5
311
1A72449489E0EE6169C749C60B1035651103AEE24D24E51A759C840DD3FC6504DA6FE107510E447B43461C79D22970B75DE5E1BD3007D1AFC619A4A4A69B5626AF5E9B8374E20677F77E2F8E73DF868E8BEC7EBA7B6A75EEF7205E1AB9486CB642741D6E03FF13FCCEDB1C4AC129886268B01CDF4B124AF797CF784F3C6DEC
311
97A17D4B558070A0F1C04DA4FF9BDBF34159AEFE958479824B3F58EBD1E19088A2AFDE501B6F2052368A3FD0E650A179EFAB1561E1D27527077136E652676C3670F42DCB3352F48F6BC86D2C3B0051727E41A0A4DC6CE2BE9D47F5CAA2935A3C0539AF080665997194ABECD723B08129CC5B6B21D2E7D54CD4D12610E7E9FB
311
8306771A89576C7A982002775ED44F3F744CF21EEBB27A631671D921938AAEE3EB0D19CD1E083727F607823E817BF599DCED5394E37EEBC2E88782E638920CA641EF74D4CDFCDEF06F4278ECB18E31E7E9876F2D783C8BF429C75395F57E98C2B495A3DA077EB3AC3C158608B6B57FE3EA48484D9A480096FCEE0DE880950E
311
7E5A5714131C5C41AAA29FD19AE81AC145FA1B9E85C7169A5AB837B213493DF7E9AA4B5FBF9CDEB36EBD21EF1181B7CF7366AB2A951D01E37AF4EB835D1BE8C117CFBE7625D2EBCDB0B20C5A4B45CED0BCDE3EE8DA9DA78C2E21DEAAFFD1197E463C33CC6A80FB785669B856EFF7A8CCCA2841B5A5369173320B1170C368B2
311
748D81062EA0296E5E2D95D7667A4A46D98A6FF475C76AAB0A8C8D45E226FAFC9FE0133EA9F60111F99CA81ACE03A1D14C89E8B0D69079C91464FA1D99E651D0EAF606F345C42A8A1AA9BA391031582B96D5B4176A77AADB01F12FD298A75DEEBB2C82F0B8650E880722F8DDD90C56A7A058E5FDEF1AC93545BA27367C76F5
311
D8F9690CB6F8DAE141EDD7971F0FB548A2AE435F224D6E5954CA155512F7332029D5A1230854B79F258EC5FFDB09F5F6343A8EB193229B7F7E79B3E48F8E183860B38C8269D1B53738FF1E0BACF6AADA6D4869E9DE708E79B5DADCC09B1BC76F649731CFAF59A83FD8BAE4C749D66FA87A3810D4D62FFE826FA400C0F325D2
311
BC0F3CA35F5847B82A2ACC7961745C823E4D863D54460AF792CE6F79B5C7A33B25C3AEA6CDE15A919B6367D781E9D44F61BF828672594A3E1D9EDD6DF179A81F27EAC05B936575D73E05C209DDD2115CFB705DF9BBF3C911589B3640735E9E618FC9C36A7326C82B2205E244C55D56FDB9D5DC93CE958D4BF8174D2B3DA54C
311
B3C09F2C2A6DFF73D23B2197355761AD421EC581284A7EF8DE2CE3497C0C804D49B41DFD6A7360844E5BEFFB495CFCDB97A4595911CDBA623274CE852B5E278AF0BEB1770E9D37CD977B2766A7DED0E94B840E1E95E8C77DE5CB6354AF7871427C28ADBEEF7BA0A28E19DE9ACD75F379FE373EAE6DDDAE3834692F9C2B03B4
311
FCA8FCA9ABE8EEEBEBB725B88A7C90941E850682CA04061A7DF0CE82ED49BFAFFD42C309818FAE14755CAAE78B0F73243ECCCAD7DF58FCB9CDFAE7A4D3E6671A613639130D056C8383C8F4FCF4808C331E544DD26E4755D09EA05253B3049A1E32587CC25D72E073E2CD96D04A71BBCB0038FEC3F53D254199C3CDC67CD666
311
40269431860225392B2CB3ECD0B4498AAE78BA1994246AE1EE78F2EDFB79F6C6CB6B5E279C4D373FBC21CB2698C9ACBBEB6A4BB6B39E16AB0E421CCBFC7654D81ED86022F9BB522146F9F4772E2D0E4FA70120C95A85A417BF5078B232F4754363EB1750B2AC2148EB46B1EA72AD9B4D23ADCBC589D70106C3EC2ABEEED84D
311
FE28E718C6C83502C28E9FDD3B09DA0A6F6F7B72B706A31C9E2A331EE70DA56A083D2177BFD63C55B11D8D949FAFCF90B23A1E24B9B5018B9A17E99F2890EC302F330FE7936E2C23F0D237EC8916F5166AB84B62A21BB0B950146962D754F92CC2C8877BED8FC7B7B25726DD19545392570B3A2C66B58F027BEF412E552D12
311
A588C4A3CC5C3193FCB3485EFFF700D0B9EEC077754A33DC1FB9E25AF814628F91DDFECB667D3F7690803F38D13F8AE39353523BB08FC6760144AFA2CE28236F65EDBB3D5F59A57D612B99E3D7E5F8A851666BF9B5A6658EFC96EEB37A378ABB0EB3FDDF1303AF32C41BD1C8560745D7BD81066B0D6313359CF488563D3BA3
311
F8E2185D1FAA3EBA1397C9D0E3DD232180A4DCADB6AF25DB3AC3CC26589C8239E66E81547BC7E2F328F9884764CA37EB5DBE390DFC03A5246B456A7C3684C4377D0EEF9A350680FA9A077E8B2957B489E09AB1AD41316944C2254B5984830F691C93CAA767EECF976FA5647538830B5E63236A6F0365C1E0F3E327F24FE35E
311
DDBD7360B0F7374837409F7A6311BECC12B7026D4FA1AE204FA3F5FE904B1F420C7A9044AE58E403E7C4848E7DA25DC9EDAC79DD756FAA26B9EA83ACE8A214A2612A22AFA19DAE7DBAC5F8CDE1292A485F98DAC731A29FE01A3966E96BCB9FB5A4C8830E1B9AF0C54B87FBE221A097036E5D28D1F869F810C06A9BB0AC0612
311
F69AEBAF893C6E7AD59460208BAB3A6B09CA4F6BDDAB8CF0D1F84B72487498395A70DCD754796E271099A567A55CF242BBED64696378BB6CF25EF0FCDB589F3A82F1116D010A9AB9FA4358809EE0C973A2B4229BAA876A70B03AB49CBA7FBE71DB1832FFD32F9BF2C8E98075CACAFB36921235D0F552B6A67E94E094097A5D
311
7DF681B40623DA535ADA7A9AD8E9A62407D7C9A5AE51D62A17A83A23728DE86BB56115804D3F2675F2C6B87541A0FC497BF0CA86420F558C9859EBE9FAD62747E323E3AADC03FDCDDFE7407B09DA90B44E3185723C5381EAEF589765E2F7A099BA46695BAD60CEF3491B8A171F5F56444F7CE9455312C3498C74173AEA0214
311
EC029833B34B650CBB5A5508D5091665309642791708ECF27CF11DB3D797D6CFE474453BD4BFADB768094B2147814D81C7CBAF8228DCAF5564B5891F5EF6A860EB2E323CB82AB868D8EA048880D63B0DE5341F1B3D53297B928A11E15F25E5148990F710747C3509ED14909C552EBE3973246FCE55D00564D8310BC3EBC508
311
5D08D806799B77D6C57FDF5E55837F9E934F09C03C729271B64F12D0A9F9E938107CAF7BF1EC8CF1BB9B42363D33070F4CACB425E605DDB0A34A12BB936DE286B9887A4E2E558F0886498BFF49C311D96C277CF6A9FC0D75AD0ECC5226D7E0E3572012E56D7FDE4410CEC7A6D0F997F225A2055B8B92E3956E875AE4993CB3
311
D4C9063AF98FD45E1BAB165640A43439A2C9181A7C355B297C0A0CCFFAE19B6FA3C2BA238A885FBC98B8F6DAF4B94B97304878DF4D8BFF6A4AEDF79E90ED4E68F00CD7299F4E0D83E35601AF0CBEF18C1E870E74758FA91F5131075004DB3CFCF09AE1DABC11957FD9808C92E8A678CE9DBE40DDA0E0D1D505AAFBCBA20823
311
2BFB6FB3704E8985E61ADE53DE74152F5C7DE74B1DEDCD37DC3E8FB30D7EBA8B9EFFC3606BF90B8D438279CB7709FC7C00D327F41817EEA71CD9E49FE9C8C9A81C70915D9F0F15958EC5AA4C3BBFAF46986B90F188BDB24B89DE3C6F29EC3E6F66D84856EE96A35E657CA41B41EFD8DBFA16AD6E91439EA92B40B21C053249
311
F51AE50EB0B24C770FFAF40DF12C8436366819C48E36547D4E7B72FE2BBF10828583057814A668BDF183F6B2E58DFB151103E56303E63D00F39C27C4661605DB644D19175D02E3F0241E8FC3458D17AAAADB117CE9EEA690D0DB01E634878C04C2C9310B69FCAB831151E3AD293BEF6E46B0ABCECB50F5939B39C613D41E81
311
FAE8D34CAE3C4566B761D37185FE864AC32FCB71AEF39DAA5BAB88609BB980CD2F07A8F941653B529567726E2B2A58D079DD57E1E5E31426CF184A04D7B03B985F276D47406AF276FE32E3328BA866EB1FD39BEF57863A317634AA5FE467409B3873F5069EF0D71AF00AD189D17BA1974ECDB2D623E9E14086386A6AAB5807
311
825C37B015BFE892AFD154920EC437EB945D958E18622E1E0FE2FA06557CE4BB9BBD05A2D40E774DA2B65473791E314B7D6C886820B2FCFE4AA272B3B8B15E7344A145E8AF919B5454D89D36D413E87211186BF6F645E5EC94DCCE8E1C799022E4EC9BC86D7A0F2AFB1FC4B2CE48F84B3F49ECE65BAD24CADCC07EFF39AB06
311
BE9E6B27A059938EA7208838455383DDBCFCD967DDE4650EF92A14FF933C975DB20BD7FEEBC4487576485963D757D16340D9599FEB362F775F38CA4185A86F74B629C81B133644A3B18FD056E997E0734F9BE26D11C0AAFC669E2AC9FC41D281F8B2E1C35AE27BCE05F3DA295488096688719D974DF1B5D182DB7792288697
311
F8763CFB43562C1CDEE11C4AABD5C22B6E33F6F389CFC3477C5919DC0D533F8A7A1846B7ADB60ABDC26C43D0CFC8910B7C15EE22675BD02702ED39DB77A87A192CA7A543E6205B979B9F5A6B512A3CA799E198B2D5797C0AF8D1D872CA455D4D431A7879D4DD76110B5FF7F4176B54477A9EB5E4A5D11214FDA585F0382751
311
D8E2582BA5D2075053298FEB8F1537304E32CB22C2E2B693DC0A760B1DFCA751BDC445AFDCBB12820ED85F6D5298933C7EF1211E9E057684056CDA3FEF3BB6052355E162DF27C59E965A8DDB7F9437EB72CDDA3A090DE65A5B2F50326247B7EC67B73ACC7047FC9B353D6EE990F772207C6EC52B39DC2F3C0754821DAB559F
311
7C1809C7D0DD5B0499D0442E0A6E391B3D5DB46D11E731E6794EC77523FBDAA242ED67F9FA1FB684255671F63C9BCFE6E7E896D51001A6113EF2298BA494E0B0980D1FA5B9D60796554C02256B1E0345FB7C6186B6A19D2DCA270416262845FA4F42DB5D9B0A0B6F07FCA2E56C242522E001E0CEB734AF310FC8BFB57E38E0
311
3AACE93B3326A2197891E68452B26A6307FDABFEE0223D3C03C3C73D2D5BC054C8311F12004CAE488E5C29287F8156A2CAA4AD0D7BE6B97264E4139F437CE73ADF52E5134C52B819777C18B323A5924E4F67AFD13B1CDC3A61793A79FAF5C0CEB718E441071E797C6DCCB9EFCF7E4A1E9F3DF3C2F9C9E8294E9586868788C9
311
72857FB0556D7A26941A7EEB9B580AD78EC40B85DC906B4120A563CA3B87797ED612D3B035962BB75F6515A393F4CB057F564CDF54F2E5A024514E6A1F901DB80C7E70B1FC05E356A7E72FABF4775B3E3FB8F70A2A8E7B6A94542BB304157978CCC999E707A29CC795E67A59CC546A5D47B368954CA7B6E75EC9E1F6FC73CE
311
3B4F71F8CB1A6B15923D61EAAEB14626AAA9D04A26EB9C66CD1BE86CA31A5D8703DE04CD1EBCE4F5CCB62F93909AD11E55799A781A956ED27D3E738F4538CB04ADABC7DAEF20BC35BA6A90BCC1DC61BA05F20D8832FFB9BC9B15E2DB838A0AFBB7E0C82A562127E0446894F427794C3037186F622BF24DE1B00AA10A23BFA4
311
7B2A180D6DA5AD6F7326FEB8C100C2D7142EB2A0B2A9D1008A09BA343D70E054AB69E2A7EDB783CBD92537FAF4A44D1296AC2792729104B3276C276C951D0CF3CF3F1E6B017720A7B8505A5FF9589365979678C36F1BAF759EAF57C60F1FF5FE9DCF5F8E764FF25A2D06CF25117A8FED51884C13B2B750DB0E4F5E3D64124F
311
CF11F0AD8F1CC3B3DA4B38ED22BF1CB2585EE6BFEBBA63FBFD44F9537B9B37BDD6B358720F98A8125AED4349CCFEB0E135F19E208A04CA7E2B10711185D72E381F448036EF57C9F874E54A971CA37A639E986AC0226DC5AA00D5B14FEA9192234B3DE617814FC221C92F33F1D392F297731B567FD98FD91D989379AF567A65
311
B8ADF177591DB90FBEA99BF4ED11B16E50A0AB1DBF1156D034BBE04D69D08F939D8E92BF525A1DDAFF80ECBC95D8F45D3FDD289FD23F7D8B452F8EBB34EC082DEEE68E18EDDF072060FAD2AB1504DD4879BF67099FC58F6E9DEFBF645D16334A3E9A127C6F1AF6132CF287E433B43A0EE93812B4AA0B194E03EE3FF91EF9C6
311
ED0074A2F6EB18A96A7C9890B1FCDA1F2095E944DB911ED54C60DF16FB74C8CE9BDC7C54C4F14078CF73C2FFF1F1BBCCD7CF64F71407EA1683DBC410D226627F66E509060D5C0AFD611DE681D509DB8DD12FB1265B03C6F5C55FF4C30BD94187FF692B4F152982502F193098A789526A038AB529A52BC0DC4FB6285CBAC10A
311
8B8DB75DCD9BDABBB221E27D1F8DA9F5EE5926A1C8AA9BA9BC09239C6A7F12914EA3B59EFF7AAEC3FFCCE56F1C5C2980AD072793527565E774F4631DB178CEEC691B1F367BEA0CF2907E1D6B854D527065979DDEF002D8B2ACEA7CE21AE297737EDE1D45B31233B73FEA35BCFDD0B09721FDBAF6432681F2FD10C3E9EFB246
311
FD6E854B344ACC9D8A0EEF876A7314B49B6A499FC650B099D650DBFEC7638ADFD245E2B7839DA5AC5F7D5623FC0ECEEC8653FC9B2BDD1AD4D00A566FBA7186DD3C9CD26512551637498CADB950FEC71ADB9A5524285DE328B8EC7EC75D2345AEC6A27C42AF6D9B92155315C80DBFCABBB7DA0FAE425C4FB896B15C9BFAC4FE
311
67DF5A23D30C93DA4D8F36FB15D100050DA6062E22AEC5F4DAC4F6FEEF97AE05DE63C6D38F9E068A20BC5E3B6BCD75320C5090924E7F93640A7735B1A43451C2D91EE62C6238B797349E59890AF3A520DF4A87095F3ABEC2E61F0593416CE46CDCBE0E00E2523FCCD04408588B5B6C9DB6459C786CE378770B54F51DA3A5E1
311
DF2A3349BEAAC234A6CF8993B598B3B25B4B113E353A4D750FA7534749430F3EBF2512E7EA3FD43C6AB9A1F765A58463B306721A15D224FAFE8C6F5E3432D57EE697DA0DD5A9D4866A8BCCAAA9DFF1F06047851408FEC060471D0E3EB86BFAF46E4B5E60311DC3E3CEA147C75CF971BE74689507154FF2D2E92F15CDB2B918
311
2B11459FD8ACAC5A85F174BC94A7F4EE4C4F5CAFA7C02E37BF0BC77B7DCD0C047BC316F562A01A441AFA7931CC84A28CB9F4AA367EB515778F29BFE61195FA671F4352E5E46E3A64773F1F76EE5EB36D7BCE9BCEAD837A4D77F8DB8C92AEEF6711920D7C7D0F76B0FD0EB7AB83724CD35BCA7D36DDDF5FBB7FF6F04A91F3E2
311
BB3B8F1A43CD659639507FF6331C5F697BCC782AE57D757A27D97F1AB9E0AEDB43F92F1B2AACDF5FEC8ADBAF9F814E2027003BA2F9E144B1938A7A04050AE5D953B82C45619165C813A10E76DD6906B3C16438064D14CDA713AEC420034613E1AC7241904A49FBF87409AFB1FCB9B72FE7933A87D8FBEDACECE4EDCF6A4FE9
311
FB94D5DEB74FAB7CFEAE17EE965DF980DCCA2D04134994F9A2E94D2265DA4FE6AA7B7AC15FACAC2B5ABBCD7DFF542C5314FDAB2E1B9D8B65220B8E2B638BE008E8DCA22678C820C5053664D15E89F2D735B51A84955E81A443545E9FF787BE0FA700A76D136C27DA179A7C6E8939E01BE756E19CB292798063D8B97F44E8A2
311
7BCF3A614FEB8BE974A718E86F7EC99B53CA35FA24F61F2B07266684623A3D4CF073E511F3A10A8FDAFAF0078C577F4DF9D339FE7862E5FA47CF4344209E5BF76D783B1B48E152AD281B15FCB934DCDA49CEC5706B1EE8B460F435324A5CAD154725E21AB8044B75A557A79F6C807B9340AA3D92503E866F4274412926C8C5
311
04E4D5EF8C0E68DD0B028781A6B4054F11CF18941F101C57CCC796773ABC8DED9CD91FE5788806C05E548895354AEAC96546D55B0E94A59F148D061F42AA398D822CDECA4CDE79E13469BDCC44FDC990F366BA5978C15F97ED80CBFD73B0CD9B8B83A4F6845BDFBFAF034019473FB9A63BD55D3A4A7284757071574029A4D0
311
16DCCBE95DD679EF3C4880BF169422F8C89B68A988D2B13793CAED4F74DE7486C72DC94DF46B8E93D8E02EFCB1FF9B3BA10C8AE7F653DF94F4AF466CDDCEF5776687F7C4C14B63E4EED1719DC2EC482D7DBCC7AE518CDE3D5FF86D39000EC3673C0044E1D308BF05F74D1B5F033A7D1BE7F74BC55BBE3E4A20F920946CA027
311
1EB17BD2B80E5660ACB8A29A79F5E4BBA49D4D945B6EEF4A7EFEAA65E5555BBB57A7E15D2F83C69F30BBB978D2B39F1F26FC097424D39BB33CA3D87ABF64E307938B685BAD44F71556A30B7E712CA4FE600613C3E554B69ADE949A7CFE214DF1FFF05CB82151EC6FC31950239F94CF7AD39DC473F6EA356E5EC2C4EFA04383
311
CEFE985A127484366FBEE3C0EC4FEA363E4F6632AE781392FD45D67B63FB8DF70E82734F431FD3443172A0E30A83D60982D55FA6A2CF86DBA8382502ACC6CDEF3B907982EED1160E14863FA242F9757347E1544275CCDCF71ECD5F8621CBEA326B8BA884AD7F825781923E66971F04010D574C541D8427A438A37EEF8AF882
311
40EED7362C953F5A81DE2D56109CDE2524EA0F5D2F87308C0C47BD97AD605878AB8589E17CA83930CB5E0DCCD75853D68B1AB136594926DE426C367428E9334AFAFF90ECE221BB5DC9E5BB53D2CDEF954EAA9CD814F0E5725F1965DD458E5F8487683AD86B9D0076BE3EE91EB1CECC5331A67A3F79D8B27587C12EC2A6A704
311
74749F27B4C0BBAFB94B34189E88DC18964BE4121B9137FD516C7755356E50D6714E31ACD222621EBBCD1CFF81D87479056A9DA0E0B8EA19D24CF937DA89F78E8650CCBDC110AAB6C4E46DCBFD0446BA9E2060E81F314AC2031E88135E5476AC0160EF5C0DD2EEF1B8B5CB2D198BE9A554A9093B5F7D7E4B5407DDFCA1D9C1
311
52FD97F55BFFFDFE802954DFEC8995B983E28AC92F1971E28F531DC407A1280EB125F64A72E617EFB27DFBCEDCDA2D6F2BDADA36873EE46B9BE1782998C63DA7182BC383FB6FD15DA472B175D7E8B4FC88F38D6E07FEAA3FA3CBB8F6B449ECF14D2175E5C5CCA3A42ABF24CA6C9395AF74535F4DDB38CB84F56614B0FD32D7
311
E19CA5CF988DB4449C40E23DF2B16772594554579094450F56F253CD25EA7F77366FB1CFE79696C428BB64D5A41E986189427E5E4D7E2DAE3D5BB4972B3DC44EAABDDDD63A2264ECFA5C786EB0EE1FDC5BE34FA0F08376869FD1E61EA06CAE15191135445EE8F0394161C3266A596AA035572BB0C8876180D8B9C77D307DF9
311
DCDF7365ABDA6F3A2366436457A4DFC1F259666569A9E4A79C817BDD5610E5200FCE894A358EC72858D50EF67545DA81C6FACE3D457BAF70367E1E6BDD9A952FB4F56247F58F523B97E640246051A72F79BE42FFA0B3187F63097F91C48B868586F714B0EBD5A00A8412C1236E1298F60C72BE6C96B82B404CADAA304AE9F3
311
03176B14BA53FBC2D5E86377E35542019E24D97B96A49B2C0E5006E7795954DEAF5DA58958839043C6C70BD3B1B33B6DC5C31316D8A6923F142E26F6711A2258AF977DDF1F970ECC4F1F2B434B96D81BEB6E89BF3BBB3C7C8CC80505070723D6D7D7D3C8CA27CA164A26024FED94B12A86031867241DA53D929636DA600F05
311
0BC40CE48B8BA03D69224720DEE2ED2127390BDF5E6EA64527BBD4C4C63FA76BB801FEEC0E61218EC98A8A86CD8313781617877E66692839B9468CF4DB8E50A73986E558E309C0D6F676F921BE02F1185454DC75B111572FF9D27D85EA14C05AD7271225B391C4275659CA4A43759D0BA44639BE4C30A84DB7F67A41399FB9
311
5CBF923B1B1672ABC807C1590557FB18D811983FA97F5E609516D62281D38B1281F68FC75528C35E4CD7DF0F7DBB5E5DD69C414EBEA2F4A5B241B996BA77AE6C772E367408C633EA3E438B68563EA8BE7667F3A4C4FDEEA52ABD78A2820F443B7914A15F180018D231E64519C56A12F6CA7C8DAE18F06F6B769DBF92329EF6
311
A5D18FBCE600F36BD8E8198DE5CDAA96181F3A756EBA5501CEE58F497EA4F418A2B82565B9BCC611713C0B708CCA1F398B78C5F7D03B3437CC18F13061F55C7BEDADD5ACB1DB0E36D3CE47FF6EA1A563A57E9649EA5D14D1A50EAA457463381C073777EF1600607BAF6428A7DDC079D47A204EF1E1F1F0589FB054D45E02CE
311
623B3823C317C601E589E22B1E88B448524B86A82828E32345EC18AE17214B42F8C41C6D428016D9BA31DDCB47572561E5A402E5BA4FCE55F78AF7268524AA04130F3A20BA5D1E9F9948EA48FC8F5314FDB35E21898198060034ACE5E3E2BBCA34092518F275190AF65F45867FF0900AA4B81F25427414C372BF51DC29AA85
311
5C5428EE1EEDD6B849AD60F6E73475C2D2523F8A2772C840A478DED18A8C5C91B085F255DC4F54EA7AA8947354FD17ECF8FB3B4A0DE7B483CAF3A1165EE05BBA413E5C1FEF3DE1D6B8F2F3F3251C17D9FCAB48A9AAF63AC773A0E413BBC46A9ADF84A566FC920E4D8C52C9769EE3301CADEEEDD92B312E02E2A7E35B7F1E7D
311
203FE5A7D75578B06E99D0E46FFADB8FDA17ED8880390DA29094202D6F645F76F6F96409CDA05495A96E84B04A00D1A6C6C81D7F3DE9376E828CCF144EE50E364ACCE7237EA0BFB5607ED1AC3CFE73794E5B61739D14DF1743441B1AC98F00ECEDE9E7301FA29755FBEFA68C91EF2B314CF510537EF1ABFC9A762496280B54
311
6F5EDAAF8A5B387D469FC9A878A92828C88608453ACEC6094DCA54111E7AD5B2663DFE2DD151B7F123B9F4FEF8EE36AB125FD7AD52A59B1B765B3E3F73E3F73DEA93875004D2AFFE3CDE9493B87A9904DD052028949041A91DC0E1BA47BA714343FD5B25E0A6A09503AFC17C790058A836A324FE31D7893512E28230332F15
311
3181C1E018E1124EBE1BA262AA428A518237D1EA7275E48C5C561BD19ED6912EDD8367DA0F31E40EEAE9683DA9257525AEA7B632B97119E17145A90231768A4F3B9120FF32E8319B015E3CBE26F1A754177D8185345817C096B0CE443A955D13AC15E1FB5DEEA0239EC32A3C92241A237B0B02FFCB4F93CF2B02570C8D192E
311
2F2A68CEEB42F12E6F8CEEFF46C251E22B4341C56FB08CCE550E7A9D6F4D6564B9EA52A83D5BF2C6E03FA19D2775E15A8A7ACF30A13C259EE7F5EF2AC3BA354F1500E1A07FC63FB4686E2F12EC69719F9ECF5FE3F35598DF2CE944008CE78F0911BA5BE5D0A34E0098FF038669C26030BA9B300303039852A8F6F496341737
311
CA7E0D2E3AAA36DE0A70AA7D9CA0D54D9AD84B18A44C9E625475E1C97B93BEBB38DCE7D227E67A2D00F531436136355F243D1FC0D712C5765754FA22FCFFAE97919161F46D6E61ACB37D83777B385889770B50765B127768443A5C4D3A4E35A3151111F146B7CA116F918A049F1C272F2CD7976C69A0068773451659A97E0F
311
4A08FE604C3FF6CE7385DB19F4D3ABC8A0D80DA8A42096AC377DB49382B36E270B6FA7570188B4B7D1DDDDA82ACA487CCA5D38BD3BD039ADBAFA4ACFF27809239B722081E2EB9F145320553D183F28471C388BC8814E5045676767AB58A8E72D1CED2CA731379515D2E533E4CF0B39DFC625F97AC4836831A4DE330E87A812
311
6FA17EBE583D614E71E22A8DBF2825599743E0640037303E8E1B1E8EA4E1ABFA4F62907B5E4E0E5DCFDAB417C36C6848A2B8D15F1E505434C0707E16B1CFC2A1C36A42BBF55734F8F4301DDC2A5110CEE8C0747F69519265012A2174BF4E955ECD4FDE095A3ABC70536B7AD0B9D7892F81287D667C108703C9B66A221E9A09
311
29D030008F77FF6F5D2108EF5706FC87A3069B976F7C9FC3239D13D283CDEA83597461079FEEE049B0F392889898B7D87D31F8D60ED7B56B91823A8E4EDDB36C6172ECEE42BD42B12CD67994FA0F0DFAE9389356F4CD4425A4B8AA55CBF7ECD585C6A2C2316791E43D5C06841ADBB226A87FD61515FFBB0167B74E56BD7F3E
311
90A57A97FEDCBDF483A0D6699A8C0849CAEB4947FAA90D8E332D9DEBD9F4738C37DA0CAF9CF3DAA68BCB67C420459C7A64498D6E848E5CADE92BB6901F607AA331104A67F7CD650EE169B1DAE94D2C31C2F993632259B6957E246EFE4C5481107B07118607700040E5812A2A2A38DA0076875258C753F60E0F2662C748EDD5
311
F3F3686B8FC3BD6FE631ECCAA1E8B1C1E565AD117E54893E79F4672E32F9E46B2A183DFDCF3EECB4D4D077DBEA0DA254D256045109670050129E9B9B1A9E4A11344D61497A992778095151510C4BB7EF2009B63AA4360635312E4CF668B7E0D3D85A8688E2BD83B569439892ADB63461930D428E0DE42E4AC57CE48DA5CC14
311
49530D8BD3D6A0F08DF20C8E8F570F2CFFFCEA286E30969B4654D498A58D9DA782E19FE3F002181838925592C4A1EF0B332D88B61A92C644547BED490D3A42CFFAB70E36D961F694F6307F72FF15A1C79D5B1B5CEFD353D9E2B52566DEC8F8F09CB3E8359C0F68EBBB7898243E34E12A015B2685AB303C04D3A9E00671FF3D
311
FF0A184E4A2ABEB2B666AF5B3A209C73D8EF29DCDB069C9F391EEE9DD0F74C7BCDE16F8F02E3B8816122BBEB50665775B600549D8BB33A54A6BF940C028118BC6878C79958D6784F9DEAA6E26748386FFAF8D0D0101E2847B6563F5D8DC1D78F787BE00E2C941AE12148D4A81599FE8F68D4DA5CDED75530ADE138240300EE
311
13B0FC13A1687FED6774662C05A2B7DFB186732F0D7A93545D8B0A6390AE5054D9CB582DA846D7A061B3358B45E2B52DDE63E114397EDB7E09233A579155D795BE76102CF277F4DF8B188C4F2879BEAE3C08347124BF9ED23B128259FE107D31E34A652F090B30B39E0D9AF917B76A2806135621A8A60681F16AF216514BBD
311
02711585B5B1AE823F4B2D0369EA5B6BCB863072727FFC871CA6C9AB79A814D989057E9470A3D238BC87CBB4A0EA49AFE2B86F22E499793CAA9047080450166BDC357524561E258C77CB697F1ABB32562CF87C3B7AA12F911EF19FB3E5C02222E887D08202A60A17151F5E053A86B437771088B4FEE14D652C43E8D939995D
311
34545E12E2FF93D4E366EAD25F10CB7DED141563C3D0C447AF06078A91135FD4B9611583CB4BF3BD167F2399CEAB0E0100F8FFC305F00F1711717173138B4B48C83022295DE657EFEDD97F238ECA80F528AFB4F8D67AD4E2594B9A3AA86D7487EFC313BA95745C186F0CDD84CC12DC9CB0424B42203D351FD9C0A3AF10CC7F
311
388E0329279087386421F194F4A29464C1DEF7EF8BE515E4A199DCD5B909342598D8FE6A231F71336248D5CEC5454455C7BE383B3BC7B260FED27F703FDC39A170F3827239102F59D4DEE7FEF82EAA1A5E4BA94DCC4CC44E7E2EDE20F24244E4454369D2E87C3F823F193FD4FD27E1C23984B01898D15ABC20711A8A558054
311
951A6AE280096BA36CBA439603B7B0B4C45F248C14B2383B4B5CD8ECECE4FF859AD4A6CA2326D020EF090F4041D28DB66E5256B56232CC52829DE8060BAE6BBF37D4B7469B822454FE93210A3E8D15E69FFCF01123222611C51C4FD0A041A0CFA2471CF6BE38D2B20FA4C3525B5B8B586759475CF80ADFE67A284AC24651E5
311
2B8E683D24C2622642F27E7C3C22783BCF63648BC398BD6CD0D9C97E7E7E3EACB6126DB7A6C1FD9F1031302EE67ED96F22B77C7CA0239BB324207559B105E4693EB26EC46182A92C9C0DBD24F29B31C5C5AC1F84300E0E17CEEAC15F5736FA4A98971E2F1423BFCD68D4BBD5F86E74B40A369F39507C88FCDB35D2DD8DEBEA
311
4AF999E23CF2816D204200DF6E611781B9884C1AC8888B4DE397320472959434323A5A36B22A8E1F721A270DF3BD65E4A31C11FF048AFB0D8B7B6881423793963A23CFCE935FC189ED36FAE35C46DA3574C979E4394BE52084F3081837BE033396D2EBD80F1F691B273F660D2B32FA27A33B1DE4ADA5F0FA4651511102DFA4
311
10DDA86E065272CA314D5249DF91B06BB92807B28EFD54F08F7B525252782CD276DD02E6B0319B13DF87B1F6361AD6B28FC0D711CF445429B9E5A433CD493051C49A9E03DDB1B147D880253514A5DED88009018620EE229101C041950E2D8AA8E1F5F5438E0C0C0C60EEDEE9E3E0C051948C69F84BB7B2A48A1F3C8EB9E686
311
4687F4F4F6F6E2FA87608ADAF9C5E117B7C1A737E710769DA1D15ECE6A84502AA855398712D5FB51BE92E4EF824969CE18278798AC303C2C7980DD2500ADF8FB1E6D6C2FAAFF9987178923334A244758BAA01A9A1B70FA5097D01E1CC2A58DAD0EC94CE6430AA9B0C10D75E3C6BAC670EFBADEE1607739CE0FC18A2587E3EC
311
3058562014C64219C69BC269082D5C2F4A659278D585755912176D78A1B641719C2A394CED495A1AC5D583FD2F5EDD93308EA7EAE8A6DD396598BDBD3D4CFED62D18A5BDFDE0DD5C80D1A89BA62697B131AE7CE9A6594138582F1B37D68F1749AC7CB67A70695D48A4A056AC1FBD4E82358CEAE38F54B95A9016F9000F9879
311
C0D9D131768635CA798895F27D6F1614F11F2838A83611AA51C9A3DDB539D42979C29F10465655C17BEC3E2760B80DCBF609198C7B171A531905F3EC218D696025975E986C6B4C666666787271F202805577DD5A3EF0CAFAF91B62DC4B2DB4217A7606282F31D8DDBC290593BAA93EA6353AFA9939B877978481E15CFC9F27
311
55CDC00C538F63A4BA3E80AE009B73CA0185687D339A507D165B74290D6EE46D5C58148F020C3668ABE9EF2F7549170DC80DB41FFC1D678FF19AEB10C7133832B104B80F691B3138F97A92D26E551F1F110400D45AC71A9B9AC41A1A1B1DAEED0B0810638EFFB511D46B121C6FEA0F38CD00E03CFFEB9713FE1F9C263E4DDE
311
C160D0497FA9A132BA608584057FB15380825DE6C7FC3C667EE947D488A09898D8E939C4953BF4EC9836344D2CC6B2971B2A21A572B06096F4982D2CC7232D46E8EA69DC83722E267754D777F97F96D5DA74E1E75178084D0E70F12AD33E5F71EF2AFA599B2BEBF60A5BE475F444F240CBFE8143C334E7ED9150FEEFEF7EB0
311
20C4DBED388DD1D6A167A76F3CBF119B578AE8CFA7736ACAFA4440A1C47185638A0D2F3EB5BDDEFDA958FB13CE4AA4923D5BF840392D45544329525749734866684BF7F8D9D54D892E19BCA9F829A0F8BFCBEEA6CFDFC61D74EA1A645ED7A1FF241739F15694BD835B66FEC5677E40FE69BD3F91AE402F036537218A401CB0
311
828604AD189E575015C6F3F6BBC8AC79CF6C70653847254B31551EFCBEB5978B9DB85D58D0FA41A9DFE9C624834AA04949D24B5AE6D299E072D152D12097920F14AA92C31C3B97E28B6C2E6E9C23D63043ECBBC0A60FDF5BD0C33C127EA8A3308B8B6AFFEB28B4455BF6E7AF4FC6222728357EB8E46E85053E6A8843AB2329
311
5BF838ABDA94658FEF3F832F147046B4ACD6F7D48E8FCC9618582961C898D1C7A253C91BFECBDA6BA18A1FCF70755DCCEE2222F41B76D23CA98D0CB3D95F0CF66D57FFF65E2A90F5DF40FC3187621E981BD0BC1D992787212688976B94A8F0C6EF646624B570B78E068826F87CE27041A95C9A4871FF65CC17FCB1639629AD
311
6A9517000D63AC231F3D741CB8430777E7ECF80CE7A3F73C0F162F7E56AA71F4DA80A33CD6ACEE78E2C11FAC03DAFCE929B106F8F6B3ED2DC71FF994BD9CEF4E9A94896EF1B6E2B7B4978168BCF0847A3D2A4F1B0500B926E634B174548E9FBAD27153FB5FC36799B1E6C7C38A94E1F9E996796D7B485E635D5287A2AE76FB
311
D11A341DB3F8F810385BB7296391973DC6C37C452A9305AEBBE0CDB6C566DB59FE60C8E94B1FD090354BF51439FFD1B48D725228FFA88C84F686F547107A7A235665A4593B7C34D748C1AC8D56DD5DA861EEFBADDECBBD65117E65851F90351AEB65F0EFCFF4BCFEF24CB7A5879699FAC437A7AF9099186CF006BB923A59E3
311
7D7A36A29FD8D2CBB914A5E9D0A8FD212FBF796AE9A67958FF1D5D8B85F78F96219D4714EB919929241B6C018AAE0C02069F8D919961EC5DDFBFB7573E3AC8E08BFB7C8534BE6DE045B3CD63DBD71F7638BA2309CAE398EA3A7D8F98BBBC7AEB367EFA5CFA27A9F8F2F52FE878058E6209C026453F8E7E8A237DFC389E9590
311
F6059B397CFD65183BBF936E86896612A5B5FEE49DAC8455D026218AFEBEC12B3523A45B57B82C9C97E02ACFA1184DB18E48CF615DBF39C3CC6F0B4AE6BBEEA2E39D944E290302FA3DE33FA7E40296E2EF7BF1CD855BBECFAD0FD622BEE9746FC4FDFDE545AE6E3BC234CADF83A0FB76DFB145BF3828AE3436368AC2498945
311
4F8FF70A177672C711CAA1A76107218CF948CA01F873520E7A2B118EBB161ABAD432932029628B6761590C98AB590C8C8C79798CE9F715BA696E839E9131A4BB68BE923F1747FBFF165331FFDD4D05997ACD168F12CA75348DAC04C7F509FE83898A8B421181AF492861CE81E4A2DD0A30850CFA95E05F097FF70F9E777310
311
D584A75BA7018922E271DAB1D785671157685B7D383D3E074DDB4F1E44EF04B07BAAC75A062077C54B9752C738C9D804D402E02851F3F89605AF189738C18C021D2139EAF72513824E10DDD3047BACC8521ED7E98B257D1166903B1B08FA6F918FD7E162913FEC7D0EF4787E29C35FBA8C6E2C9C20E9AB30AE42CA2A01A090
311
E7D010C1B5BF9CEE2A304BF3A987FB40D836979B79E18D70F257DA61E808472DD85B82761825779D6B90CAEB0F23360C6F80A7D7D77545E95B3DFF0CF96A827F9B5BCECD2C9698718417EF80FEEDEE938AFF55859D0D540B7FE09435583A6F04874A0C7E8CF234DF4879722000167F5872CEC6BF3EF7E5A8CC8121E6A35922
311
7C8A29C95212F9F735BC72A887D56B8F309FC525BFB4FD767AAEC4AEFF249CFBBD2DE1AB9969A6155C7D8DABC307E47324C1F916C7BCFF40ABA5644E9FFB9238D19ADADA49D9610F01ABBA57E4DFCBDCCBB2B93C8953206C91DE01B0E2651A6D6C31721915B31F7B7CBCE55466F6D70402788FA91D73BE4ADCBA99A35F17D6
311
B83383704917D6833F0FA3CD45C926ADB8BC17999A4A0AFBCE2541F7B8CF4C2F5FBA611B3E626D64407CB32C122DFF4EF8674D6EDBB86C8F7C6A16D50FA685E2CCA34F8F7D1D8265BB0042E9D7F1F666F7BE5FAA5184DF58E12122A42EF02F461B3F369AC746F96528AD208512AB56844CF75B97F352DF7995024FB0285538
311
5854F3798670D01CAC771AC3E1889EC25F61A20C1F8CAB46898817F9C47E2CDA1F286BF2F358298709FE567C91133E2638C8B53975E753EA8BFD3578B5F7186B7BF084EBA3F77BAC3132A5779902EC22AF2D2E79F42D324E083386DAEE9810D1B44A5DAA54513C7A71E52A4AB9257D975B621308FE4D2141CC3DCFE946C154
311
A3C1DFCCA7629EC69ACFA831634ADDA93C0388D2A9A2DDAFCF957C6995BCE7FBB6DC4EBAE79E63EB08E9A25F52F67076F7093CA545CA3053B5BF576DEAD4E0017143C5F759F32B2D6F145B52B67B48909B7C7FCA6586EE385A2189C16932CB6DDFD9152AE317C430492A578ED27B72D85D40C7C93C097939E1B50F4D67F053
311
34FE9DC362C30B7FF561B95259138ECFD9274C8D695C31B14D4EAA9F3D7FA8DDF652F8C5DEFA23284C799B7D94416DEE81E05A866302DC70192A5368EA65E1CED8BF107A1E2D3119A71E85DC1A7B0C1E93274CE04DD0F2ABC8AC7C987FDB002B6F81757B43502EF7A0D92E416494FAEEA4C9C090CD9557AA4D532F4996A272
311
B94355C5A0E4974EEA9627476F30809B94D8D8D860062E02204643BEC7D0438AF800FC7E2B26955D595421E83C69E1A07E0E3122285835F014AD538188CF9737CE76D464A353FA55A001AB2526B84E985083693BC76FE211CA1D000679C889E3C009832C87E1AC2EDD05C302557422DF0800E316FCAC86978A371F025A6C7D
311
AA9F333E7BD160403A1A06EA75AA9888FF01504B03041400060808001575494D28BB58AF800100009E0500003D00000045424633363644312D373741332D343745442D393344372D4134424646453738463041362F536368656D61732F436F6D6D6F6E536368656D612E786D6CBD544D4FC23018BEFB2B96DE15493C786010
311
10A34B880709DEDFB52FD0D8B54BD70DF6EFED3AC0B12E6442E2716BFB3CEFF3D18E26FB440405EA8C2B1992E1C323095052C5B8DC842437EBFB673219DF8DA659866649B798C078B48AE6410122242F2A4994AC7F93815DF85C049C8564CA0A901499DD886B2EB9B1E02448F358701A9235880C49A0119892A20C89D1B9FD
311
768815CAD268CB5E0355B40B1E47F3E37A2020464BED06AA57CE8FCC20C3C3446D46761A2632A8C1283D07031EFF2AE7CCB1BFEEE916E406DFAC8E36FFD99A9D60A6944090EEDC3B670C7DC13DE86B6B2C5C240D6E503BB85ACD579D513F1B9F9A69DC9CC22AFA80C426D40AF0B21EA168559156B6276F0F726A6BFF04DCD5
311
13A87A62CAD41FB24FCB2858B3952E3D852084DA25B9303C15687973CC8E8AAE11DF2836C38C6A9E765E8C1BA1BFB1DC29CDFE518C8B5A7655A4ED7E77291ABEB80DBD82EC866ADE1B8D05AF9E35CF09D7A061F38A986D9EC412B8F0F65E5D81534D9B231D1E5A8FE577A241F3A5FD01504B03041400060808001575494DE3
311
36299B9F040000341300003E00000045424633363644312D373741332D343745442D393344372D4134424646453738463041362F536368656D61732F47656E65726963536368656D612E786D6CD5585B6FE238147EDF5F61E5BD1498E9A895A02398AA5D1E2A5665BAAF96710C78D6B9C87168D95FBFE7F81242134A968E46
311
9A4855437C72AEDFB965F4F53551642B7421B3741C0D7AFD88889467B14CD7E3A834AB8BEBE8EBED1FA3495108B3E01B91B0DBD1F3EC8E6C991A470F22155A72F73CBABC1D4D5921DCD1934863A11F990102A6F61466977B8AC49FB13C174CB3940BE4504A22E3713489B7F82406516225536940BD88E4E552493E8E564C15
311
22225AB0384BD56E1C195DC26FAB13882C2EBD62E1FF9E5B0FCC453132C99548446A1872B62267078F1EF14C3DB1DD1952DDBBB384AD456779F387C51992E0ADCE12FED2622BC5CB1952FC9BDF3295E9206E961AB116DA7ACE45F76F07A26EFC3FD762FD7362FC3C0BAA4DB34C09E682CA5167BADCD16CF94370E331E2F1A3
311
D852008AAD5D64BA2373478338AEB1583B905396D158182655E1B938D07926CF007CC7E85E6709999B0D3827C0BF406BEF55C68CF5579DA32C8C85BE03EFE788787E8FEC95DC85C3E31A615658D81F9A34499612004CE69CAB12531B15A887ACA642C110F8C1A8C1974A85853F407794695C905C688E69B116550ACA946B9B
311
4785FC179E0E229240B62665328E86D5BD2C800CF5D80289F35AC25E3DD51508F4BF9A74A0F5A557BB3D284BC6FF59312E282F956A75C5D453906F48D11A876599E49425602400842995BDF02C4D012E226658F78A710416AC552831FDDEF0E6F0BABEBEA9DC36718CCEF4DAC5A0DF871AECBDD8F448F015F8DA113A473609
311
D1751672B723874B2CAB21ECD6E284E51DCC7D1A47A00F60EC21DC4CC3CDC406DC03760A4E6C772F2F4D561A9AE58C4B03F5B4838701472139EDCB36819A66C472B52AB1139C648956F43E0DAEC067B56B0818F5961D3D446B8F1E1E78C0EAD7EE02AF2895D813E88AC5014A7B436DBB20F778D40A1D9737EFE45B47D49CC8
311
360F9966B15AABAC802C1005548A93EE469F5D55317CD8BF0AA86CABADB2A009D4D6F60CFE53AE370AFE8C45415B15D362A5A038E766E34B00F8C2E3E7098E2093B1C96349FDAEA158903B4BDAEA665F473FECE72186E3BDDCACCADA31839CD6D4FA7D47DF5469006ED340EBE71DF960DDEE88A3E17557039B58C278A1795B
311
A8079419DA8FC5BA1BAA1A66238BF69C7B2BE4E6274839122B7D00BE8B7D52CF61B2D63216046008C8B330FC10F8907787DEF061F47965BBA02FD8F53BA12F9827614979F53563D0BB1AD67A03DC0E00E2FB2CF3EFB457E70E65A3D7C78E7D700DBB45132AE9BBA5E468CD861408961AD8B00A55C2FCC677F4456039FD9F19
311
07A5B3E2D0EE845FDBA2DAFA88C64195671AD6D282DA2E45B1F50A0D632B0D0B6718757DCC7C84A70A3656F222CDA6DBF07E204AB358961D1BE31E53A82C2C0D56DBF61A5608B5A252A932A1DC6E32462430853353EA30417C8199A662E946A4EF352268B8CDB9A9C6762515ACE8E09BBC031C608A02C4BA89C9DDC074E46E
311
0E26A17BCBD4ED43270D03E3645ADB81F6D62CC07A3243EB81C07E01681DDF2DB4730631E6DDA6CBBD048BE9F06AEB3CF06B31DD6C9575E37E9FF17161342C4C76D95519672A6509E0F5C4E71B4B1916440059F57D0921F496237E473A83E3E4E06353BD9D27593594D7B6707C08D22FEBDFBFFE03504B0304140006080800
311
1575494D8DFFFC99640100009B0300004500000045424633363644312D373741332D343745442D393344372D4134424646453738463041362F536368656D61732F52656E6465724D6174657269616C536368656D612E786D6CA5535D6BC230147DDFAF08799F5FDB600FADA20EA430D968A7AF12D36B1B481349529DFF7EF9
311
A85A718860DFDA73EFB987734EA3D16FC5D10E946652C4B8DFE9610482CA9C8922C6B5D93CBFE3D1F0291A6B0D26A3255464182D920FB4233CC629881CD49C18508CF000E3EE309A100D61622AAB4A8A33B2483F11CB639C545B0E1508438C3D3C0361192846DB7ACD198DF186700D182920B914FC1063A36AFBEE8FBA03FF
311
D3CC1D1F4FC9E151A2AF59F628C5B7821D83FDFD3489305080F2EE04BF962195FB285E9D2DD352320A9E827AE357594914E42B1F5FE35F83688F60C4C91A6C946ED0668E8F244BC2EB0BA6E3BCCFC0B6A4B507F9F9F8D51EB315D9BA9E08D308E89F96931666E577837E2B4172199C68C4FE306156D47DF51C698C7B9D97FE
311
5BEFE2190C3C38BB054E6E8163FB039CB4B993C80BF18D969203116D6BBD26238B821F9BB909AD6D9C71B85BCD8C33D66FEA3D31B4BC0AD45BEA46BBEDDFEC0F504B03041400060808001575494D3E5A413251000000570000004700000045424633363644312D373741332D343745442D393344372D413442464645373846
311
3041362F4173736574446174612F41737365745461626C654F66436F6E74656E74732E62696E536160607075337572327375D635733234D735713470D675747372D575723635B7B07471317272341102AACB4D2C492DCA4CCC492C28484D2C4ACC4B4E050A82012F90744FCD03CA26072767A4E6260200504B030414000608
311
08001575494DC55C663656000000680000004500000045424633363644312D373741332D343745442D393344372D4134424646453738463041362F4173736574446174612F53747265616D56657273696F6E5461626C652E696E665D8CBD0A80300C06F73E4B29FE6CDD8A2E82A083B8B7F209014925C9FBA3AEAEC7DD2555
311
D896CB85E51C2A1BD834F6A1F56EC4494C4695278364ABB24ABD2146F88CCEBB89D5321FF8F3F43D672A3B44DF3CB6A1710F504B03041400060808001575494DD7E1FF8E36010000A20400003600000045424633363644312D373741332D343745442D393344372D4134424646453738463041362F4173736574446174612F
311
636E782E786D6CCD94314FC3301085FF4A648931B653752895E30AC1D209242A06B6AB7329561D3BB22F08FE3D769B010462EAD0F5F4DDDDF393DFA9CDC7E0AA778CC906DFB2864B56A137A1B3FED0B289FA7AC5AA8D563104FA86B1CAC3802D2B65A6D52186699C4B1DF630B95275D61FE7E25D4A483BD83B7CECEF8327F4
311
9458651CA4D4B264DE70000E13850ED3917740C01B1E3185291ACC93C80E384F321181B0637A219B55DDC85ADEEE9AE57A29D7CBC5AB1285D46A1F829B799B97C530DE2CA439EF655A2A5100ADA66867AABC86E9BF54F2BDF54A6452AB4431BB3277D0E7983B601C9D3540D93C110C21D51942189438C35A89E2C20F2F1EB0
311
B7DE96966D960614E2531688912C5EA127FFA9BDBC375B9F08BCC16B76E4B7C6CBFBF07CFA452FE7589E72737D69F9AD915BDF5F202BE2744E7274CA75D15F504B03041400060808001575494DB0D3B036E6000000600100006700000045424633363644312D373741332D343745442D393344372D41344246464537384630
311
41362F5265736F75726365732F45463542423645432D364231372D344130432D414642452D4243353738394444324241342F7468756D626E61696C2F302F636E782E786D6C4D90C16EC4200C447F25B2D4630289F6B05D11F627F6D44B458937454B300253B57F5F6839EC69ACF193E51975FD3EFCF085293B0A2BCC938401
311
83A5CD857D85C2F7F10CC355AB44C44F180CC11CB842B341AB3D5189DDDAF06E8A6FAE77E1D1CD1D032667DF63D861B0DEE4BC42B69F7898C914A60DF363DA0C9B699E12662AC9623DC0EEC07EC026348C1BE845CEE77196A37CBDCDA7CB495E4ECB9B128DD4EA83C877DE05C644F1659196EA18EA3F528906685592EB540B
311
01FAE93925EA52ABCCA9E6EF10FFC40A9918BDB3866B4D822C238F15427328F10F6B255ADE2A7F65546DDDE85F504B03041400060808001575494DA233C2345D000000800000006500000045424633363644312D373741332D343745442D393344372D4134424646453738463041362F5265736F75726365732F4546354242
311
3645432D364231372D344130432D414642452D4243353738394444324241342F7468756D626E61696C2F636E782E786D6C4D8B490E80201004BF42E6EE76F3C0F216234B883063108CCF170C074F95AE5473F5C4C06E932E4F28601967600677D21E9D8092EDB002539227A2FCCB80E1168D80A6417297A89C5D6963B7129A
311
0D1E8F2EE73AA7B62BBEB8B27DE50B504B03041400060808001575494DBE89762363000000880000005B00000045424633363644312D373741332D343745442D393344372D4134424646453738463041362F5265736F75726365732F45463542423645432D364231372D344130432D414642452D4243353738394444324241
311
342F636E782E786D6C4DCC3B0E80201004D0AB90EDFD75167CCE820A4A845D83603CBE602CAC26799919AEEEE0D965E2E908050C6D0FCCE04C8BC355404EB6198129C92351FAD580A10E464065907C8D948F8F166375F655BDC3FDC3B4E530A176BE7057BDC43B2A593FE403504B03041400060808001575494DE192DC507F
311
000000A30000003600000045424633363644312D373741332D343745442D393344372D4134424646453738463041362F5265736F75726365732F636E782E786D6C4D8CDF0A83201C465F457EF76E35FA375043CDDE239685643A5C8E3DFE7474B1AB0F0EDF39A4FFEC16BD757819EF2894970290760F3F1BB75288C7823B40
311
3D23C1FBE3EF06C84DBBA6903130B2061F9F279AF532459BA9356E3BA11A6B211A257123CA1657BC90988F426121EBB6BB0FC34DF02A19D7ACA4F9F5D2E63CFB02504B03041400060808001575494DA0BA1C460B010000550300003400000045424633363644312D373741332D343745442D393344372D4134424646453738
311
463041362F536368656D61732F636E782E786D6CCD93BD6E032110845FE58494F2803B5DE1581C2E52A44A93A44A47B8B58D0CEC899F2879FB8043614BE992C21D8C3EAD660656EC3E9DED3E2044837E2603E5A403AF7131FE30939CF6FD86743B290262BAC048E7958399549948710898D7262DB057D956D51A7F6AE2033A
311
87FE451FC129D269AB629C493C5FA9CA09178827BAA8A4E8400344CC414399908C8336410750091622473E6CFA81F7FCFE7598B613DF4EE39B609594E21DD136DEF80401D7BB916B2C475F0C71C12A20450EA65135059197EE68E943B042481153282D34327DAD8554EB6A8D56A994C5CEE00F2305AB61AF223F828760F4AD
311
66BEB2F76FA19FC12F109ECA4B05A3ECAD66FFCDE5DF2A60E70D28DFA02E84FC06504B03041400060808001575494DE3603EBE7A000000C20000002C00000045424633363644312D373741332D343745442D393344372D4134424646453738463041362F636E782E786D6C6DCD410EC2201085E1AB90D9DBEACE05D0987802
311
3D01A1D34A8419C380F1F82DA68B9AB8FDFEC93C3D7C52546FCC12980C9CBA232824CF63A0D9402DD3E10C6AB03A3397DD192872090D3406ABE7CCF5B5D18893ABB1690CF4DCF02282E5EA8A5BB96FFE536F285CB347F95BEFFE81C9ED5AFF9D5B1FB575BB00504B03041400060808001575494D5667DD227E000000A30000
311
0007000000636E782E786D6C4D8CD10A832018465F45FE7BB7C2D0065A18EA7BC4B290990E97638F3F1D5DECEA83C3770E1F3FBB476F9B5E2E0601EDA50164C33D2E2E6C02F2B1E21ED038F014E3F1770314E6DD0AA81806BEA5989F275AEC3A675FA977E171423D1942A96A316392E08E69856F44312CBBC918CD7AD3485A
311
8C6B55CAFC7A656B7EF802504B03041400060808001575494DCA1DF9C9A900000073010000130000005B436F6E74656E745F54797065735D2E786D6CA590410EC2300C04BF12E5DEBA70400835E500FC800F84E0B411AD13252E2ABF27A55740421CEDDDD9B55CEFA7A117778CC979527255565220197F75D42A39B22DB652
311
EC9BFAFC089844F65252B2630E3B80643A1C742A7D40CA8AF571D09CC7D842D0E6A65B8475556DC07862242E78CE904D7D44ABC79EC569CAEBA537E3521C16DF5CA5A40EA17746733E0B6615DE7217475F386F18B9481C510F1F021CD9FF027EA0E1F5C4E609504B03041400060808001575494D3DEE336E64000000790000
311
001B0000006175746F6465736B2D64657369676E2D7061636B6167652E786D6C35CBC10E83200C00D05F21DCA56CA76D41FC96062B120735B69A7DBE268BB7777961F8D5AF396893C2ADB70FE7ADA196782C2DF776D7A97B5933C430F15651E5469C55D70F80A4992A3ADC954792C525AE70A1E4D6AD9816CC044FEFDF01FE
311
3FDE907802504B03041400060808001575494D7A42B2C6F8000000960100003700000045424633363644312D373741332D343745442D393344372D4134424646453738463041362F4173736574446174612F636F72652E786D6C8550416EC32010FC8AB5776CB0B1E2449828AE9517F4D41B02E2A0C46019A8FAFC42EC4AED
311
A9A75DCDCECCEE0E3B7FCDCFE253AFDE38DB03293114DA4AA78C9D7A88E1863A28CE9CADCE855F3428AC98750F1906CEA6D5C56587A4B341DB8C5AA7F40E0AEF7580423E53D38397773D8B52C49018FE512E423EC4A44B526E3CCE62346A971A95DCCCCDE815381D70D70DC388AEEDA143F4726CD1F086096A1ADA1CAE2D1E
311
C830B22A8B390B66FED92E572D8256C06B4C3A4430C2C777424F149F68FDC1AACCE4CC8735FDBC2FCDDF01BFE4AB471104ABB6E91FD7B8A8FF5DA3B1A1A977D74DE1819374E46BC05995534AE51561AA3951FE0D504B03041400060808001575494D3ED71350F30000008E0100006800000045424633363644312D37374133
311
2D343745442D393344372D4134424646453738463041362F5265736F75726365732F45463542423645432D364231372D344130432D414642452D4243353738394444324241342F7468756D626E61696C2F302F636F72652E786D6C8550CB6EC32010FC156BEFD86063C589305169942FE8A93784898B1283C5A3EAE7176257
311
6A4F3DED6A76667677D8F96B79549FDA07E3EC08A4C65069ABDC64EC3C428A37344075E6CC3B177FD1A0B272D1231418389BBD4BEB0E2967A3B605B56ED23B2843D0112AF5C8CD08417DE845D632C5CC08F77A95EA2E675D937AE37196929976A999B29BB919ED8153818741880BBAF68701D197638FC42B26A8EB6877B8F6
311
581071614D117316CDF2B35D792DA39E80B7980C8860848F6F849E283ED1F69D3585C959883EFFBC2F2DDF01C7ACD9D03F6E699DFE774BC6C6AEDDDD3645004EF271CF01674D4927976774B99624F937504B03041400060808001575494D1A8C83C4FA000000960100006600000045424633363644312D373741332D343745
311
442D393344372D4134424646453738463041362F5265736F75726365732F45463542423645432D364231372D344130432D414642452D4243353738394444324241342F7468756D626E61696C2F636F72652E786D6C8550CB6E833010FC15B477830D462191715437CA17F4D49B0B0EB10236F2A3EAE7D70E546A4F3DED6A76
311
667677D8F96B998B4FE5BCB6A6075262289419ECA8CDD4430C37D44171E6CC591B7ED1A03072513D6418389B9C8DEB0E0DD60465326AECA876507AAF0214C39C9A1EFC70578B2C650C89E11FE52A87879C5449CA8DC7598C7ADCA57A4C6EFAA695034E05EE3A212EE8DA1E3A445F8E2D12AF98A0A6A1CDE1DA6241C4855559
311
CC59D0CBCFF6C12919D408BCC6A44304237C7C23F444F189D6EFACCA4CCE7C70E9E77D69FE0E78B8C7E5C3483DB36A9BFE718DEBF8BF6BD42634F5EEBA293C70928E7C0E38AB724AA93C234C3527CABF01504B03041400060808001575494D502636000C010000B10100005C00000045424633363644312D373741332D3437
311
45442D393344372D4134424646453738463041362F5265736F75726365732F45463542423645432D364231372D344130432D414642452D4243353738394444324241342F636F72652E786D6C8590516F83201485FF8AB9EF2828B6B6411AD1FA0BF6B437A2B423ADD0082CFBF983D625DBD39E2E399CC3C73DECF4B5DCB34F
311
B53A6D4D0B24C7902933D9599B6B0BC15F5003D989B3D55AFFCB0699918B6A21C9C0D975B5E1B14993355E99A41A3BAB4D94CE290FD9748F8716DCF4A11699CBE0A3C3DDF2879C6EF2AA7292BF7C9C85A0E72DAAE7F89ABE68B502A702378D10031AEB7D836877A891E831415545ABFD586341C4C08A14E6CCEBE5873EAD4A
311
7A35032F316910C1081FDE083D527CA4E53B2B929333E7D7B8F3064DDB013F8FB510BB738F7682EC230EF7A81BC5393223FE300CA5E8282B5EC13FC0F098FF07066D7C556EC057C20127F1FFCF0BCE8A54601CCF76E34C65F36F504B03041400060808001575494DEE1ED59BFA000000960100003700000045424633363644
311
312D373741332D343745442D393344372D4134424646453738463041362F5265736F75726365732F636F72652E786D6C8550496EC3300CFC8AC1BB6CC90BE204B282BA411E50F4D49B20338E905832B4147D7EA5C405DA534F2486334372F8F16BB9179FE8BCB66600565228D0283B69330F10C385F4501C0577D6865F3428
311
8C5C70800C83E0B3B371DD20654D4093516327DC40E93D0628D43D35037875C545963286C4F0B77295EA26672C59F9E4091EA39E36A99E929BBE687420DA91F6FD389EC8B9DBF5A47DD977647CA58C344DDBECCE1D1DD978E255160B1EF4F2B35D399401271035653D6194D0FD3B6B0F2D3DB4F507AF3253701F5CFA795B9A
311
BF03F186DE46A7D0F3EA39FDE31AD7E97FD7A84D68EACDF5A9F020583AF23110BCCA29A5F28830D59CA8F806504B03041400060808001575494D76DD907BF7000000940100003500000045424633363644312D373741332D343745442D393344372D4134424646453738463041362F536368656D61732F636F72652E786D6C
311
8550CB6EC32010FC156BEFD8E087E24498A86E941F684FBD21200E4A0C168FAA9F5FB05DA93DF5B4ABD999D9DDA1E7AFF9597C2AE7B53503901243A18CB0529B6980186EA887E2CCA8B336FCA24161F8AC06C830303A391B971D12D60465326AAC543BC8BD57010AF14CCD005EDCD5CC4B1E4362F847B970F1E0932A49B9F1
311
188D51CB5DAA6572D337AD1CB076C47D3F8E1774ED0E3D6A5F8E1D1A5F31414DD336876B8747325E6895C58C063DFF6C174EF1A024B01A931E118CF0F19DB4A7169FDAFA835699C9A80F2EFDBC2FCDDF017B5BEFF4B4DA667F3CE322FFF78CDA84A6DE3D37850746D289EB80D12A6794CA1A60AA394FF60D504B0304140006
311
0808001575494DE7A5E48603010000D80100002D00000045424633363644312D373741332D343745442D393344372D4134424646453738463041362F636F72652E786D6C9591C16E842010865FC5CC1D15B5BABB41366ED427E8A9372AB32ED9158C60D3C72F549BB6B7F604F9F9FE19FE19767E9F1ED11B2E56195D038D53
311
88500F462A3DD6B0BA2B394074E66C31C6FDC020D262C21A820C9C8D8B59E75D1A8C76A883AA8DC45D14D6A2836878F84B0D76B8E12462B13A4FD87B3C8BE12E468C69BC719C39357D5987058543093C4BE981D094A4C7675A9C8AF454642F2C092467ABD22ECFF66638BDA28CCCEC7C24E04F394BB6678FAD4AEE9092FE93
311
EAAA7001DE5DFABC2C5B4AAAAAC94951752D39E66D459AE2D2F75D75E8D3A6F445BC9933EB163F9ABD4818C25FED9BF157B47596FF8CB6392C70FA1D2A0973E62CF95C823FC34EF807504B03041400060808001575494D48BA866507010000B201000008000000636F72652E786D6C8D50CB6EC32010FC15B4776CF0437122
311
4C541AE50B7AEA8D1AE2A0D8601988DABF2F24AED4DE7A5A3433BB330C3B7ECE13BAEBD51B677BA00501A4EDE094B1630F315C7007E8C8D9EA5CF8250364E5AC7BC8307036AE2E2E1B34381BB4CDA8754A6FA0F45E0740C3941E3DF8E1AA6759C81892C2DF8A450E3739EA82164F1D67C1CC3FABC3AA65D00A7845688729C1
311
64FF469B43430E4DF5CECAACE42C46A3362BA392BBB918BD026F04E93A214EF8DCEE3ADCBCEC5B2C5E09C575DDD4BB734B04152756E665CE7C58D39FB7232967405EDEB32F2B9F14671FCE4D9B208552C8D9E90B38616526FE848E8BFA476863435D6D079F1B1E384D811E4432CE0DA6F1A837CDDC36FF06504B0102140014
311
00060808001575494DD88AFCB9F9000000A80100004F000000000000000000000000000000000045424633363644312D373741332D343745442D393344372D4134424646453738463041362F4173736574446174612F446566696E6974696F6E4974657261746F7250726F706572746965732E62696E504B01021400140006
311
0808001575494DA53975E2EC0000003002000045000000000000000000000000006601000045424633363644312D373741332D343745442D393344372D4134424646453738463041362F4173736574446174612F496E7374616E636550726F706572746965732E62696E504B010214001400060808001575494D88E57597CD
311
3F0000904100006B00000000000000000000000000B502000045424633363644312D373741332D343745442D393344372D4134424646453738463041362F5265736F75726365732F45463542423645432D364231372D344130432D414642452D4243353738394444324241342F7468756D626E61696C2F302F67656E657269
311
635F706E67504B010214001400060808001575494D28BB58AF800100009E0500003D000000000000000000000000000B43000045424633363644312D373741332D343745442D393344372D4134424646453738463041362F536368656D61732F436F6D6D6F6E536368656D612E786D6C504B01021400140006080800157549
311
4DE336299B9F040000341300003E00000000000000000000000000E644000045424633363644312D373741332D343745442D393344372D4134424646453738463041362F536368656D61732F47656E65726963536368656D612E786D6C504B010214001400060808001575494D8DFFFC99640100009B030000450000000000
311
0000000000000000E149000045424633363644312D373741332D343745442D393344372D4134424646453738463041362F536368656D61732F52656E6465724D6174657269616C536368656D612E786D6C504B010214001400060808001575494D3E5A413251000000570000004700000000000000000000000000A84B0000
311
45424633363644312D373741332D343745442D393344372D4134424646453738463041362F4173736574446174612F41737365745461626C654F66436F6E74656E74732E62696E504B010214001400060808001575494DC55C6636560000006800000045000000000000000000000000005E4C000045424633363644312D37
311
3741332D343745442D393344372D4134424646453738463041362F4173736574446174612F53747265616D56657273696F6E5461626C652E696E66504B010214001400060808001575494DD7E1FF8E36010000A20400003600000000000000000000000000174D000045424633363644312D373741332D343745442D393344
311
372D4134424646453738463041362F4173736574446174612F636E782E786D6C504B010214001400060808001575494DB0D3B036E6000000600100006700000000000000000000000000A14E000045424633363644312D373741332D343745442D393344372D4134424646453738463041362F5265736F75726365732F4546
311
3542423645432D364231372D344130432D414642452D4243353738394444324241342F7468756D626E61696C2F302F636E782E786D6C504B010214001400060808001575494DA233C2345D0000008000000065000000000000000000000000000C50000045424633363644312D373741332D343745442D393344372D413442
311
4646453738463041362F5265736F75726365732F45463542423645432D364231372D344130432D414642452D4243353738394444324241342F7468756D626E61696C2F636E782E786D6C504B010214001400060808001575494DBE89762363000000880000005B00000000000000000000000000EC50000045424633363644
311
312D373741332D343745442D393344372D4134424646453738463041362F5265736F75726365732F45463542423645432D364231372D344130432D414642452D4243353738394444324241342F636E782E786D6C504B010214001400060808001575494DE192DC507F000000A30000003600000000000000000000000000C8
311
51000045424633363644312D373741332D343745442D393344372D4134424646453738463041362F5265736F75726365732F636E782E786D6C504B010214001400060808001575494DA0BA1C460B0100005503000034000000000000000000000000009B52000045424633363644312D373741332D343745442D393344372D
311
4134424646453738463041362F536368656D61732F636E782E786D6C504B010214001400060808001575494DE3603EBE7A000000C20000002C00000000000000000000000000F853000045424633363644312D373741332D343745442D393344372D4134424646453738463041362F636E782E786D6C504B01021400140006
311
0808001575494D5667DD227E000000A30000000700000000000000000000000000BC540000636E782E786D6C504B010214001400060808001575494DCA1DF9C9A90000007301000013000000000000000000000000005F5500005B436F6E74656E745F54797065735D2E786D6C504B010214001400060808001575494D3DEE
311
336E64000000790000001B00000000000000000000000000395600006175746F6465736B2D64657369676E2D7061636B6167652E786D6C504B010214001400060808001575494D7A42B2C6F8000000960100003700000000000000000000000000D656000045424633363644312D373741332D343745442D393344372D4134
311
424646453738463041362F4173736574446174612F636F72652E786D6C504B010214001400060808001575494D3ED71350F30000008E01000068000000000000000000000000002358000045424633363644312D373741332D343745442D393344372D4134424646453738463041362F5265736F75726365732F4546354242
311
3645432D364231372D344130432D414642452D4243353738394444324241342F7468756D626E61696C2F302F636F72652E786D6C504B010214001400060808001575494D1A8C83C4FA0000009601000066000000000000000000000000009C59000045424633363644312D373741332D343745442D393344372D4134424646
311
453738463041362F5265736F75726365732F45463542423645432D364231372D344130432D414642452D4243353738394444324241342F7468756D626E61696C2F636F72652E786D6C504B010214001400060808001575494D502636000C010000B10100005C000000000000000000000000001A5B00004542463336364431
311
2D373741332D343745442D393344372D4134424646453738463041362F5265736F75726365732F45463542423645432D364231372D344130432D414642452D4243353738394444324241342F636F72652E786D6C504B010214001400060808001575494DEE1ED59BFA000000960100003700000000000000000000000000A0
311
5C000045424633363644312D373741332D343745442D393344372D4134424646453738463041362F5265736F75726365732F636F72652E786D6C504B010214001400060808001575494D76DD907BF7000000940100003500000000000000000000000000EF5D000045424633363644312D373741332D343745442D39334437
311
2D4134424646453738463041362F536368656D61732F636F72652E786D6C504B010214001400060808001575494DE7A5E48603010000D80100002D00000000000000000000000000395F000045424633363644312D373741332D343745442D393344372D4134424646453738463041362F636F72652E786D6C504B01021400
311
1400060808001575494D48BA866507010000B2010000080000000000000000000000000087600000636F72652E786D6C504B0506000000001A001A00210B0000B46100000000
310
504B03041400060808001575494D000000000000000000000000370000006662782F34323742353236332D334136382D343233372D423546442D3546383242424643383534462F617474726962757465732E62696E504B03041400060808001575494D000000000000000000000000350000006662782F3432374235323633
310
2D334136382D343233372D423546442D3546383242424643383534462F76657274696365732E62696E504B03041400060808001575494DF270F1330600000004000000360000006662782F34323742353236332D334136382D343233372D423546442D3546383242424643383534462F747269616E676C65732E62696E6366
310
60600000504B03041400060808001575494D88E57597CD3F000090410000420000006662782F34323742353236332D334136382D343233372D423546442D3546383242424643383534462F7265736F75726365732F322F305F67656E657269632E706E67355B773CD4FF1FBF73E71C0E67EF7576C9DEF3EC995D46C6A1EC50
310
46649CBDF79E192942562825CE965D8A868C2842C8DE9FDFD1F7E7F138F7078FCF6B3F5FCFD7EBFDFEC41B196891913091804020321D6D7513FC77D8C5070EC3FFEE51B21F068154CC75D455CC028A3EA68992803810109FDDE5D5CEC5521B28A1B422BF80741695D5B529DA1C2D058AD2388BDA9F476F7C2CADC939304173
310
DBF48A452BF8A700C0C70C3D121C1AA15A5270C22E2B9E28763651F7DA0D12CE11077B2ECD0D560B5E3DE2368B1E65C5E1C87384A4CC5F2D9FB8BE39E9B77C753783A37998F5CEF1B4FEE553463245C9712270880DF339E0B882A6BA713D865F6F384C842D440934EF264F4A304F8DE4EEFA1E2BF5E2D91F5ADD9613D6E31D
310
DB33ED31DB1D7916CAF091286EA3D31B9CFECB78BB0060245B943C4C040119FF780A74DD308BA9D028678674EB5504ECF284EE814DAED07440BAF649BE4B55DA2890F4D73E2D489A59EE54FDB0A85B59F2F52C4858A02705C4815A792B0C4A996A2023ECB195073E115E3E3647F64243A8338F2000BCB58DA5692C7E7C3D41
310
3F963FEDF3CF00FBB0F831A9D51360FECA43819F527B89FA260EB63C5DA676830AA3626A3693B23F1A17A0DFFCE3EE164E31B5365EDF0C89EF64D8E38AB0BA9A1117D7C3A0EC44F44F4023095E80BA610DE336D0F99593A88BFC5306E72DF98F7FD132ED95878DF2964EA7E43071359FD83B2BDF9C6B5BDF768F0F3C0FC351
310
199526F53D9460A34511F75D1B63E488178569472C91A94497807A3FD4A390C6558F26D416365C3656DE6E769DA9D8FC73774E1709812842DD8EF96AED1960F79D21B395CDDFE6F92CB4EB962A4668C76990E2EF29798C8941D67DA50F4A5F947872460F1F6FDB794E8A29FD7AC0C0D6E0714339CE258FB17AE8535221E346
310
4A10F29A0BE5EEECEFC5675926A89F49EB14E5711894F6586DB5754EB4D5DA9C6437EBA57DB97A24F8B8A8DB295FFD73266CF57E82694DF5166DDF93573AFE9C9C5EB05F8FEF8E89E0A8917B0B3724DB7BEBB53252581EFC3E38166BA131A3A5B42FE2AD00A769BBFA4458D2DE7822F8C4F63D0B8E21B285AE13325F3410A4
310
35C648C9D91FDEB109E73CEDA7BC796961AF79175E1A3CE4C5E8B0D009B0C9E29EFD98BC8E97554E3D8D838424E270F7685226E5AC268E021EDE3522D583E8F20C0BDE2959EF5BBFEEDAB32FE9A3ED0E39F211A86AA9DEBFC68182EDED132AB8BB794442D2D7EA9F4D8BFF52BC4D55BB165124EE90A42D101E67BBBB292FFB
310
4F66DE5BF2300E44546757DA7CEF8932BFC9F92A0707953491A55C5A5ACEDABD9FA1AEA01BAC3DC5A24E22E7C47213493996EFBC369D086ED9397C9BA6C7F9855C7BD5E15BFC8C53DB3D2A4C5901A57ACD2FBDF4D1676E95338B2C2BCE65FDA4C64F5FEFDC7D9CA5AA1FCF11E193F2FDABF0F4916BF13FB916A224380E6462
310
A9815F2300DC49CC4DF8D055CEF76462F4B7A7ACA7365C2707891370BC1D0AA6203C44CCAB47084FEC057F27FFCD57F89B8B9852459798A675C66BD7CE572CAF71FF7E6D7ECF7BF62CAB7B3F1107DCD04DC55A3F9961700286141C94A4F771FEB2BCDA2DDEE0CB0BAE402FF1DB0100F8E475DFFFC074DDB4498AB7D186A765
310
4DDB1CB680D703D47CEB4E72F8CB13D86A4AA68116E26387B93FD6738779B34FEDB8E517EDF2BAF28D9BE93A1D3A164320E07D42E514725C29515FF361754213EDE06B079A2E99EB1CA82A02019EADEEB87B9AF005BD04BBCECB14AACD6B24EFBE482194A97DD32400685FF1FEF1544D1B14EFB1E7F08E6D2CD2AF52DE757F
310
35F5E62332EE88EA26417AD5C3E0E319D68F25414E6D672BD4522B278C57D18F0113921C71D96527E091F00CEB15AE23D24667369BD3CEFA10C7549D930890BA4366F4EBC55F01F746109F98ABCDD5A3EE06619C6AD78AB33E48E4C9BD21BF7478B385EC05C4F8987E2C1BFA0A60EBEDAA0AE0B015C2720ECE180FB6F2DEFB
310
EB822D96338C9B63822183BBF52FB664A7AE57003AABCE512BF77E7E31BDA2E739AC4C131657DDFE5225E900FB56CC01CDE808FA4A9C9DA16AC679656BB64796283D89812B8F91136AE18EE5EBBAF47A73BE3C153EB5D4CD491B4BFB4FE690A4CF9ABA08C0D8AA64220C438C96EA6CA80B58FE5761E697B3A292EB9FBDA502
310
FA863E49FE694ADDFFF9D62C520BDD1A22014147A0903A05B9B729F54272EF83931FEEC057BFF8C8055C279EAC5C0011804828734024F6CFA319C9CC6867C727184465CD9BB7ED386AFFD96B294A85E3802FAE47244602D8273615952B98C4F23F7EAE4463D9D638EEE374A20959E0FE519C4CFB0FBFE5DD80C2AA3F9DB961
310
D1BDE57E67C9BB47B77FDD74EE3094F5DBBE3EBC1FBDB7393F5116263009E2EFE1AF9A221B2AE234C902BF70E9F280ED23E73908361565964333A3F01D0B006AF32FB21AA1316744B489D5A198E85299241735BE559675130955C902A8ED761FC0DBE337A9F91919AF5CE32AF902ADF9AB2615E00E8A94586BA1A90839B618
310
32FF1BFB76D2EFADE6DB1BA04CCAD3DA649E7E2A0219F592E22F2AD54847EEA8E42271011E9074F8F3DD9FBA6CDF88FFC9FC7E811AD1CA8F4557CE4AFC7BBEDCF0114A48689F20A584520C74DA8127124B767E2FB91A6B186246727BE63C9445BAE02088D58B8EFDC0F1072407CD9B89A13F6303B4A928F593AD489B58E686
310
9325790ADC406036C591729FE14021F94B7796BB11848D463536A092A26F077F94639F7CEEE2A724C66EC885F4A24F8B8A0AC321F8FD149BA529460FAA34E4663C02D41FDF80BCA222D42F0ABFF8490F4FA74C673807C2051D8E467B47B616072860069A9A303ABA9B319D58404461401B0A0F9BE5E1E151C14BC33B32ABE0
310
3DDE91708DFAEB15E7C0D593C86BB7D7EC17BE56E57975F077BFD5525F3A1A361D584A75E08CF29FC7B44B2B3085014F3A5A14517377C3F6B8F37E59514C3B12F8AACDEDDA4DFC49BE5710101534CD6FB6DE15B50F11A09472AABA727F0C49D9CB906B158030065F48EB3625E010CEC1D511D0053474B11E6A4F01C0D6EF1B
310
ED3A944FDEC70E0DDCDC756C86545910E0DAE3BE3AA9A404574C2995CD5CAF9549226BC94B4F4F0F5F9086F418F6B32346464610D8BC7391D3C3A3CCF04CFC1FB2A3A3170E369511868F14EEA4E5E438CC73DB1F3248AA94B6B2FF33B222FF3D1E7BF146CAD229770158063BCE4F5391964DF62F7E52A7BE0EEA829C9E13C4
310
C147D6F93FE59E111DAB5E4594D6F3CD1AD375EE039930EFE5AF2BB2D41C83C7DABD8C659BAFBE8FAB392CA634F3D15C1D945DB4588D2B0824A4EC928AAC565557CA2F0DAA588CA5BE30B3A8004F7BF005E96CBF891D7F18112A3619FDF530DC8AA64954258E1811789B5189B49B4EB53F5F89F7D37523894F3EB57B373763
310
C91E502F52CC99EB7BDDF933FC324C4FFC2561DFFA7339FAFDD0A4BFBE6D3A8FF9ED1FC49898139864602458968913181918F719CCF5A68B2EE9C1FF050E34E63107003B8120FA982C21B30A874E4F5E4B38D5A8290C4B8D9BE48A0BE31EA995BDC37AC6DE90BA17D259DEF53605D55922FEB1855D915B659FBEB350EE0DFB
310
2F9F766E1C84CC8964B75D08667445EAB966015F63A18A9E0A325C1B3DC628C0D3CB60F767FA93CC65F25458BD23C3B312716E5F40E5858AC06EBA9AB14F95DB99147B832069201541D09A0D856E12C629CF32683760EE855537D1901988D5EBC156676C7DD51D7207CF3267AF1D76C2AD867315E44618015313A98B19941C
310
696FED3461CAA9B5415F918556D7802EDACEFD6B2E45853A9735DFC9DBF7E440F9319F8B6805A973BCCDC76C069A9144E51F187EDCC12FC31B5DEAAF0A76137199B106EC84ADA6B6EE697D4E6A96E007417F4E880E8B1E89B4BCE9D81EF611E2ED8F0C1A6C25F620FAFAAB656A7C42D464880E8AFAB0E0FC8EA38CA9A8AEEA
310
EE3E4648BA4680270A89743CDD3E6C6CBF34B7B640EFA285ABC7EA0A1E28F3CC963D114A80123EE66D0AF7D5380EB41909B605AB4765B709B808590458157E69BA1378FEC4B48CAF6A730E3BE3C5EF2DD1A5EAF94B1DDE50CEB55DDFD7EE9A16747FA4B223359FB1FCC69E1194892BABB93A1D5C4E807AC0EA2E30180811E7
310
7A2291F6E7F7FAA5E0F60215BC6024E48DE436C511F0628B8CA189982D4D83CCA17D305A7E923C37941CFDFDCD93ACAF735EF5F0E61BBD3E6C41A59B242790D3A3BAC7064DCD89AA2E37214EC839820949D5CAA31E240D2948E48F690298974A96BA9A8432BC90F5071D6537C9666EA4564796B7AFFFA548077BEEA75F6308
310
3435074BA182F3699557397F71548383FDA8CA34D99B981E72835ECDA5DDDC151315173D05A21F651AAF8524E88209E2E7A737ED1045800CE3390050BCFB8BE588DF111617874C62575039CA588EEFDEFEFE319B739DE2EDC147092A262611E159650E787917885EF08F1F51B8F2D8A71D60B58B190FEF9541A1BE94BC19FE
310
A50784DA1419FE4B0FB51B8D36B5FF8E1286FD8AF42B91E59A5F1CC4D60174E764045FD8C57B18209B217F89A62252BD20BE0E63E12B8E8F029FE19E0E8D0870F58721A557082250D5424F7909369376E41666C0EE77CD87CB283F661D5FB6D0DA023CB67320A20DC7BE661E9E1BFE5463085C557DA1FF9BE835733766C3D1
310
39F2CF9E2208873AD0EB4814DE9E6BF2CAF81614D4D43906ED1C05A3265CABBFE192770FC2F64F940CB6B17B5F166F133C9AEEAD2641807C3E69515171DD74C4A85311513D6EC9530B3B601B6BA3EBFF3B5C3D2F7D69765141E345F75433953D013ADDF8F6AA7DC3F4A7563FE5C7D367937E2900D7EAD0F9FC9A4A1A9B5BDF
310
1FEF08532660C01C5D6DE22199AA774383E306DAB87E301ABB7D213887F9869D4942D0D71E94B27EDF216A318BD488D45DF84529EF575AF3C3938C0AAA0215B01994153E2054A0B894DA5C784980633AAD48576957CF4AEAEAFADC7C587368551C73DBE1E57C58AC713303A8BFC258BD04B51724459FF9E24C03A81E0E0679
310
CEB9B348C0DC998FEB9C6D6EFA77D247CC8F92D3848599ED89A23218D0636465AD1CEEB7DC140D7426F83491C4E8E8281C2FB35240918FFECE880CA2A42D70E8B20B34DF5221C7DB0CF90ECCB9C745B37A47E9B716FF7A97B7A252C1F3814DC7B1E1A7F72B8751D524EF7CAE45B0C73B3BE7D08ED39781B380DDFC9AA4A474
310
9C9493DB5BAD07A6EA6C092FBD0E85DB004DF06B8C9D3089C5320187E4CE1846158C7EA7DDAE8AD9AFFF21AA3A1026BB06A259845E8232DEE62811A4DA9CEAB3A4887320B76E2AE5615EAB7BDF738CBDD01F1E64064BC13D9EC53576751CA8CACD58B3CEB0E6CA585BD089B2A59B9FC101403387AADBDBE70586B93D64BF3A
310
D4453EF9C3B6A93817E8346991798601344F79A83C51F3D50F7BF2683A3605F51A72449489E0EE6169C749C60B1035651103AEE24D24E51A759C840DD3FC6504DA6FE107510E447B43461C79D22970B75DE5E1BD3007D1AFC619A4A4A69B5626AF5E9B8374E20677F77E2F8E73DF868E8BEC7EBA7B6A75EEF7205E1AB9486C
310
B642741D6E03FF13FCCEDB1C4AC129886268B01CDF4B124AF797CF784F3C6DEC97A17D4B558070A0F1C04DA4FF9BDBF34159AEFE958479824B3F58EBD1E19088A2AFDE501B6F2052368A3FD0E650A179EFAB1561E1D27527077136E652676C3670F42DCB3352F48F6BC86D2C3B0051727E41A0A4DC6CE2BE9D47F5CAA2935A
310
3C0539AF080665997194ABECD723B08129CC5B6B21D2E7D54CD4D12610E7E9FB8306771A89576C7A982002775ED44F3F744CF21EEBB27A631671D921938AAEE3EB0D19CD1E083727F607823E817BF599DCED5394E37EEBC2E88782E638920CA641EF74D4CDFCDEF06F4278ECB18E31E7E9876F2D783C8BF429C75395F57E98
310
C2B495A3DA077EB3AC3C158608B6B57FE3EA48484D9A480096FCEE0DE880950E7E5A5714131C5C41AAA29FD19AE81AC145FA1B9E85C7169A5AB837B213493DF7E9AA4B5FBF9CDEB36EBD21EF1181B7CF7366AB2A951D01E37AF4EB835D1BE8C117CFBE7625D2EBCDB0B20C5A4B45CED0BCDE3EE8DA9DA78C2E21DEAAFFD119
310
7E463C33CC6A80FB785669B856EFF7A8CCCA2841B5A5369173320B1170C368B2748D81062EA0296E5E2D95D7667A4A46D98A6FF475C76AAB0A8C8D45E226FAFC9FE0133EA9F60111F99CA81ACE03A1D14C89E8B0D69079C91464FA1D99E651D0EAF606F345C42A8A1AA9BA391031582B96D5B4176A77AADB01F12FD298A75D
310
EEBB2C82F0B8650E880722F8DDD90C56A7A058E5FDEF1AC93545BA27367C76F5D8F9690CB6F8DAE141EDD7971F0FB548A2AE435F224D6E5954CA155512F7332029D5A1230854B79F258EC5FFDB09F5F6343A8EB193229B7F7E79B3E48F8E183860B38C8269D1B53738FF1E0BACF6AADA6D4869E9DE708E79B5DADCC09B1BC7
310
6F649731CFAF59A83FD8BAE4C749D66FA87A3810D4D62FFE826FA400C0F325D2BC0F3CA35F5847B82A2ACC7961745C823E4D863D54460AF792CE6F79B5C7A33B25C3AEA6CDE15A919B6367D781E9D44F61BF828672594A3E1D9EDD6DF179A81F27EAC05B936575D73E05C209DDD2115CFB705DF9BBF3C911589B3640735E9E
310
618FC9C36A7326C82B2205E244C55D56FDB9D5DC93CE958D4BF8174D2B3DA54CB3C09F2C2A6DFF73D23B2197355761AD421EC581284A7EF8DE2CE3497C0C804D49B41DFD6A7360844E5BEFFB495CFCDB97A4595911CDBA623274CE852B5E278AF0BEB1770E9D37CD977B2766A7DED0E94B840E1E95E8C77DE5CB6354AF7871
310
427C28ADBEEF7BA0A28E19DE9ACD75F379FE373EAE6DDDAE3834692F9C2B03B4FCA8FCA9ABE8EEEBEBB725B88A7C90941E850682CA04061A7DF0CE82ED49BFAFFD42C309818FAE14755CAAE78B0F73243ECCCAD7DF58FCB9CDFAE7A4D3E6671A613639130D056C8383C8F4FCF4808C331E544DD26E4755D09EA05253B3049A
310
1E32587CC25D72E073E2CD96D04A71BBCB0038FEC3F53D254199C3CDC67CD66640269431860225392B2CB3ECD0B4498AAE78BA1994246AE1EE78F2EDFB79F6C6CB6B5E279C4D373FBC21CB2698C9ACBBEB6A4BB6B39E16AB0E421CCBFC7654D81ED86022F9BB522146F9F4772E2D0E4FA70120C95A85A417BF5078B232F475
310
4363EB1750B2AC2148EB46B1EA72AD9B4D23ADCBC589D70106C3EC2ABEEED84DFE28E718C6C83502C28E9FDD3B09DA0A6F6F7B72B706A31C9E2A331EE70DA56A083D2177BFD63C55B11D8D949FAFCF90B23A1E24B9B5018B9A17E99F2890EC302F330FE7936E2C23F0D237EC8916F5166AB84B62A21BB0B950146962D754F9
310
2CC2C8877BED8FC7B7B25726DD19545392570B3A2C66B58F027BEF412E552D12A588C4A3CC5C3193FCB3485EFFF700D0B9EEC077754A33DC1FB9E25AF814628F91DDFECB667D3F7690803F38D13F8AE39353523BB08FC6760144AFA2CE28236F65EDBB3D5F59A57D612B99E3D7E5F8A851666BF9B5A6658EFC96EEB37A378A
310
BB0EB3FDDF1303AF32C41BD1C8560745D7BD81066B0D6313359CF488563D3BA3F8E2185D1FAA3EBA1397C9D0E3DD232180A4DCADB6AF25DB3AC3CC26589C8239E66E81547BC7E2F328F9884764CA37EB5DBE390DFC03A5246B456A7C3684C4377D0EEF9A350680FA9A077E8B2957B489E09AB1AD41316944C2254B5984830F
310
691C93CAA767EECF976FA5647538830B5E63236A6F0365C1E0F3E327F24FE35EDDBD7360B0F7374837409F7A6311BECC12B7026D4FA1AE204FA3F5FE904B1F420C7A9044AE58E403E7C4848E7DA25DC9EDAC79DD756FAA26B9EA83ACE8A214A2612A22AFA19DAE7DBAC5F8CDE1292A485F98DAC731A29FE01A3966E96BCB9F
310
B5A4C8830E1B9AF0C54B87FBE221A097036E5D28D1F869F810C06A9BB0AC0612F69AEBAF893C6E7AD59460208BAB3A6B09CA4F6BDDAB8CF0D1F84B72487498395A70DCD754796E271099A567A55CF242BBED64696378BB6CF25EF0FCDB589F3A82F1116D010A9AB9FA4358809EE0C973A2B4229BAA876A70B03AB49CBA7FBE
310
71DB1832FFD32F9BF2C8E98075CACAFB36921235D0F552B6A67E94E094097A5D7DF681B40623DA535ADA7A9AD8E9A62407D7C9A5AE51D62A17A83A23728DE86BB56115804D3F2675F2C6B87541A0FC497BF0CA86420F558C9859EBE9FAD62747E323E3AADC03FDCDDFE7407B09DA90B44E3185723C5381EAEF589765E2F7A0
310
99BA46695BAD60CEF3491B8A171F5F56444F7CE9455312C3498C74173AEA0214EC029833B34B650CBB5A5508D5091665309642791708ECF27CF11DB3D797D6CFE474453BD4BFADB768094B2147814D81C7CBAF8228DCAF5564B5891F5EF6A860EB2E323CB82AB868D8EA048880D63B0DE5341F1B3D53297B928A11E15F25E5
310
148990F710747C3509ED14909C552EBE3973246FCE55D00564D8310BC3EBC5085D08D806799B77D6C57FDF5E55837F9E934F09C03C729271B64F12D0A9F9E938107CAF7BF1EC8CF1BB9B42363D33070F4CACB425E605DDB0A34A12BB936DE286B9887A4E2E558F0886498BFF49C311D96C277CF6A9FC0D75AD0ECC5226D7E0
310
E3572012E56D7FDE4410CEC7A6D0F997F225A2055B8B92E3956E875AE4993CB3D4C9063AF98FD45E1BAB165640A43439A2C9181A7C355B297C0A0CCFFAE19B6FA3C2BA238A885FBC98B8F6DAF4B94B97304878DF4D8BFF6A4AEDF79E90ED4E68F00CD7299F4E0D83E35601AF0CBEF18C1E870E74758FA91F5131075004DB3C
310
FCF09AE1DABC11957FD9808C92E8A678CE9DBE40DDA0E0D1D505AAFBCBA208232BFB6FB3704E8985E61ADE53DE74152F5C7DE74B1DEDCD37DC3E8FB30D7EBA8B9EFFC3606BF90B8D438279CB7709FC7C00D327F41817EEA71CD9E49FE9C8C9A81C70915D9F0F15958EC5AA4C3BBFAF46986B90F188BDB24B89DE3C6F29EC3E
310
6F66D84856EE96A35E657CA41B41EFD8DBFA16AD6E91439EA92B40B21C053249F51AE50EB0B24C770FFAF40DF12C8436366819C48E36547D4E7B72FE2BBF10828583057814A668BDF183F6B2E58DFB151103E56303E63D00F39C27C4661605DB644D19175D02E3F0241E8FC3458D17AAAADB117CE9EEA690D0DB01E634878C
310
04C2C9310B69FCAB831151E3AD293BEF6E46B0ABCECB50F5939B39C613D41E81FAE8D34CAE3C4566B761D37185FE864AC32FCB71AEF39DAA5BAB88609BB980CD2F07A8F941653B529567726E2B2A58D079DD57E1E5E31426CF184A04D7B03B985F276D47406AF276FE32E3328BA866EB1FD39BEF57863A317634AA5FE46740
310
9B3873F5069EF0D71AF00AD189D17BA1974ECDB2D623E9E14086386A6AAB5807825C37B015BFE892AFD154920EC437EB945D958E18622E1E0FE2FA06557CE4BB9BBD05A2D40E774DA2B65473791E314B7D6C886820B2FCFE4AA272B3B8B15E7344A145E8AF919B5454D89D36D413E87211186BF6F645E5EC94DCCE8E1C7990
310
22E4EC9BC86D7A0F2AFB1FC4B2CE48F84B3F49ECE65BAD24CADCC07EFF39AB06BE9E6B27A059938EA7208838455383DDBCFCD967DDE4650EF92A14FF933C975DB20BD7FEEBC4487576485963D757D16340D9599FEB362F775F38CA4185A86F74B629C81B133644A3B18FD056E997E0734F9BE26D11C0AAFC669E2AC9FC41D2
310
81F8B2E1C35AE27BCE05F3DA295488096688719D974DF1B5D182DB7792288697F8763CFB43562C1CDEE11C4AABD5C22B6E33F6F389CFC3477C5919DC0D533F8A7A1846B7ADB60ABDC26C43D0CFC8910B7C15EE22675BD02702ED39DB77A87A192CA7A543E6205B979B9F5A6B512A3CA799E198B2D5797C0AF8D1D872CA455D
310
4D431A7879D4DD76110B5FF7F4176B54477A9EB5E4A5D11214FDA585F0382751D8E2582BA5D2075053298FEB8F1537304E32CB22C2E2B693DC0A760B1DFCA751BDC445AFDCBB12820ED85F6D5298933C7EF1211E9E057684056CDA3FEF3BB6052355E162DF27C59E965A8DDB7F9437EB72CDDA3A090DE65A5B2F50326247B7
310
EC67B73ACC7047FC9B353D6EE990F772207C6EC52B39DC2F3C0754821DAB559F7C1809C7D0DD5B0499D0442E0A6E391B3D5DB46D11E731E6794EC77523FBDAA242ED67F9FA1FB684255671F63C9BCFE6E7E896D51001A6113EF2298BA494E0B0980D1FA5B9D60796554C02256B1E0345FB7C6186B6A19D2DCA270416262845
310
FA4F42DB5D9B0A0B6F07FCA2E56C242522E001E0CEB734AF310FC8BFB57E38E03AACE93B3326A2197891E68452B26A6307FDABFEE0223D3C03C3C73D2D5BC054C8311F12004CAE488E5C29287F8156A2CAA4AD0D7BE6B97264E4139F437CE73ADF52E5134C52B819777C18B323A5924E4F67AFD13B1CDC3A61793A79FAF5C0
310
CEB718E441071E797C6DCCB9EFCF7E4A1E9F3DF3C2F9C9E8294E9586868788C972857FB0556D7A26941A7EEB9B580AD78EC40B85DC906B4120A563CA3B87797ED612D3B035962BB75F6515A393F4CB057F564CDF54F2E5A024514E6A1F901DB80C7E70B1FC05E356A7E72FABF4775B3E3FB8F70A2A8E7B6A94542BB3041579
310
78CCC999E707A29CC795E67A59CC546A5D47B368954CA7B6E75EC9E1F6FC73CE3B4F71F8CB1A6B15923D61EAAEB14626AAA9D04A26EB9C66CD1BE86CA31A5D8703DE04CD1EBCE4F5CCB62F93909AD11E55799A781A956ED27D3E738F4538CB04ADABC7DAEF20BC35BA6A90BCC1DC61BA05F20D8832FFB9BC9B15E2DB838A0A
310
FBB7E0C82A562127E0446894F427794C3037186F622BF24DE1B00AA10A23BFA47B2A180D6DA5AD6F7326FEB8C100C2D7142EB2A0B2A9D1008A09BA343D70E054AB69E2A7EDB783CBD92537FAF4A44D1296AC2792729104B3276C276C951D0CF3CF3F1E6B017720A7B8505A5FF9589365979678C36F1BAF759EAF57C60F1FF5
310
FE9DCF5F8E764FF25A2D06CF25117A8FED51884C13B2B750DB0E4F5E3D64124FCF11F0AD8F1CC3B3DA4B38ED22BF1CB2585EE6BFEBBA63FBFD44F9537B9B37BDD6B358720F98A8125AED4349CCFEB0E135F19E208A04CA7E2B10711185D72E381F448036EF57C9F874E54A971CA37A639E986AC0226DC5AA00D5B14FEA9192
310
234B3DE617814FC221C92F33F1D392F297731B567FD98FD91D989379AF567A65B8ADF177591DB90FBEA99BF4ED11B16E50A0AB1DBF1156D034BBE04D69D08F939D8E92BF525A1DDAFF80ECBC95D8F45D3FDD289FD23F7D8B452F8EBB34EC082DEEE68E18EDDF072060FAD2AB1504DD4879BF67099FC58F6E9DEFBF645D1633
310
4A3E9A127C6F1AF6132CF287E433B43A0EE93812B4AA0B194E03EE3FF91EF9C6ED0074A2F6EB18A96A7C9890B1FCDA1F2095E944DB911ED54C60DF16FB74C8CE9BDC7C54C4F14078CF73C2FFF1F1BBCCD7CF64F71407EA1683DBC410D226627F66E509060D5C0AFD611DE681D509DB8DD12FB1265B03C6F5C55FF4C30BD941
310
87FF692B4F152982502F193098A789526A038AB529A52BC0DC4FB6285CBAC10A8B8DB75DCD9BDABBB221E27D1F8DA9F5EE5926A1C8AA9BA9BC09239C6A7F12914EA3B59EFF7AAEC3FFCCE56F1C5C2980AD072793527565E774F4631DB178CEEC691B1F367BEA0CF2907E1D6B854D527065979DDEF002D8B2ACEA7CE21AE297
310
737EDE1D45B31233B73FEA35BCFDD0B09721FDBAF6432681F2FD10C3E9EFB246FD6E854B344ACC9D8A0EEF876A7314B49B6A499FC650B099D650DBFEC7638ADFD245E2B7839DA5AC5F7D5623FC0ECEEC8653FC9B2BDD1AD4D00A566FBA7186DD3C9CD26512551637498CADB950FEC71ADB9A5524285DE328B8EC7EC75D2345
310
AEC6A27C42AF6D9B92155315C80DBFCABBB7DA0FAE425C4FB896B15C9BFAC4FE67DF5A23D30C93DA4D8F36FB15D100050DA6062E22AEC5F4DAC4F6FEEF97AE05DE63C6D38F9E068A20BC5E3B6BCD75320C5090924E7F93640A7735B1A43451C2D91EE62C6238B797349E59890AF3A520DF4A87095F3ABEC2E61F0593416CE4
310
6CDCBE0E00E2523FCCD04408588B5B6C9DB6459C786CE378770B54F51DA3A5E1DF2A3349BEAAC234A6CF8993B598B3B25B4B113E353A4D750FA7534749430F3EBF2512E7EA3FD43C6AB9A1F765A58463B306721A15D224FAFE8C6F5E3432D57EE697DA0DD5A9D4866A8BCCAAA9DFF1F06047851408FEC060471D0E3EB86BFA
310
F46E4B5E60311DC3E3CEA147C75CF971BE74689507154FF2D2E92F15CDB2B9182B11459FD8ACAC5A85F174BC94A7F4EE4C4F5CAFA7C02E37BF0BC77B7DCD0C047BC316F562A01A441AFA7931CC84A28CB9F4AA367EB515778F29BFE61195FA671F4352E5E46E3A64773F1F76EE5EB36D7BCE9BCEAD837A4D77F8DB8C92AEEF
310
6711920D7C7D0F76B0FD0EB7AB83724CD35BCA7D36DDDF5FBB7FF6F04A91F3E2BB3B8F1A43CD659639507FF6331C5F697BCC782AE57D757A27D97F1AB9E0AEDB43F92F1B2AACDF5FEC8ADBAF9F814E2027003BA2F9E144B1938A7A04050AE5D953B82C45619165C813A10E76DD6906B3C16438064D14CDA713AEC420034613
310
E1AC7241904A49FBF87409AFB1FCB9B72FE7933A87D8FBEDACECE4EDCF6A4FE9FB94D5DEB74FAB7CFEAE17EE965DF980DCCA2D04134994F9A2E94D2265DA4FE6AA7B7AC15FACAC2B5ABBCD7DFF542C5314FDAB2E1B9D8B65220B8E2B638BE008E8DCA22678C820C5053664D15E89F2D735B51A84955E81A443545E9FF787BE
310
0FA700A76D136C27DA179A7C6E8939E01BE756E19CB292798063D8B97F44E8A27BCF3A614FEB8BE974A718E86F7EC99B53CA35FA24F61F2B07266684623A3D4CF073E511F3A10A8FDAFAF0078C577F4DF9D339FE7862E5FA47CF4344209E5BF76D783B1B48E152AD281B15FCB934DCDA49CEC5706B1EE8B460F435324A5CAD
310
154725E21AB8044B75A557A79F6C807B9340AA3D92503E866F4274412926C8C504E4D5EF8C0E68DD0B028781A6B4054F11CF18941F101C57CCC796773ABC8DED9CD91FE5788806C05E548895354AEAC96546D55B0E94A59F148D061F42AA398D822CDECA4CDE79E13469BDCC44FDC990F366BA5978C15F97ED80CBFD73B0CD
310
9B8B83A4F6845BDFBFAF034019473FB9A63BD55D3A4A7284757071574029A4D016DCCBE95DD679EF3C4880BF169422F8C89B68A988D2B13793CAED4F74DE7486C72DC94DF46B8E93D8E02EFCB1FF9B3BA10C8AE7F653DF94F4AF466CDDCEF5776687F7C4C14B63E4EED1719DC2EC482D7DBCC7AE518CDE3D5FF86D39000EC3
310
673C0044E1D308BF05F74D1B5F033A7D1BE7F74BC55BBE3E4A20F920946CA0271EB17BD2B80E5660ACB8A29A79F5E4BBA49D4D945B6EEF4A7EFEAA65E5555BBB57A7E15D2F83C69F30BBB978D2B39F1F26FC097424D39BB33CA3D87ABF64E307938B685BAD44F71556A30B7E712CA4FE600613C3E554B69ADE949A7CFE214D
310
F1FFF05CB82151EC6FC31950239F94CF7AD39DC473F6EA356E5EC2C4EFA04383CEFE985A127484366FBEE3C0EC4FEA363E4F6632AE781392FD45D67B63FB8DF70E82734F431FD3443172A0E30A83D60982D55FA6A2CF86DBA8382502ACC6CDEF3B907982EED1160E14863FA242F9757347E1544275CCDCF71ECD5F8621CBEA
310
326B8BA884AD7F825781923E66971F04010D574C541D8427A438A37EEF8AF88240EED7362C953F5A81DE2D56109CDE2524EA0F5D2F87308C0C47BD97AD605878AB8589E17CA83930CB5E0DCCD75853D68B1AB136594926DE426C367428E9334AFAFF90ECE221BB5DC9E5BB53D2CDEF954EAA9CD814F0E5725F1965DD458E5F
310
8487683AD86B9D0076BE3EE91EB1CECC5331A67A3F79D8B27587C12EC2A6A70474749F27B4C0BBAFB94B34189E88DC18964BE4121B9137FD516C7755356E50D6714E31ACD222621EBBCD1CFF81D87479056A9DA0E0B8EA19D24CF937DA89F78E8650CCBDC110AAB6C4E46DCBFD0446BA9E2060E81F314AC2031E88135E5476
310
AC0160EF5C0DD2EEF1B8B5CB2D198BE9A554A9093B5F7D7E4B5407DDFCA1D9C152FD97F55BFFFDFE802954DFEC8995B983E28AC92F1971E28F531DC407A1280EB125F64A72E617EFB27DFBCEDCDA2D6F2BDADA36873EE46B9BE1782998C63DA7182BC383FB6FD15DA472B175D7E8B4FC88F38D6E07FEAA3FA3CBB8F6B449EC
310
F14D2175E5C5CCA3A42ABF24CA6C9395AF74535F4DDB38CB84F56614B0FD32D7E19CA5CF988DB4449C40E23DF2B16772594554579094450F56F253CD25EA7F77366FB1CFE79696C428BB64D5A41E986189427E5E4D7E2DAE3D5BB4972B3DC44EAABDDDD63A2264ECFA5C786EB0EE1FDC5BE34FA0F08376869FD1E61EA06CAE
310
15191135445EE8F0394161C3266A596AA035572BB0C8876180D8B9C77D307DF9DCDF7365ABDA6F3A2366436457A4DFC1F259666569A9E4A79C817BDD5610E5200FCE894A358EC72858D50EF67545DA81C6FACE3D457BAF70367E1E6BDD9A952FB4F56247F58F523B97E640246051A72F79BE42FFA0B3187F63097F91C48B86
310
8586F714B0EBD5A00A8412C1236E1298F60C72BE6C96B82B404CADAA304AE9F303176B14BA53FBC2D5E86377E35542019E24D97B96A49B2C0E5006E7795954DEAF5DA58958839043C6C70BD3B1B33B6DC5C31316D8A6923F142E26F6711A2258AF977DDF1F970ECC4F1F2B434B96D81BEB6E89BF3BBB3C7C8CC80505070723
310
D6D7D7D3C8CA27CA164A26024FED94B12A86031867241DA53D929636DA600F050BC40CE48B8BA03D69224720DEE2ED2127390BDF5E6EA64527BBD4C4C63FA76BB801FEEC0E61218EC98A8A86CD8313781617877E66692839B9468CF4DB8E50A73986E558E309C0D6F676F921BE02F1185454DC75B111572FF9D27D85EA14C0
310
5AD7271225B391C4275659CA4A43759D0BA44639BE4C30A84DB7F67A41399FB95CBF923B1B1672ABC807C1590557FB18D811983FA97F5E609516D62281D38B1281F68FC75528C35E4CD7DF0F7DBB5E5DD69C414EBEA2F4A5B241B996BA77AE6C772E367408C633EA3E438B68563EA8BE7667F3A4C4FDEEA52ABD78A2820F44
310
3B7914A15F180018D231E64519C56A12F6CA7C8DAE18F06F6B769DBF92329EF6A5D18FBCE600F36BD8E8198DE5CDAA96181F3A756EBA5501CEE58F497EA4F418A2B82565B9BCC611713C0B708CCA1F398B78C5F7D03B3437CC18F13061F55C7BEDADD5ACB1DB0E36D3CE47FF6EA1A563A57E9649EA5D14D1A50EAA45746338
310
1C073777EF1600607BAF6428A7DDC079D47A204EF1E1F1F0589FB054D45E02CE623B3823C317C601E589E22B1E88B448524B86A82828E32345EC18AE17214B42F8C41C6D428016D9BA31DDCB47572561E5A402E5BA4FCE55F78AF7268524AA04130F3A20BA5D1E9F9948EA48FC8F5314FDB35E21898198060034ACE5E3E2BB
310
CA34092518F275190AF65F45867FF0900AA4B81F25427414C372BF51DC29AA855C5428EE1EEDD6B849AD60F6E73475C2D2523F8A2772C840A478DED18A8C5C91B085F255DC4F54EA7AA8947354FD17ECF8FB3B4A0DE7B483CAF3A1165EE05BBA413E5C1FEF3DE1D6B8F2F3F3251C17D9FCAB48A9AAF63AC773A0E413BBC46A
310
9ADF84A566FC920E4D8C52C9769EE3301CADEEEDD92B312E02E2A7E35B7F1E7D203FE5A7D75578B06E99D0E46FFADB8FDA17ED8880390DA29094202D6F645F76F6F96409CDA05495A96E84B04A00D1A6C6C81D7F3DE9376E828CCF144EE50E364ACCE7237EA0BFB5607ED1AC3CFE73794E5B61739D14DF1743441B1AC98F00
310
ECEDE9E7301FA29755FBEFA68C91EF2B314CF510537EF1ABFC9A762496280B546F5EDAAF8A5B387D469FC9A878A92828C88608453ACEC6094DCA54111E7AD5B2663DFE2DD151B7F123B9F4FEF8EE36AB125FD7AD52A59B1B765B3E3F73E3F73DEA93875004D2AFFE3CDE9493B87A9904DD052028949041A91DC0E1BA47BA71
310
4343FD5B25E0A6A09503AFC17C790058A836A324FE31D7893512E28230332F153181C1E018E1124EBE1BA262AA428A518237D1EA7275E48C5C561BD19ED6912EDD8367DA0F31E40EEAE9683DA9257525AEA7B632B97119E17145A90231768A4F3B9120FF32E8319B015E3CBE26F1A754177D8185345817C096B0CE443A955D
310
13AC15E1FB5DEEA0239EC32A3C92241A237B0B02FFCB4F93CF2B02570C8D192E2F2A68CEEB42F12E6F8CEEFF46C251E22B4341C56FB08CCE550E7A9D6F4D6564B9EA52A83D5BF2C6E03FA19D2775E15A8A7ACF30A13C259EE7F5EF2AC3BA354F1500E1A07FC63FB4686E2F12EC69719F9ECF5FE3F35598DF2CE944008CE78F
310
0911BA5BE5D0A34E0098FF038669C26030BA9B300303039852A8F6F496341737CA7E0D2E3AAA36DE0A70AA7D9CA0D54D9AD84B18A44C9E625475E1C97B93BEBB38DCE7D227E67A2D00F531436136355F243D1FC0D712C5765754FA22FCFFAE97919161F46D6E61ACB37D83777B385889770B50765B127768443A5C4D3A4E35
310
A3151111F146B7CA116F918A049F1C272F2CD7976C69A0068773451659A97E0F4A08FE604C3FF6CE7385DB19F4D3ABC8A0D80DA8A42096AC377DB49382B36E270B6FA7570188B4B7D1DDDDA82ACA487CCA5D38BD3BD039ADBAFA4ACFF27809239B722081E2EB9F145320553D183F28471C388BC8814E5045676767AB58A8E7
310
2D1CED2CA731379515D2E533E4CF0B39DFC625F97AC4836831A4DE330E87A8126FA17EBE583D614E71E22A8DBF2825599743E0640037303E8E1B1E8EA4E1ABFA4F62907B5E4E0E5DCFDAB417C36C6848A2B8D15F1E505434C0707E16B1CFC2A1C36A42BBF55734F8F4301DDC2A5110CEE8C0747F69519265012A2174BF4E95
310
5ECD4FDE095A3ABC70536B7AD0B9D7892F81287D667C108703C9B66A221E9A0929D030008F77FF6F5D2108EF5706FC87A3069B976F7C9FC3239D13D283CDEA83597461079FEEE049B0F392889898B7D87D31F8D60ED7B56B91823A8E4EDDB36C6172ECEE42BD42B12CD67994FA0F0DFAE9389356F4CD4425A4B8AA55CBF7EC
310
D585C6A2C2316791E43D5C06841ADBB226A87FD61515FFBB0167B74E56BD7F3E90A57A97FEDCBDF483A0D6699A8C0849CAEB4947FAA90D8E332D9DEBD9F4738C37DA0CAF9CF3DAA68BCB67C420459C7A64498D6E848E5CADE92BB6901F607AA331104A67F7CD650EE169B1DAE94D2C31C2F993632259B6957E246EFE4C5481
310
107B07118607700040E5812A2A2A38DA0076875258C753F60E0F2662C748EDD5F3F3686B8FC3BD6FE631ECCAA1E8B1C1E565AD117E54893E79F4672E32F9E46B2A183DFDCF3EECB4D4D077DBEA0DA254D256045109670050129E9B9B1A9E4A11344D61497A992778095151510C4BB7EF2009B63AA4360635312E4CF668B7E0
310
D3D85A8688E2BD83B569439892ADB63461930D428E0DE42E4AC57CE48DA5CC1449530D8BD3D6A0F08DF20C8E8F570F2CFFFCEA286E30969B4654D498A58D9DA782E19FE3F002181838925592C4A1EF0B332D88B61A92C644547BED490D3A42CFFAB70E36D961F694F6307F72FF15A1C79D5B1B5CEFD353D9E2B52566DEC8F8
310
F09CB3E8359C0F68EBBB7898243E34E12A015B2685AB303C04D3A9E00671FF3DFF0A184E4A2ABEB2B666AF5B3A209C73D8EF29DCDB069C9F391EEE9DD0F74C7BCDE16F8F02E3B8816122BBEB50665775B600549D8BB33A54A6BF940C028118BC6878C79958D6784F9DEAA6E26748386FFAF8D0D0101E2847B6563F5D8DC1D7
310
8F787BE00E2C941AE12148D4A81599FE8F68D4DA5CDED75530ADE138240300EE13B0FC13A1687FED6774662C05A2B7DFB186732F0D7A93545D8B0A6390AE5054D9CB582DA846D7A061B3358B45E2B52DDE63E114397EDB7E09233A579155D795BE76102CF277F4DF8B188C4F2879BEAE3C08347124BF9ED23B128259FE107D
310
31E34A652F090B30B39E0D9AF917B76A2806135621A8A60681F16AF216514BBD02711585B5B1AE823F4B2D0369EA5B6BCB863072727FFC871CA6C9AB79A814D989057E9470A3D238BC87CBB4A0EA49AFE2B86F22E499793CAA9047080450166BDC357524561E258C77CB697F1ABB32562CF87C3B7AA12F911EF19FB3E5C022
310
22E887D08202A60A17151F5E053A86B437771088B4FEE14D652C43E8D939995D34545E12E2FF93D4E366EAD25F10CB7DED141563C3D0C447AF06078A91135FD4B9611583CB4BF3BD167F2399CEAB0E0100F8FFC305F00F1711717173138B4B48C83022295DE657EFEDD97F238ECA80F528AFB4F8D67AD4E2594B9A3AA86D74
310
87EFC313BA95745C186F0CDD84CC12DC9CB0424B42203D351FD9C0A3AF10CC7F388E0329279087386421F194F4A29464C1DEF7EF8BE515E4A199DCD5B909342598D8FE6A231F71336248D5CEC5454455C7BE383B3BC7B260FED27F703FDC39A170F3827239102F59D4DEE7FEF82EAA1A5E4BA94DCC4CC44E7E2EDE20F24244
310
E4454369D2E87C3F823F193FD4FD27E1C23984B01898D15ABC20711A8A558054951A6AE280096BA36CBA439603B7B0B4C45F248C14B2383B4B5CD8ECECE4FF859AD4A6CA2326D020EF090F4041D28DB66E5256B56232CC52829DE8060BAE6BBF37D4B7469B822454FE93210A3E8D15E69FFCF01123222611C51C4FD0A041A0
310
CFA2471CF6BE38D2B20FA4C3525B5B8B586759475CF80ADFE67A284AC24651E52B8E683D24C2622642F27E7C3C22783BCF63648BC398BD6CD0D9C97E7E7E3EACB6126DB7A6C1FD9F1031302EE67ED96F22B77C7CA0239BB324207559B105E4693EB26EC46182A92C9C0DBD24F29B31C5C5AC1F84300E0E17CEEAC15F5736FA
310
4A98971E2F1423BFCD68D4BBD5F86E74B40A369F39507C88FCDB35D2DD8DEBEA4AF999E23CF2816D204200DF6E611781B9884C1AC8888B4DE397320472959434323A5A36B22A8E1F721A270DF3BD65E4A31C11FF048AFB0D8B7B6881423793963A23CFCE935FC189ED36FAE35C46DA3574C979E4394BE52084F3081837BE03
310
3396D2EBD80F1F691B273F660D2B32FA27A33B1DE4ADA5F0FA4651511102DFA410DDA86E065272CA314D5249DF91B06BB92807B28EFD54F08F7B525252782CD276DD02E6B0319B13DF87B1F6361AD6B28FC0D711CF445429B9E5A433CD493051C49A9E03DDB1B147D880253514A5DED88009018620EE229101C041950E2D8A
310
A8E1F5F5438E0C0C0C60EEDEE9E3E0C051948C69F84BB7B2A48A1F3C8EB9E6864687F4F4F6F6E2FA87608ADAF9C5E117B7C1A737E710769DA1D15ECE6A84502AA855398712D5FB51BE92E4EF824969CE18278798AC303C2C7980DD2500ADF8FB1E6D6C2FAAFF9987178923334A244758BAA01A9A1B70FA5097D01E1CC2A58D
310
AD0EC94CE6430AA9B0C10D75E3C6BAC670EFBADEE1607739CE0FC18A2587E3EC3058562014C64219C69BC269082D5C2F4A659278D585755912176D78A1B641719C2A394CED495A1AC5D583FD2F5EDD93308EA7EAE8A6DD396598BDBD3D4CFED62D18A5BDFDE0DD5C80D1A89BA62697B131AE7CE9A6594138582F1B37D68F17
310
49AC7CB67A70695D48A4A056AC1FBD4E82358CEAE38F54B95A9016F9000F9879C0D9D131768635CA798895F27D6F1614F11F2838A83611AA51C9A3DDB539D42979C29F10465655C17BEC3E2760B80DCBF609198C7B171A531905F3EC218D696025975E986C6B4C666666787271F202805577DD5A3EF0CAFAF91B62DC4B2DB4
310
217A7606282F31D8DDBC290593BAA93EA6353AFA9939B877978481E15CFC9F2755CDC00C538F63A4BA3E80AE009B73CA0185687D339A507D165B74290D6EE46D5C58148F020C3668ABE9EF2F7549170DC80DB41FFC1D678FF19AEB10C7133832B104B80F691B3138F97A92D26E551F1F110400D45AC71A9B9AC41A1A1B1DAE
310
ED0B0810638EFFB511D46B121C6FEA0F38CD00E03CFFEB9713FE1F9C263E4DDEC160D0497FA9A132BA608584057FB15380825DE6C7FC3C667EE947D488A09898D8E939C4953BF4EC9836344D2CC6B2971B2A21A572B06096F4982D2CC7232D46E8EA69DC83722E267754D777F97F96D5DA74E1E75178084D0E70F12AD33E5F
310
71EF2AFA599B2BEBF60A5BE475F444F240CBFE8143C334E7ED9150FEEFEF7EB020C4DBED388DD1D6A167A76F3CBF119B578AE8CFA7736ACAFA4440A1C47185638A0D2F3EB5BDDEFDA958FB13CE4AA4923D5BF840392D45544329525749734866684BF7F8D9D54D892E19BCA9F829A0F8BFCBEEA6CFDFC61D74EA1A645ED7A1
310
FF241739F15694BD835B66FEC5677E40FE69BD3F91AE402F036537218A401CB0828604AD189E575015C6F3F6BBC8AC79CF6C70653847254B31551EFCBEB5978B9DB85D58D0FA41A9DFE9C624834AA04949D24B5AE6D299E072D152D12097920F14AA92C31C3B97E28B6C2E6E9C23D63043ECBBC0A60FDF5BD0C33C127EA8A3
310
308B8B6AFFEB28B4455BF6E7AF4FC6222728357EB8E46E85053E6A8843AB23295BF838ABDA94658FEF3F832F147046B4ACD6F7D48E8FCC9618582961C898D1C7A253C91BFECBDA6BA18A1FCF70755DCCEE2222F41B76D23CA98D0CB3D95F0CF66D57FFF65E2A90F5DF40FC3187621E981BD0BC1D992787212688976B94A8F0
310
C6EF646624B570B78E068826F87CE27041A95C9A4871FF65CC17FCB1639629AD6A9517000D63AC231F3D741CB8430777E7ECF80CE7A3F73C0F162F7E56AA71F4DA80A33CD6ACEE78E2C11FAC03DAFCE929B106F8F6B3ED2DC71FF994BD9CEF4E9A94896EF1B6E2B7B4978168BCF0847A3D2A4F1B0500B926E634B174548E9F
310
BAD27153FB5FC36799B1E6C7C38A94E1F9E996796D7B485E635D5287A2AE76FBD11A341DB3F8F810385BB7296391973DC6C37C452A9305AEBBE0CDB6C566DB59FE60C8E94B1FD090354BF51439FFD1B48D725228FFA88C84F686F547107A7A235665A4593B7C34D748C1AC8D56DD5DA861EEFBADDECBBD65117E65851F9035
310
1AEB65F0EFCFF4BCFEF24CB7A5879699FAC437A7AF9099186CF006BB923A59E37D7A36A29FD8D2CBB914A5E9D0A8FD212FBF796AE9A67958FF1D5D8B85F78F96219D4714EB919929241B6C018AAE0C02069F8D919961EC5DDFBFB7573E3AC8E08BFB7C8534BE6DE045B3CD63DBD71F7638BA2309CAE398EA3A7D8F98BBBC7A
310
EB367EFA5CFA27A9F8F2F52FE878058E6209C026453F8E7E8A237DFC389E9590F6059B397CFD65183BBF936E86896612A5B5FEE49DAC8455D026218AFEBEC12B3523A45B57B82C9C97E02ACFA1184DB18E48CF615DBF39C3CC6F0B4AE6BBEEA2E39D944E290302FA3DE33FA7E40296E2EF7BF1CD855BBECFAD0FD622BEE974
310
6FC4FDFDE545AE6E3BC234CADF83A0FB76DFB145BF3828AE3436368AC24989454F8FF70A177672C711CAA1A76107218CF948CA01F873520E7A2B118EBB161ABAD432932029628B6761590C98AB590C8C8C79798CE9F715BA696E839E9131A4BB68BE923F1747FBFF165331FFDD4D05997ACD168F12CA75348DAC04C7F509FE
310
83898A8B421181AF492861CE81E4A2DD0A30850CFA95E05F097FF70F9E777310D584A75BA7018922E271DAB1D785671157685B7D383D3E074DDB4F1E44EF04B07BAAC75A062077C54B9752C738C9D804D402E02851F3F89605AF189738C18C021D2139EAF72513824E10DDD3047BACC8521ED7E98B257D1166903B1B08FA6F
310
918FD7E162913FEC7D0EF4787E29C35FBA8C6E2C9C20E9AB30AE42CA2A01A090E7D010C1B5BF9CEE2A304BF3A987FB40D836979B79E18D70F257DA61E808472DD85B82761825779D6B90CAEB0F23360C6F80A7D7D77545E95B3DFF0CF96A827F9B5BCECD2C9698718417EF80FEEDEE938AFF55859D0D540B7FE09435583A6F
310
04874A0C7E8CF234DF4879722000167F5872CEC6BF3EF7E5A8CC8121E6A359227C8A29C95212F9F735BC72A887D56B8F309FC525BFB4FD767AAEC4AEFF249CFBBD2DE1AB9969A6155C7D8DABC307E47324C1F916C7BCFF40ABA5644E9FFB9238D19ADADA49D9610F01ABBA57E4DFCBDCCBB2B93C8953206C91DE01B0E2651A
310
6D6C31721915B31F7B7CBCE55466F6D70402788FA91D73BE4ADCBA99A35F17D6B83383704917D6833F0FA3CD45C926ADB8BC17999A4A0AFBCE2541F7B8CF4C2F5FBA611B3E626D64407CB32C122DFF4EF8674D6EDBB86C8F7C6A16D50FA685E2CCA34F8F7D1D8265BB0042E9D7F1F666F7BE5FAA5184DF58E12122A42EF02F
310
461B3F369AC746F96528AD208512AB56844CF75B97F352DF7995024FB02855385854F3798670D01CAC771AC3E1889EC25F61A20C1F8CAB46898817F9C47E2CDA1F286BF2F358298709FE567C91133E2638C8B53975E753EA8BFD3578B5F7186B7BF084EBA3F77BAC3132A5779902EC22AF2D2E79F42D324E083386DAEE9810
310
D1B44A5DAA54513C7A71E52A4AB9257D975B621308FE4D2141CC3DCFE946C154A3C1DFCCA7629EC69ACFA831634ADDA93C0388D2A9A2DDAFCF957C6995BCE7FBB6DC4EBAE79E63EB08E9A25F52F67076F7093CA545CA3053B5BF576DEAD4E0017143C5F759F32B2D6F145B52B67B48909B7C7FCA6586EE385A2189C16932CB
310
6DDFD9152AE317C430492A578ED27B72D85D40C7C93C097939E1B50F4D67F05334FE9DC362C30B7FF561B95259138ECFD9274C8D695C31B14D4EAA9F3D7FA8DDF652F8C5DEFA23284C799B7D94416DEE81E05A866302DC70192A5368EA65E1CED8BF107A1E2D3119A71E85DC1A7B0C1E93274CE04DD0F2ABC8AC7C987FDB00
310
2B6F81757B43502EF7A0D92E416494FAEEA4C9C090CD9557AA4D532F4996A272B94355C5A0E4974EEA9627476F30809B94D8D8D860062E02204643BEC7D0438AF800FC7E2B26955D595421E83C69E1A07E0E3122285835F014AD538188CF9737CE76D464A353FA55A001AB2526B84E985083693BC76FE211CA1D000679C889
310
E3C009832C87E1AC2EDD05C302557422DF0800E316FCAC86978A371F025A6C7DAA9F333E7BD160403A1A06EA75AA9888FF01504B03041400060808001575494D51464CB48900000043010000360000006662782F34323742353236332D334136382D343233372D423546442D3546383242424643383534462F646972656374
310
6F72792E786D6C9D8F310EC2300C45AF127987122606C71DD918B841D4B851A43646695A717C52A85029031293A5A76FBF6FACEF7DA7264E43906840EF0FA03836E242F406C6DCEE4EA06AC22492573150D1F66C60C640E8938CB705396EEDD86DE9B5042FE27813D640EA63BB001C722AF6E55CB61E4863F58284D5D3F53D
310
D715CE1C3985E63FD7F1B7EBDD617E9F1E504B03041400060808001575494D52B9511746070000551C0000340000006662782F34323742353236332D334136382D343233372D423546442D3546383242424643383534462F6F626A656374732E786D6CDD595B6FE23814FE2B56F665F721090997C28832E2524668B633D5A0
310
59ED5B6482A1DEE6262769617FFD1E3B7688D300E95CA4D1520952C7393EE73BF793F1FB4318A067C2521A47B78663750C44223FDED2687F6BE4D9CE1C1AE8FD048D591C67957D068A70486E0DBE6C4CC67B16E7895CDA921DCE83FAEA72F6374A7D121103F9014ED35B23F51F49882D9C67F196A44FD61667D8DAEF0E9663
310
151B75B27B8693C7DA51096624CA8055588F808AE4C0D1FF0591ECC9D8E61BB46DDD76DBDC0BDB6C21B8CE288DD20C47FE2BAE6AC7B967B8AA1DD7757A8B3BB73F32FBBD5ED7EC0D5CC79C2D670BD3B9E976E683F97C34BD1B196832DEC471502A2021D116B4783426CED8E6774AF1250A4D7CFB7114115FA2D9B4614B245D
310
4AD23A261AB08E10ADA29042D6CA42B7A5F067B6B502456349435B09A77EABD61B6FFE0110D23656CA52C2AD3CCD18E85A625FF843676C17AB9A5E688A429C1146718002BA61988182606BA1208D0CF7164E0A71CC841615BD2AAF60D8D77DA989CB5D1E04DC7F8D89F0340FFC9164A9E08CFE4BD889FBEA69C013489BD328
310
1B4A61B363022446635B2C16F7BAAEBC5900897601DE83B580987C53D7ADE135E7B160B530261F979BC39AC787E6C31316278465DCF284334BBF531AAC9816185F0B500A5C75DD9D50F902D07F02E44B5ED01834C7E8A177E829D9198ED25DCC42D00EEA20B3035F1DC42F5F5D8DEDF2E109425AAC3C8729B8ED0FC2541343
310
3BBB02E964FC0C461FB3AE146EEDE3006CFA9E46DCCFC1505010C312C4FBDDE6604C56104C61119EC201480F7F639B5F22F829E840BCA969A829FCB650947298BA9F9D74F5016C8651BF549526E3397CFB3F04DFE962FD719DB31DF6C9BD74EC05D9D18866904C9B19D240D75CFEEBEA93F0C8D9F14F7CACFAA0B6CB8773F6
310
310F1C0D7A594BBD20A1186085E7E1423562E59E82BB07018E489CA772BD2950F97110336F73F40A1F6E3CEB2F6504C561D2021A831964779FD18483624CA4BACA48689D704AC1C4309326B82FD4EA6DF230F17018E7118FB5AF6DB1CE07041A6E8A4055505396ADDC5691DDD2DD2E4F217A35929C6B404A8756840B13EF41
310
206BE297911DC39045E3C8A39084C15B1A4FD00E28C1BBCC734A829D4783200FBD1D0D209178214ECED06F294135753D91E34BCCB68D0475CB524EA96C88032E815520A97455047DA953469E29AF33454253E940DB210B5163D23B932F78AA68005419A330F3BB657F361BDCCDCDC1CCB9317BD3CEDC9C2E6777E66CDEBF19
310
8E160B773605F2D24A0402A770554D78A04A5EE768FE973DE6E126C234801B9C02DE26EFDE8BF4796B436CB47BEECDACEF0EBA66773A189A3DB77B63CEFACB85D95F0EDDD96C391FF67B4B9B9134CE994F52DBB53B9E32C924DA9FE3AA0CA63C6D81FCF02D2185BAE67AB653FAAA0BF3FF0DA21FEA494153E2AF1A44CBD8D5
310
5011B60DA2FCD17A08C5FE13CF519E0F655FA3FBD482689D8FA638F7C6B8DCB1BA1DF1719C91DB19B9C351BFDF32EC8993BE3BD235C9E043EB99675E9C609F66CD29B5864C4B96DF945DACAED32FB051DFAE8B00AFD6AB255397339364CAA321DE136F877963D1104AAF49DC98F5F6419CA63422A9680C5F158C359A1D0BEA
310
2F3D4B37982D4DBD9064F85B2C56741A352F80681E78D0C2667C8870B58E285D40362DE728F2861952BD90FFE8A5384C82A239BE8681E32A08E4098DB872A6F911CF609F1ECEBCCE968859C735EA25FBAAA268457DF4CDE4CFC0A32AA19F088F3AA27DB165F59D11FF0C210C0DFA4E777053AAE21A5AEAB08C377F410EEDAA
310
7FF45E08DD3FB62A4EDB69A552E61585784642E87D7196B3561E3B8068A26C4B09242343CD252A27BDB1A0144D9F6AFBE030D1F59D2B892BC740ED4A23188EB512E495148D462C742106817CDEF506CF56D85CA5FADD11F3A757D955F70BA1386C83435902CBF8A3D5E18D95BA5643A52F38F32194AEC5AF39038FD892EDA9
310
99D3C83595F5AAA6BD5671AF78480D61CC8B79A4BDE717C1170CAA86963BB565A16717EB2B9EDA2C98689FF8D098D6697DFEB0AE518195D64F3F708CC84B8D825C9DF30EFA02A9AFABD3A0A046414AF47575E1F15FA20B510AAC742330424EE380C2249F6CD19EC490BF6154D1A243612149455E3E7536EA35428BA79F8B41
310
6C863781EA8BFC470CD3EC40F66FB90F9354C899B7865C47BFC1EC948F2FC544CB7A82D64DC63003E58CDE1A60B119850ECDDAC00C4C4C1C05F5DA8C131C1B477B9EF18BA7CAFF4F8FBDEAD8CA3D6D70919269CE04A570225E2E40DD57DC988CBF5D74C50EC2195C6EF2AC14E6B470924682A0DE2214C2C1A8F049C27B8082
310
E5B25C8E25F6684D6CAB71FE453B28A89A19667B3193AFD8E474F160F371FAEA334A827CCFD579A963D62899BC530FF262723506C3906226985791F377F6038BE1BD548896148C00FD7E180EFEB0E77118C651B1644FE5DB2DB47E8477555B5BCD09A1F5EF38435B4C0EE4BB006F835362E16DFA040BA05A46F940B5805833
310
80329A560C406984EB021ED3F6AF1648564795A94A35EC7278C48B00048EC45F0071B7A96EA84C2DC117802B71F374A116C63683C9F9E43F504B03041400060808001575494DB712A5FFE1000000550100003C0000006662782F34323742353236332D334136382D343233372D423546442D3546383242424643383534462F
310
7265736F75726365732F322F636E782E786D6C4D90CD6EC32010845F0521F5680C960F6984C94BE4D44B4461E3A2006BF153B56F5F48A9D4D3AE663EAD66475EBE82279F90B2C3B851C13825100D5A17F78DD6729F4E945C944C88E51F4649D40136DA65AAE49EB01E43B270D7D577D5BBF81822BFED102139733BE24E89F1
310
3AE78D66F30141335D0B5AC80F6675D14CB004196B32D04E1417609C300974014BD5C2C569127CE2AF57B19E577E5E9737397752C977443F78170B243C5E166EB0ADB125E272EE809235B941F5379AF1178FB578726EB692B9A4D6C1C0CAF7D13017F40EF313F975959CFB936D3C1B68B317A27E00504B0304140006080800
310
1575494DFF15A4A45D000000800000003A0000006662782F34323742353236332D334136382D343233372D423546442D3546383242424643383534462F7265736F75726365732F636E782E786D6C4D8B3B0E80201005AF42B6F75B59F0390B113044D83508C6E30BC6C26AF226F3B8BA6360974DA7271430F523308B2B198F
310
9B80925DB700539227A2FCCB80A18E5640D320F996A81C9F32D6E9129A0D1EF74FCE750E6D57BC7165FBCA07504B03041400060808001575494D5C2224834201000056050000300000006662782F34323742353236332D334136382D343233372D423546442D3546383242424643383534462F636E782E786D6CCD94416EC3
310
201045AF62217569C05616698489D4454FD045D51DC61397C6060B86AAB97D2175925655D42E22253B343CA4FF673E23D61FE350BC830FC6D98654949302AC769DB17D43226ECA2529D65278E7F01B460AAB4668482E13297AEFE234973AD8A838E4EA60EC762E2A446FDA881048A107154243827E85515115D17510B6B453
310
A868453D0417BD86F41ECD08F37BED41217444D6BC5A96152FF9FD53B5582DF86A51BF089649295AE786993716C1BBE9AEE6DAA5A34D72B8601990227A3353D90391276DB43556B0742F45487A6D3F73B89B32374D83D10A53A398D308582608D428D8172C05CB8E7FF87E7C783E6948A7CE78D0E8FCEE6A6DA8CEB5E1288D
310
A644FCAF0B7BF02FF3AE7D4B96AF37F7B386676117B37B486E48D1FD9D84942765FBE1163FC051DAE5F39F160B1A7D8BA60FCA2EE499ED57601A7CDE88F213504B03041400060808001575494D44D971AF7E000000A30000000B0000006662782F636E782E786D6C4D8CCB0EC22014057F85DC3D3E78B42C804634FC476369
310
43A460B0183F5F305DB83AC9E4CCC8E1B306F476F9E55354703E9C00B9784F938F8B82B2CD58001AB4CC296D7F3740715C9D828641CB25A7F2DCD1E4E6B18446838F8F1D32D21B4E3A8AE9A5139811DA63C3ED0D732B8831F62A38B3D53836A5CEAF57B7E5F517504B03041400060808001575494DA6D797065F0000008200
310
000007000000636E782E786D6C4DCB3B0E80201045D1AD90E9FD7516806B51190811670C8A61F982B1B0BAC9C97B72CA7B1037C6D3332918DA1E04D2CAC69353902EDB8C20262D23F3F59B81A079470595414B17391D1F19B4730A5583A7ED43BBE4025D9592775E5ADFFA01504B03041400060808001575494DECFD112DA8
310
00000026010000130000005B436F6E74656E745F54797065735D2E786D6C7D4F4B0EC22010BD0A61DF525D18634ABB506FE00510A79458060253536F2FD89D5197F3FED3F68B9BD80362B21E25DFD40D6780DADF2C1AC9671AAA3D677DD75E9E0112CB5A4C928F44E12044D22338956A1F003333F8E814E5331A1194BE2B03
310
62DB343BA13D122055543278D79E6050F344ECBC6478EDCD76CE8EABAE5449AE4298AC56946789C28AAFBEABC53F3EAF09A84A1441B91F0101CD4780756578C173A578FFDDBD00504B03041400060808001575494D3DEE336E64000000790000001B0000006175746F6465736B2D64657369676E2D7061636B6167652E786D
310
6C35CBC10E83200C00D05F21DCA56CA76D41FC96062B120735B69A7DBE268BB7777961F8D5AF396893C2ADB70FE7ADA196782C2DF776D7A97B5933C430F15651E5469C55D70F80A4992A3ADC954792C525AE70A1E4D6AD9816CC044FEFDF01FE3FDE907802504B03041400060808001575494DE64FF283F30000008E010000
310
3D0000006662782F34323742353236332D334136382D343233372D423546442D3546383242424643383534462F7265736F75726365732F322F636F72652E786D6C8550CB6EC32010FC156BEFD86070134798A8B5DC2FE8A93784898B1283C5A3EAE71712576A4F3DED6A76667677F8F96BBD559FDA07E3EC00A4C65069ABDC
310
6CEC32408A177484EA2CB8772EFEA24165E5AA07283008BE7897B61D52CE466D0B6ADDAC775086A02354EA969B0182FAD0ABAC658A9911AEF526D5552EBA26F58327784A66DEA566CE6EE662B407D1BF3E4FB47B1AD161A218B11E63F4C228439474841EC6B11FA78E37452C7834EBCF76E5B58C7A06D16272440423DCBF11
310
7662F8C4DA77DE14A6E021FAFCF3BEB47C97E9BC79A07FDCD236FFEF968C8DB4DDDD1E8A0082E4E3EE03C19B924E2EF7E8722D498A6F504B03041400060808001575494D73849CAAF9000000960100003B0000006662782F34323742353236332D334136382D343233372D423546442D3546383242424643383534462F7265
310
736F75726365732F636F72652E786D6C8550CB4EC33010FC9568EF4EEC3C685339AE200A5FC0899BE56C83D5C68EFC407C3E761B243871DAD5ECCCECEEF0F3D77A2B3ED1796DCD00ACA450A05176D6661920860B39427116DC591B7ED1A03072C501320C822FCEC66D879435014D468D9D7107A5F718A050B7D40CE0D507AE
310
B294312486BF969B5457B960C9CA074FF018F5BC4BF59CDCF445A303D1BF3E4F4DF73492C3D450D2F6949297B66949C33AD61CC6B11FA78E57592C78D0EBCF76E550069C41D4941D09A384F66FAC3DB5F4D4D6EFBCCA4CC17D70E9E77D69FE0E84436FA353E879F598FE718DDBFCBF6BD42634F5EEFA5078102C1D791F085E
310
E59452B947986A4E547C03504B03041400060808001575494D97FF46D6F2000000B1010000310000006662782F34323742353236332D334136382D343233372D423546442D3546383242424643383534462F636F72652E786D6C8D50CB6EC32010FC156BEFF88171E24698A86EE52FE8A93704C44189C1E251F5F30BB12BB5
310
B79C16CDCE30B343CFDFCBBDF852CE6B6B0668CA1A0A658495DACC03C470413D1467469DB5E10F0D0AC31735408681D1D9D9B8EE90B02628935163A5DA41EEBD0A50887B7A0CE0C5552DBCE4312486BF952B17373EABB229371EA3412FBF52E1140F4A02C375D3A3A646F5CB47434EA43E11FC49ABCC6434462D772B2D93BB
310
BE68E580117C1C3B7C6851FB7AE811C1ED118DDDF48EBAA9C7E338BDF51D996895C58CFAE0D2CDFB27F9BA67E59BF05FE6B8CA27326B135ABC1B6E0A0FAC49791E0B46AB5C601A8F76D3CC65B31F504B03041400060808001575494D2277C53353010000DD0200000C0000006662782F636F72652E786D6C8D52DB6E842014
310
FC15C33B0AEA762F4136ADD97E419FFAC6226BC92A1804B39F5FF012EB43B78D099239E7CC9C9940CE8FB68906617AA95501708C402414D7955475019CBDC10388CE9418ADED8F361029D68A02041850521BEDBA19E25A59A102AA74256690F5BDB020E28DBF14A0E75FA2653173D677F4F7B863FCCE6A11E378EAA3C43959
310
CDA3B2F26CF2268501F4F8FE7AC9762F25DC5F3204F32342F02DCF7298E11DCEF665792C2F3B9284614AAC6C17756E04B3A2023445F8003182E8F881F3538E4E79FA4992D049496F8DF73C8B067780DEAE0F924CF886CF75D5DF7C4E2A9BA533DF34D1038AFD7A63819224E4E37F6378DB0CBDB0CFCFB26BB358B87B6810DC
310
6A93FB4AA5DD5A1A58E384A746D1F89164AA7AE691E0379EF409CF730E1F1453B55F8D597FBD3A1BD4B73B75C2C0C13E22A54DCB9A75B969C5F55C8536969671AE1B6DFE33BD585DC24CC2C3A4DF504B03041400060808001575494DC099D80907010000B201000008000000636F72652E786D6C8D50C16E842014FC15F2EE
310
288876D70DB2698DFD829E7AA3C2BA64158CE0A6FDFBC26A93F6D6D32333F3DE0CC3CF9FD388EE7AF1C6D90668460069DB3B65ECD0C01A2EF808E82CF8E25CF8250364E5A41B4830083E2C6E9D77A87736689B50EB94DE41E9BD0E80FA313E1AF0FD554F32936B880A7FCB66D9DFE4A0339A6D3AC183997E56FB45CBA01588
310
82D023A60493FA8D96A7929CCAE29DE74929F8BA1AB55B1915DDCDC5E80544FDFADCB1EAA9C5878E115CD684E097929598D18AB243DBD66D57F13C2D0BEEC312FFBC1F893903F2F29E7C79BE51827F3837EE82184A2167C72F1084E789F8137A9DD53F421B1B58B11FDC363C081A033D88689C1A8CE3516F9CA96DF10D504B
310
010214001400060808001575494D0000000000000000000000003700000000000000000000000000000000006662782F34323742353236332D334136382D343233372D423546442D3546383242424643383534462F617474726962757465732E62696E504B010214001400060808001575494D000000000000000000000000
310
3500000000000000000000000000550000006662782F34323742353236332D334136382D343233372D423546442D3546383242424643383534462F76657274696365732E62696E504B010214001400060808001575494DF270F13306000000040000003600000000000000000000000000A80000006662782F343237423532
310
36332D334136382D343233372D423546442D3546383242424643383534462F747269616E676C65732E62696E504B010214001400060808001575494D88E57597CD3F0000904100004200000000000000000000000000020100006662782F34323742353236332D334136382D343233372D423546442D354638324242464338
310
3534462F7265736F75726365732F322F305F67656E657269632E706E67504B010214001400060808001575494D51464CB4890000004301000036000000000000000000000000002F4100006662782F34323742353236332D334136382D343233372D423546442D3546383242424643383534462F6469726563746F72792E78
310
6D6C504B010214001400060808001575494D52B9511746070000551C000034000000000000000000000000000C4200006662782F34323742353236332D334136382D343233372D423546442D3546383242424643383534462F6F626A656374732E786D6C504B010214001400060808001575494DB712A5FFE1000000550100
310
003C00000000000000000000000000A44900006662782F34323742353236332D334136382D343233372D423546442D3546383242424643383534462F7265736F75726365732F322F636E782E786D6C504B010214001400060808001575494DFF15A4A45D000000800000003A00000000000000000000000000DF4A00006662
310
782F34323742353236332D334136382D343233372D423546442D3546383242424643383534462F7265736F75726365732F636E782E786D6C504B010214001400060808001575494D5C22248342010000560500003000000000000000000000000000944B00006662782F34323742353236332D334136382D343233372D4235
310
46442D3546383242424643383534462F636E782E786D6C504B010214001400060808001575494D44D971AF7E000000A30000000B00000000000000000000000000244D00006662782F636E782E786D6C504B010214001400060808001575494DA6D797065F000000820000000700000000000000000000000000CB4D000063
310
6E782E786D6C504B010214001400060808001575494DECFD112DA80000002601000013000000000000000000000000004F4E00005B436F6E74656E745F54797065735D2E786D6C504B010214001400060808001575494D3DEE336E64000000790000001B00000000000000000000000000284F00006175746F6465736B2D64
310
657369676E2D7061636B6167652E786D6C504B010214001400060808001575494DE64FF283F30000008E0100003D00000000000000000000000000C54F00006662782F34323742353236332D334136382D343233372D423546442D3546383242424643383534462F7265736F75726365732F322F636F72652E786D6C504B01
310
0214001400060808001575494D73849CAAF9000000960100003B00000000000000000000000000135100006662782F34323742353236332D334136382D343233372D423546442D3546383242424643383534462F7265736F75726365732F636F72652E786D6C504B010214001400060808001575494D97FF46D6F2000000B1
310
0100003100000000000000000000000000655200006662782F34323742353236332D334136382D343233372D423546442D3546383242424643383534462F636F72652E786D6C504B010214001400060808001575494D2277C53353010000DD0200000C00000000000000000000000000A65300006662782F636F72652E786D
310
6C504B010214001400060808001575494DC099D80907010000B2010000080000000000000000000000000023550000636F72652E786D6C504B050600000000120012002D060000505600000000
  0
XRECORD
  5
17
102
{ACAD_REACTORS
330
12
102
}
330
12
100
AcDbXrecord
280
     1
270
     1
271
     1
  0
XRECORD
  5
16
102
{ACAD_REACTORS
330
12
102
}
330
12
100
AcDbXrecord
280
     1
270
     1
271
     1
  0
XRECORD
  5
18
102
{ACAD_REACTORS
330
12
102
}
330
12
100
AcDbXrecord
280
     1
270
     1
271
     1
  0
XRECORD
  5
15
102
{ACAD_REACTORS
330
12
102
}
330
12
100
AcDbXrecord
280
     1
270
     1
271
     1
  0
XRECORD
  5
24
102
{ACAD_REACTORS
330
22
102
}
330
22
100
AcDbXrecord
280
     1
270
     1
271
     1
  0
XRECORD
  5
23
102
{ACAD_REACTORS
330
22
102
}
330
22
100
AcDbXrecord
280
     1
270
     1
271
     1
  0
XRECORD
  5
27
102
{ACAD_REACTORS
330
22
102
}
330
22
100
AcDbXrecord
280
     1
270
     1
271
     1
  0
XRECORD
  5
26
102
{ACAD_REACTORS
330
22
102
}
330
22
100
AcDbXrecord
280
     1
270
     1
271
     1
  0
XRECORD
  5
28
102
{ACAD_REACTORS
330
22
102
}
330
22
100
AcDbXrecord
280
     1
270
     1
271
     1
  0
XRECORD
  5
25
102
{ACAD_REACTORS
330
22
102
}
330
22
100
AcDbXrecord
280
     1
270
     1
271
     1
  0
CELLSTYLEMAP
  5
346
102
{ACAD_REACTORS
330
345
102
}
330
345
100
AcDbCellStyleMap
 90
        3
300
CELLSTYLE
  1
TABLEFORMAT_BEGIN
 90
        5
170
     1
 91
        0
 92
    32768
 62
   257
 93
        1
300
CONTENTFORMAT
  1
CONTENTFORMAT_BEGIN
 90
        0
 91
        0
 92
      512
 93
        0
300

 40
0.0
140
1.0
 94
        5
 62
     0
340
55
144
0.25
309
CONTENTFORMAT_END
171
     0
 94
        0
309
TABLEFORMAT_END
  1
CELLSTYLE_BEGIN
 90
        1
 91
        1
300
_TITLE
309
CELLSTYLE_END
300
CELLSTYLE
  1
TABLEFORMAT_BEGIN
 90
        5
170
     1
 91
        0
 92
        0
 62
   257
 93
        1
300
CONTENTFORMAT
  1
CONTENTFORMAT_BEGIN
 90
        0
 91
        0
 92
      512
 93
        0
300

 40
0.0
140
1.0
 94
        5
 62
     0
340
55
144
0.18
309
CONTENTFORMAT_END
171
     0
 94
        0
309
TABLEFORMAT_END
  1
CELLSTYLE_BEGIN
 90
        2
 91
        1
300
_HEADER
309
CELLSTYLE_END
300
CELLSTYLE
  1
TABLEFORMAT_BEGIN
 90
        5
170
     1
 91
        0
 92
        0
 62
   257
 93
        1
300
CONTENTFORMAT
  1
CONTENTFORMAT_BEGIN
 90
        0
 91
        0
 92
      512
 93
        0
300

 40
0.0
140
1.0
 94
        2
 62
     0
340
55
144
0.18
309
CONTENTFORMAT_END
171
     0
 94
        0
309
TABLEFORMAT_END
  1
CELLSTYLE_BEGIN
 90
        3
 91
        2
300
_DATA
309
CELLSTYLE_END
  0
ENDSEC
  0
EOF
