ISO-10303-21;
HEADER;
/* Generated by software containing ST-Developer
 * from STEP Tools, Inc. (www.steptools.com) 
 */

FILE_DESCRIPTION(
/* description */ ('Mini Mutter'),
/* implementation_level */ '2;1');

FILE_NAME(
/* name */ '\\\\md-server\\cad\\3D Konstruktionen\\Bauteile\\29701563.
stp',
/* time_stamp */ '2015-02-04T12:21:30+01:00',
/* author */ ('ekoch'),
/* organization */ (''),
/* preprocessor_version */ 'ST-DEVELOPER v15.2',
/* originating_system */ 'Autodesk Inventor 2014',
/* authorisation */ '');

FILE_SCHEMA (('AUTOMOTIVE_DESIGN { 1 0 10303 214 3 1 1 }'));
ENDSEC;

DATA;
#10=MECHANICAL_DESIGN_GEOMETRIC_PRESENTATION_REPRESENTATION('',(#13),#399);
#11=SHAPE_REPRESENTATION_RELATIONSHIP('SRR','None',#408,#12);
#12=ADVANCED_BREP_SHAPE_REPRESENTATION($,(#224),#398);
#13=STYLED_ITEM('',(#417),#224);
#14=(
BOUNDED_CURVE()
B_SPLINE_CURVE(2,(#347,#348,#349),.UNSPECIFIED.,.F.,.F.)
B_SPLINE_CURVE_WITH_KNOTS((3,3),(0.591385364754795,1.18277072950959),
 .UNSPECIFIED.)
CURVE()
GEOMETRIC_REPRESENTATION_ITEM()
RATIONAL_B_SPLINE_CURVE((1.,1.03682206766638,1.))
REPRESENTATION_ITEM('')
);
#15=(
BOUNDED_CURVE()
B_SPLINE_CURVE(2,(#351,#352,#353),.UNSPECIFIED.,.F.,.F.)
B_SPLINE_CURVE_WITH_KNOTS((3,3),(0.,0.591385364754795),.UNSPECIFIED.)
CURVE()
GEOMETRIC_REPRESENTATION_ITEM()
RATIONAL_B_SPLINE_CURVE((1.,1.03682206766641,1.))
REPRESENTATION_ITEM('')
);
#16=(
BOUNDED_CURVE()
B_SPLINE_CURVE(2,(#364,#365,#366),.UNSPECIFIED.,.F.,.F.)
B_SPLINE_CURVE_WITH_KNOTS((3,3),(0.591385364754796,1.18277072950959),
 .UNSPECIFIED.)
CURVE()
GEOMETRIC_REPRESENTATION_ITEM()
RATIONAL_B_SPLINE_CURVE((1.,1.03682206766639,1.))
REPRESENTATION_ITEM('')
);
#17=(
BOUNDED_CURVE()
B_SPLINE_CURVE(2,(#368,#369,#370),.UNSPECIFIED.,.F.,.F.)
B_SPLINE_CURVE_WITH_KNOTS((3,3),(0.,0.591385364754796),.UNSPECIFIED.)
CURVE()
GEOMETRIC_REPRESENTATION_ITEM()
RATIONAL_B_SPLINE_CURVE((1.,1.03682206766639,1.))
REPRESENTATION_ITEM('')
);
#18=LINE('',#342,#24);
#19=LINE('',#345,#25);
#20=LINE('',#354,#26);
#21=LINE('',#359,#27);
#22=LINE('',#362,#28);
#23=LINE('',#371,#29);
#24=VECTOR('',#275,11.3578166916005);
#25=VECTOR('',#278,5.5);
#26=VECTOR('',#279,5.5);
#27=VECTOR('',#284,11.3578166916005);
#28=VECTOR('',#287,5.5);
#29=VECTOR('',#288,5.5);
#30=PLANE('',#232);
#31=PLANE('',#234);
#32=PLANE('',#235);
#33=PLANE('',#237);
#34=PLANE('',#246);
#35=PLANE('',#251);
#36=PLANE('',#255);
#37=PLANE('',#256);
#38=CYLINDRICAL_SURFACE('',#229,8.9585);
#39=CYLINDRICAL_SURFACE('',#238,11.5);
#40=CYLINDRICAL_SURFACE('',#253,9.5);
#41=FACE_BOUND('',#68,.T.);
#42=FACE_BOUND('',#70,.T.);
#43=FACE_BOUND('',#76,.T.);
#44=FACE_BOUND('',#79,.T.);
#45=FACE_BOUND('',#80,.T.);
#46=FACE_BOUND('',#82,.T.);
#47=FACE_BOUND('',#84,.T.);
#48=FACE_BOUND('',#85,.T.);
#49=FACE_BOUND('',#86,.T.);
#50=FACE_BOUND('',#88,.T.);
#51=FACE_BOUND('',#89,.T.);
#52=FACE_BOUND('',#90,.T.);
#53=FACE_BOUND('',#91,.T.);
#54=FACE_BOUND('',#92,.T.);
#55=FACE_OUTER_BOUND('',#67,.T.);
#56=FACE_OUTER_BOUND('',#69,.T.);
#57=FACE_OUTER_BOUND('',#71,.T.);
#58=FACE_OUTER_BOUND('',#72,.T.);
#59=FACE_OUTER_BOUND('',#73,.T.);
#60=FACE_OUTER_BOUND('',#74,.T.);
#61=FACE_OUTER_BOUND('',#75,.T.);
#62=FACE_OUTER_BOUND('',#77,.T.);
#63=FACE_OUTER_BOUND('',#78,.T.);
#64=FACE_OUTER_BOUND('',#81,.T.);
#65=FACE_OUTER_BOUND('',#83,.T.);
#66=FACE_OUTER_BOUND('',#87,.T.);
#67=EDGE_LOOP('',(#152));
#68=EDGE_LOOP('',(#153));
#69=EDGE_LOOP('',(#154));
#70=EDGE_LOOP('',(#155));
#71=EDGE_LOOP('',(#156,#157));
#72=EDGE_LOOP('',(#158,#159,#160,#161,#162));
#73=EDGE_LOOP('',(#163,#164));
#74=EDGE_LOOP('',(#165,#166,#167,#168,#169));
#75=EDGE_LOOP('',(#170,#171,#172,#173,#174,#175,#176,#177));
#76=EDGE_LOOP('',(#178));
#77=EDGE_LOOP('',(#179,#180,#181,#182));
#78=EDGE_LOOP('',(#183,#184,#185,#186));
#79=EDGE_LOOP('',(#187));
#80=EDGE_LOOP('',(#188,#189));
#81=EDGE_LOOP('',(#190));
#82=EDGE_LOOP('',(#191));
#83=EDGE_LOOP('',(#192));
#84=EDGE_LOOP('',(#193));
#85=EDGE_LOOP('',(#194));
#86=EDGE_LOOP('',(#195));
#87=EDGE_LOOP('',(#196));
#88=EDGE_LOOP('',(#197));
#89=EDGE_LOOP('',(#198));
#90=EDGE_LOOP('',(#199));
#91=EDGE_LOOP('',(#200));
#92=EDGE_LOOP('',(#201));
#93=CIRCLE('',#227,8.14142049952768);
#94=CIRCLE('',#228,8.9585);
#95=CIRCLE('',#230,8.9585);
#96=CIRCLE('',#231,8.9585);
#97=CIRCLE('',#233,11.5);
#98=CIRCLE('',#236,11.5);
#99=CIRCLE('',#239,11.5);
#100=CIRCLE('',#240,11.5);
#101=CIRCLE('',#241,11.5);
#102=CIRCLE('',#243,9.99999999999999);
#103=CIRCLE('',#245,9.99999999999999);
#104=CIRCLE('',#247,6.3);
#105=CIRCLE('',#249,6.);
#106=CIRCLE('',#252,9.5);
#107=CIRCLE('',#254,9.5);
#108=VERTEX_POINT('',#329);
#109=VERTEX_POINT('',#331);
#110=VERTEX_POINT('',#334);
#111=VERTEX_POINT('',#336);
#112=VERTEX_POINT('',#339);
#113=VERTEX_POINT('',#340);
#114=VERTEX_POINT('',#344);
#115=VERTEX_POINT('',#346);
#116=VERTEX_POINT('',#350);
#117=VERTEX_POINT('',#356);
#118=VERTEX_POINT('',#357);
#119=VERTEX_POINT('',#361);
#120=VERTEX_POINT('',#363);
#121=VERTEX_POINT('',#367);
#122=VERTEX_POINT('',#375);
#123=VERTEX_POINT('',#382);
#124=VERTEX_POINT('',#385);
#125=VERTEX_POINT('',#389);
#126=VERTEX_POINT('',#392);
#127=EDGE_CURVE('',#108,#108,#93,.T.);
#128=EDGE_CURVE('',#109,#109,#94,.T.);
#129=EDGE_CURVE('',#110,#110,#95,.T.);
#130=EDGE_CURVE('',#111,#111,#96,.T.);
#131=EDGE_CURVE('',#112,#113,#97,.T.);
#132=EDGE_CURVE('',#112,#113,#18,.T.);
#133=EDGE_CURVE('',#114,#112,#19,.T.);
#134=EDGE_CURVE('',#115,#114,#14,.T.);
#135=EDGE_CURVE('',#116,#115,#15,.T.);
#136=EDGE_CURVE('',#113,#116,#20,.T.);
#137=EDGE_CURVE('',#117,#118,#98,.T.);
#138=EDGE_CURVE('',#117,#118,#21,.T.);
#139=EDGE_CURVE('',#119,#117,#22,.T.);
#140=EDGE_CURVE('',#120,#119,#16,.T.);
#141=EDGE_CURVE('',#121,#120,#17,.T.);
#142=EDGE_CURVE('',#118,#121,#23,.T.);
#143=EDGE_CURVE('',#119,#116,#99,.T.);
#144=EDGE_CURVE('',#114,#121,#100,.T.);
#145=EDGE_CURVE('',#122,#122,#101,.T.);
#146=EDGE_CURVE('',#115,#120,#102,.T.);
#147=EDGE_CURVE('',#120,#115,#103,.T.);
#148=EDGE_CURVE('',#123,#123,#104,.T.);
#149=EDGE_CURVE('',#124,#124,#105,.T.);
#150=EDGE_CURVE('',#125,#125,#106,.T.);
#151=EDGE_CURVE('',#126,#126,#107,.T.);
#152=ORIENTED_EDGE('',*,*,#127,.F.);
#153=ORIENTED_EDGE('',*,*,#128,.F.);
#154=ORIENTED_EDGE('',*,*,#129,.F.);
#155=ORIENTED_EDGE('',*,*,#130,.F.);
#156=ORIENTED_EDGE('',*,*,#131,.F.);
#157=ORIENTED_EDGE('',*,*,#132,.T.);
#158=ORIENTED_EDGE('',*,*,#133,.F.);
#159=ORIENTED_EDGE('',*,*,#134,.F.);
#160=ORIENTED_EDGE('',*,*,#135,.F.);
#161=ORIENTED_EDGE('',*,*,#136,.F.);
#162=ORIENTED_EDGE('',*,*,#132,.F.);
#163=ORIENTED_EDGE('',*,*,#137,.F.);
#164=ORIENTED_EDGE('',*,*,#138,.T.);
#165=ORIENTED_EDGE('',*,*,#139,.F.);
#166=ORIENTED_EDGE('',*,*,#140,.F.);
#167=ORIENTED_EDGE('',*,*,#141,.F.);
#168=ORIENTED_EDGE('',*,*,#142,.F.);
#169=ORIENTED_EDGE('',*,*,#138,.F.);
#170=ORIENTED_EDGE('',*,*,#133,.T.);
#171=ORIENTED_EDGE('',*,*,#131,.T.);
#172=ORIENTED_EDGE('',*,*,#136,.T.);
#173=ORIENTED_EDGE('',*,*,#143,.F.);
#174=ORIENTED_EDGE('',*,*,#139,.T.);
#175=ORIENTED_EDGE('',*,*,#137,.T.);
#176=ORIENTED_EDGE('',*,*,#142,.T.);
#177=ORIENTED_EDGE('',*,*,#144,.F.);
#178=ORIENTED_EDGE('',*,*,#145,.T.);
#179=ORIENTED_EDGE('',*,*,#135,.T.);
#180=ORIENTED_EDGE('',*,*,#146,.T.);
#181=ORIENTED_EDGE('',*,*,#140,.T.);
#182=ORIENTED_EDGE('',*,*,#143,.T.);
#183=ORIENTED_EDGE('',*,*,#134,.T.);
#184=ORIENTED_EDGE('',*,*,#144,.T.);
#185=ORIENTED_EDGE('',*,*,#141,.T.);
#186=ORIENTED_EDGE('',*,*,#147,.T.);
#187=ORIENTED_EDGE('',*,*,#148,.F.);
#188=ORIENTED_EDGE('',*,*,#147,.F.);
#189=ORIENTED_EDGE('',*,*,#146,.F.);
#190=ORIENTED_EDGE('',*,*,#148,.T.);
#191=ORIENTED_EDGE('',*,*,#149,.F.);
#192=ORIENTED_EDGE('',*,*,#127,.T.);
#193=ORIENTED_EDGE('',*,*,#149,.T.);
#194=ORIENTED_EDGE('',*,*,#128,.T.);
#195=ORIENTED_EDGE('',*,*,#150,.F.);
#196=ORIENTED_EDGE('',*,*,#151,.F.);
#197=ORIENTED_EDGE('',*,*,#150,.T.);
#198=ORIENTED_EDGE('',*,*,#129,.T.);
#199=ORIENTED_EDGE('',*,*,#151,.T.);
#200=ORIENTED_EDGE('',*,*,#130,.T.);
#201=ORIENTED_EDGE('',*,*,#145,.F.);
#202=CONICAL_SURFACE('',#226,4.47925,59.);
#203=CONICAL_SURFACE('',#242,10.75,45.0000000000001);
#204=CONICAL_SURFACE('',#244,10.75,45.0000000000001);
#205=CONICAL_SURFACE('',#248,6.15,45.0000000000002);
#206=CONICAL_SURFACE('',#250,7.21243556529821,30.);
#207=ADVANCED_FACE('',(#55,#41),#202,.F.);
#208=ADVANCED_FACE('',(#56,#42),#38,.F.);
#209=ADVANCED_FACE('',(#57),#30,.T.);
#210=ADVANCED_FACE('',(#58),#31,.F.);
#211=ADVANCED_FACE('',(#59),#32,.T.);
#212=ADVANCED_FACE('',(#60),#33,.F.);
#213=ADVANCED_FACE('',(#61,#43),#39,.T.);
#214=ADVANCED_FACE('',(#62),#203,.T.);
#215=ADVANCED_FACE('',(#63),#204,.T.);
#216=ADVANCED_FACE('',(#44,#45),#34,.T.);
#217=ADVANCED_FACE('',(#64,#46),#205,.F.);
#218=ADVANCED_FACE('',(#65,#47),#206,.F.);
#219=ADVANCED_FACE('',(#48,#49),#35,.T.);
#220=ADVANCED_FACE('',(#66,#50),#40,.F.);
#221=ADVANCED_FACE('',(#51,#52),#36,.T.);
#222=ADVANCED_FACE('',(#53,#54),#37,.T.);
#223=CLOSED_SHELL('',(#207,#208,#209,#210,#211,#212,#213,#214,#215,#216,
#217,#218,#219,#220,#221,#222));
#224=MANIFOLD_SOLID_BREP('Volumenk\X\F6rper1',#223);
#225=AXIS2_PLACEMENT_3D('placement',#327,#257,#258);
#226=AXIS2_PLACEMENT_3D('',#328,#259,#260);
#227=AXIS2_PLACEMENT_3D('',#330,#261,#262);
#228=AXIS2_PLACEMENT_3D('',#332,#263,#264);
#229=AXIS2_PLACEMENT_3D('',#333,#265,#266);
#230=AXIS2_PLACEMENT_3D('',#335,#267,#268);
#231=AXIS2_PLACEMENT_3D('',#337,#269,#270);
#232=AXIS2_PLACEMENT_3D('',#338,#271,#272);
#233=AXIS2_PLACEMENT_3D('',#341,#273,#274);
#234=AXIS2_PLACEMENT_3D('',#343,#276,#277);
#235=AXIS2_PLACEMENT_3D('',#355,#280,#281);
#236=AXIS2_PLACEMENT_3D('',#358,#282,#283);
#237=AXIS2_PLACEMENT_3D('',#360,#285,#286);
#238=AXIS2_PLACEMENT_3D('',#372,#289,#290);
#239=AXIS2_PLACEMENT_3D('',#373,#291,#292);
#240=AXIS2_PLACEMENT_3D('',#374,#293,#294);
#241=AXIS2_PLACEMENT_3D('',#376,#295,#296);
#242=AXIS2_PLACEMENT_3D('',#377,#297,#298);
#243=AXIS2_PLACEMENT_3D('',#378,#299,#300);
#244=AXIS2_PLACEMENT_3D('',#379,#301,#302);
#245=AXIS2_PLACEMENT_3D('',#380,#303,#304);
#246=AXIS2_PLACEMENT_3D('',#381,#305,#306);
#247=AXIS2_PLACEMENT_3D('',#383,#307,#308);
#248=AXIS2_PLACEMENT_3D('',#384,#309,#310);
#249=AXIS2_PLACEMENT_3D('',#386,#311,#312);
#250=AXIS2_PLACEMENT_3D('',#387,#313,#314);
#251=AXIS2_PLACEMENT_3D('',#388,#315,#316);
#252=AXIS2_PLACEMENT_3D('',#390,#317,#318);
#253=AXIS2_PLACEMENT_3D('',#391,#319,#320);
#254=AXIS2_PLACEMENT_3D('',#393,#321,#322);
#255=AXIS2_PLACEMENT_3D('',#394,#323,#324);
#256=AXIS2_PLACEMENT_3D('',#395,#325,#326);
#257=DIRECTION('axis',(0.,0.,1.));
#258=DIRECTION('refdir',(1.,0.,0.));
#259=DIRECTION('center_axis',(-1.,-1.95921710227969E-016,0.));
#260=DIRECTION('ref_axis',(1.95921710227969E-016,-1.,0.));
#261=DIRECTION('center_axis',(-1.,-1.95921710227969E-016,0.));
#262=DIRECTION('ref_axis',(-1.93164906138131E-016,1.,0.));
#263=DIRECTION('center_axis',(1.,1.95921710227969E-016,0.));
#264=DIRECTION('ref_axis',(1.95921710227969E-016,-1.,0.));
#265=DIRECTION('center_axis',(-1.,-1.95921710227969E-016,0.));
#266=DIRECTION('ref_axis',(1.95921710227969E-016,-1.,0.));
#267=DIRECTION('center_axis',(-1.,-1.95921710227969E-016,0.));
#268=DIRECTION('ref_axis',(1.95921710227969E-016,-1.,0.));
#269=DIRECTION('center_axis',(1.,1.95921710227969E-016,0.));
#270=DIRECTION('ref_axis',(1.95921710227969E-016,-1.,0.));
#271=DIRECTION('center_axis',(1.,3.43872763346231E-016,5.81061810540976E-016));
#272=DIRECTION('ref_axis',(5.32907051820075E-016,0.,-1.));
#273=DIRECTION('center_axis',(-1.,-3.43872763346231E-016,-5.81061810540976E-016));
#274=DIRECTION('ref_axis',(-1.93164906138131E-016,1.,0.));
#275=DIRECTION('',(1.95921710227969E-016,-1.,-8.36862092339806E-017));
#276=DIRECTION('center_axis',(1.32729080478805E-032,-8.36862092339806E-017,
1.));
#277=DIRECTION('ref_axis',(1.,0.,0.));
#278=DIRECTION('',(-1.,-1.95921710227969E-016,0.));
#279=DIRECTION('',(1.,1.95921710227969E-016,0.));
#280=DIRECTION('center_axis',(1.,3.92019921835635E-016,-5.81061810540946E-016));
#281=DIRECTION('ref_axis',(-5.32907051820075E-016,0.,-1.));
#282=DIRECTION('center_axis',(-1.,-3.92019921835635E-016,5.81061810540946E-016));
#283=DIRECTION('ref_axis',(-1.93164906138131E-016,1.,0.));
#284=DIRECTION('',(-1.95921710227969E-016,1.,8.36862092339806E-017));
#285=DIRECTION('center_axis',(-1.32729080478805E-032,8.36862092339806E-017,
-1.));
#286=DIRECTION('ref_axis',(-1.,0.,0.));
#287=DIRECTION('',(-1.,-1.95921710227969E-016,0.));
#288=DIRECTION('',(1.,1.95921710227969E-016,0.));
#289=DIRECTION('center_axis',(1.,1.95921710227969E-016,0.));
#290=DIRECTION('ref_axis',(-1.93164906138131E-016,1.,0.));
#291=DIRECTION('center_axis',(1.,1.95921710227969E-016,0.));
#292=DIRECTION('ref_axis',(1.93164906138131E-016,-1.,0.));
#293=DIRECTION('center_axis',(1.,1.95921710227969E-016,0.));
#294=DIRECTION('ref_axis',(1.93164906138131E-016,-1.,0.));
#295=DIRECTION('center_axis',(1.,1.95921710227969E-016,0.));
#296=DIRECTION('ref_axis',(-1.93164906138131E-016,1.,0.));
#297=DIRECTION('center_axis',(-1.,-1.95921710227969E-016,0.));
#298=DIRECTION('ref_axis',(1.94447140598521E-016,-1.,0.));
#299=DIRECTION('center_axis',(-1.,-1.95921710227969E-016,0.));
#300=DIRECTION('ref_axis',(1.95921710227969E-016,-1.,0.));
#301=DIRECTION('center_axis',(-1.,-1.95921710227969E-016,0.));
#302=DIRECTION('ref_axis',(1.94447140598521E-016,-1.,0.));
#303=DIRECTION('center_axis',(-1.,-1.95921710227969E-016,0.));
#304=DIRECTION('ref_axis',(1.95921710227969E-016,-1.,0.));
#305=DIRECTION('center_axis',(1.,1.95921710227969E-016,0.));
#306=DIRECTION('ref_axis',(0.,0.,-1.));
#307=DIRECTION('center_axis',(1.,1.95921710227969E-016,0.));
#308=DIRECTION('ref_axis',(1.95921710227969E-016,-1.,0.));
#309=DIRECTION('center_axis',(1.,1.95921710227968E-016,0.));
#310=DIRECTION('ref_axis',(1.94576927745121E-016,-1.,0.));
#311=DIRECTION('center_axis',(1.,1.95921710227969E-016,0.));
#312=DIRECTION('ref_axis',(-1.93164906138131E-016,1.,0.));
#313=DIRECTION('center_axis',(-1.,-1.95921710227969E-016,0.));
#314=DIRECTION('ref_axis',(-1.93164906138131E-016,1.,0.));
#315=DIRECTION('center_axis',(-1.,-1.95921710227969E-016,0.));
#316=DIRECTION('ref_axis',(0.,0.,1.));
#317=DIRECTION('center_axis',(1.,1.95921710227969E-016,0.));
#318=DIRECTION('ref_axis',(-1.93164906138131E-016,1.,0.));
#319=DIRECTION('center_axis',(1.,1.95921710227969E-016,0.));
#320=DIRECTION('ref_axis',(-1.93164906138131E-016,1.,0.));
#321=DIRECTION('center_axis',(1.,1.95921710227969E-016,0.));
#322=DIRECTION('ref_axis',(-1.93164906138131E-016,1.,0.));
#323=DIRECTION('center_axis',(1.,1.95921710227969E-016,0.));
#324=DIRECTION('ref_axis',(0.,0.,-1.));
#325=DIRECTION('center_axis',(-1.,-1.95921710227969E-016,0.));
#326=DIRECTION('ref_axis',(0.,0.,1.));
#327=CARTESIAN_POINT('',(0.,0.,0.));
#328=CARTESIAN_POINT('Origin',(15.1914049277792,2.97632603421609E-015,0.));
#329=CARTESIAN_POINT('',(12.9909508944485,-8.14142049952768,9.97036455525922E-016));
#330=CARTESIAN_POINT('Origin',(12.9909508944485,2.54520931672792E-015,0.));
#331=CARTESIAN_POINT('',(12.5,-8.9585,0.));
#332=CARTESIAN_POINT('Origin',(12.5,2.44902137784961E-015,0.));
#333=CARTESIAN_POINT('Origin',(6.25,1.22451068892481E-015,0.));
#334=CARTESIAN_POINT('',(11.,8.9585,-1.09709983501616E-015));
#335=CARTESIAN_POINT('Origin',(11.,2.15513881250766E-015,0.));
#336=CARTESIAN_POINT('',(3.97561069032757E-015,-8.9585,0.));
#337=CARTESIAN_POINT('Origin',(2.22044604925031E-015,4.93038065763132E-031,
0.));
#338=CARTESIAN_POINT('Origin',(10.,3.17489796084206E-015,-10.6139156538591));
#339=CARTESIAN_POINT('',(10.,5.67890834580027,-10.));
#340=CARTESIAN_POINT('',(10.,-5.67890834580026,-10.));
#341=CARTESIAN_POINT('Origin',(10.,1.95921710227969E-015,0.));
#342=CARTESIAN_POINT('',(10.,6.63324958071081,-10.));
#343=CARTESIAN_POINT('Origin',(17.,6.63324958071081,-10.));
#344=CARTESIAN_POINT('',(15.5,5.67890834580027,-10.));
#345=CARTESIAN_POINT('',(8.5,5.67890834580027,-10.));
#346=CARTESIAN_POINT('',(17.,4.36343467817794E-015,-10.));
#347=CARTESIAN_POINT('Ctrl Pts',(17.,4.36343467817794E-015,-10.));
#348=CARTESIAN_POINT('Ctrl Pts',(17.,2.64135271897688,-10.));
#349=CARTESIAN_POINT('Ctrl Pts',(15.5,5.67890834580028,-10.));
#350=CARTESIAN_POINT('',(15.5,-5.67890834580026,-10.));
#351=CARTESIAN_POINT('Ctrl Pts',(15.5,-5.67890834580027,-10.));
#352=CARTESIAN_POINT('Ctrl Pts',(17.,-2.64135271897687,-10.));
#353=CARTESIAN_POINT('Ctrl Pts',(17.,4.36343467817794E-015,-10.));
#354=CARTESIAN_POINT('',(8.50000000000001,-5.67890834580026,-10.));
#355=CARTESIAN_POINT('Origin',(10.,3.22682166518653E-015,10.6139156538591));
#356=CARTESIAN_POINT('',(10.,-5.67890834580027,10.));
#357=CARTESIAN_POINT('',(10.,5.67890834580027,10.));
#358=CARTESIAN_POINT('Origin',(10.,1.95921710227969E-015,0.));
#359=CARTESIAN_POINT('',(10.,-6.6332495807108,10.));
#360=CARTESIAN_POINT('Origin',(17.,-6.6332495807108,10.));
#361=CARTESIAN_POINT('',(15.5,-5.67890834580027,10.));
#362=CARTESIAN_POINT('',(8.5,-5.67890834580027,10.));
#363=CARTESIAN_POINT('',(17.,2.297903469573E-015,10.));
#364=CARTESIAN_POINT('Ctrl Pts',(17.,2.297903469573E-015,10.));
#365=CARTESIAN_POINT('Ctrl Pts',(17.,-2.64135271897688,10.));
#366=CARTESIAN_POINT('Ctrl Pts',(15.5,-5.67890834580028,10.));
#367=CARTESIAN_POINT('',(15.5,5.67890834580027,10.));
#368=CARTESIAN_POINT('Ctrl Pts',(15.5,5.67890834580028,10.));
#369=CARTESIAN_POINT('Ctrl Pts',(17.,2.64135271897688,10.));
#370=CARTESIAN_POINT('Ctrl Pts',(17.,2.297903469573E-015,10.));
#371=CARTESIAN_POINT('',(8.5,5.67890834580027,10.));
#372=CARTESIAN_POINT('Origin',(8.5,1.66533453693774E-015,0.));
#373=CARTESIAN_POINT('Origin',(15.5,3.03678650853352E-015,0.));
#374=CARTESIAN_POINT('Origin',(15.5,3.03678650853352E-015,0.));
#375=CARTESIAN_POINT('',(0.,11.5,0.));
#376=CARTESIAN_POINT('Origin',(2.25309966762164E-015,4.99435618519575E-031,
0.));
#377=CARTESIAN_POINT('Origin',(16.25,3.18372779120449E-015,0.));
#378=CARTESIAN_POINT('Origin',(17.,3.33066907387547E-015,0.));
#379=CARTESIAN_POINT('Origin',(16.25,3.18372779120449E-015,0.));
#380=CARTESIAN_POINT('Origin',(17.,3.33066907387547E-015,0.));
#381=CARTESIAN_POINT('Origin',(17.,8.75,0.));
#382=CARTESIAN_POINT('',(17.,6.3,7.71527483462833E-016));
#383=CARTESIAN_POINT('Origin',(17.,3.33066907387547E-015,0.));
#384=CARTESIAN_POINT('Origin',(16.85,3.30128081734127E-015,0.));
#385=CARTESIAN_POINT('',(16.7,6.,0.));
#386=CARTESIAN_POINT('Origin',(16.7,3.27189256080708E-015,0.));
#387=CARTESIAN_POINT('Origin',(14.6,2.86045696932834E-015,0.));
#388=CARTESIAN_POINT('Origin',(12.5,8.96243556529822,0.));
#389=CARTESIAN_POINT('',(12.5,9.50000000000001,0.));
#390=CARTESIAN_POINT('Origin',(12.5,2.44902137784961E-015,0.));
#391=CARTESIAN_POINT('Origin',(11.75,2.30208009517863E-015,0.));
#392=CARTESIAN_POINT('',(11.,9.50000000000001,0.));
#393=CARTESIAN_POINT('Origin',(11.,2.15513881250766E-015,0.));
#394=CARTESIAN_POINT('Origin',(11.,8.50000000000001,0.));
#395=CARTESIAN_POINT('Origin',(0.,9.5,0.));
#396=UNCERTAINTY_MEASURE_WITH_UNIT(LENGTH_MEASURE(0.01),#400,
'DISTANCE_ACCURACY_VALUE',
'Maximum model space distance between geometric entities at asserted c
onnectivities');
#397=UNCERTAINTY_MEASURE_WITH_UNIT(LENGTH_MEASURE(1.E-006),#400,
'DISTANCE_ACCURACY_VALUE',
'Maximum model space distance between geometric entities at asserted c
onnectivities');
#398=(
GEOMETRIC_REPRESENTATION_CONTEXT(3)
GLOBAL_UNCERTAINTY_ASSIGNED_CONTEXT((#396))
GLOBAL_UNIT_ASSIGNED_CONTEXT((#400,#403,#401))
REPRESENTATION_CONTEXT('','3D')
);
#399=(
GEOMETRIC_REPRESENTATION_CONTEXT(3)
GLOBAL_UNCERTAINTY_ASSIGNED_CONTEXT((#397))
GLOBAL_UNIT_ASSIGNED_CONTEXT((#400,#403,#401))
REPRESENTATION_CONTEXT('','3D')
);
#400=(
LENGTH_UNIT()
NAMED_UNIT(*)
SI_UNIT(.MILLI.,.METRE.)
);
#401=(
NAMED_UNIT(*)
SI_UNIT($,.STERADIAN.)
SOLID_ANGLE_UNIT()
);
#402=DIMENSIONAL_EXPONENTS(0.,0.,0.,0.,0.,0.,0.);
#403=(
CONVERSION_BASED_UNIT('degree',#405)
NAMED_UNIT(#402)
PLANE_ANGLE_UNIT()
);
#404=(
NAMED_UNIT(*)
PLANE_ANGLE_UNIT()
SI_UNIT($,.RADIAN.)
);
#405=PLANE_ANGLE_MEASURE_WITH_UNIT(PLANE_ANGLE_MEASURE(0.01745329252),#404);
#406=SHAPE_DEFINITION_REPRESENTATION(#407,#408);
#407=PRODUCT_DEFINITION_SHAPE('',$,#410);
#408=SHAPE_REPRESENTATION('',(#225),#398);
#409=PRODUCT_DEFINITION_CONTEXT('part definition',#414,'design');
#410=PRODUCT_DEFINITION('29701563','29701563',#411,#409);
#411=PRODUCT_DEFINITION_FORMATION('',$,#416);
#412=PRODUCT_RELATED_PRODUCT_CATEGORY('29701563','29701563',(#416));
#413=APPLICATION_PROTOCOL_DEFINITION('international standard',
'automotive_design',2009,#414);
#414=APPLICATION_CONTEXT(
'Core Data for Automotive Mechanical Design Process');
#415=PRODUCT_CONTEXT('part definition',#414,'mechanical');
#416=PRODUCT('29701563','29701563',$,(#415));
#417=PRESENTATION_STYLE_ASSIGNMENT((#418));
#418=SURFACE_STYLE_USAGE(.BOTH.,#419);
#419=SURFACE_SIDE_STYLE($,(#420));
#420=SURFACE_STYLE_FILL_AREA(#421);
#421=FILL_AREA_STYLE($,(#422));
#422=FILL_AREA_STYLE_COLOUR($,#423);
#423=COLOUR_RGB('',0.956862745098039,0.956862745098039,0.956862745098039);
ENDSEC;
END-ISO-10303-21;
