ISO-10303-21;
HEADER;
/* Generated by software containing ST-Developer
 * from STEP Tools, Inc. (www.steptools.com) 
 */

FILE_DESCRIPTION(
/* description */ ('Mini-Mutter f\X\FCr ER 11'),
/* implementation_level */ '2;1');

FILE_NAME(
/* name */ '9369845_3D.stp',
/* time_stamp */ '2023-11-15T08:23:27+01:00',
/* author */ ('DSteinicke'),
/* organization */ (''),
/* preprocessor_version */ 'ST-DEVELOPER v19.2',
/* originating_system */ 'Autodesk Inventor 2024',
/* authorisation */ '');

FILE_SCHEMA (('AUTOMOTIVE_DESIGN { 1 0 10303 214 3 1 1 }'));
ENDSEC;

DATA;
#10=MECHANICAL_DESIGN_GEOMETRIC_PRESENTATION_REPRESENTATION('',(#13),#579);
#11=SHAPE_REPRESENTATION_RELATIONSHIP('SRR','None',#586,#12);
#12=ADVANCED_BREP_SHAPE_REPRESENTATION('',(#14),#578);
#13=STYLED_ITEM('',(#595),#14);
#14=MANIFOLD_SOLID_BREP('Volumenk\X\F6rper1',#311);
#15=FACE_BOUND('',#89,.T.);
#16=FACE_BOUND('',#97,.T.);
#17=FACE_BOUND('',#99,.T.);
#18=FACE_BOUND('',#102,.T.);
#19=CYLINDRICAL_SURFACE('',#346,8.);
#20=CYLINDRICAL_SURFACE('',#348,8.);
#21=CYLINDRICAL_SURFACE('',#355,6.095);
#22=CYLINDRICAL_SURFACE('',#360,8.);
#23=CYLINDRICAL_SURFACE('',#368,6.5);
#24=CYLINDRICAL_SURFACE('',#374,4.6);
#25=PLANE('',#345);
#26=PLANE('',#354);
#27=PLANE('',#357);
#28=PLANE('',#358);
#29=PLANE('',#359);
#30=PLANE('',#364);
#31=PLANE('',#366);
#32=PLANE('',#370);
#33=LINE('',#491,#47);
#34=LINE('',#509,#48);
#35=LINE('',#512,#49);
#36=LINE('',#515,#50);
#37=LINE('',#519,#51);
#38=LINE('',#526,#52);
#39=LINE('',#531,#53);
#40=LINE('',#538,#54);
#41=LINE('',#540,#55);
#42=LINE('',#543,#56);
#43=LINE('',#555,#57);
#44=LINE('',#565,#58);
#45=LINE('',#572,#59);
#46=LINE('',#575,#60);
#47=VECTOR('',#387,7.95);
#48=VECTOR('',#402,10.);
#49=VECTOR('',#405,10.);
#50=VECTOR('',#408,10.);
#51=VECTOR('',#413,8.);
#52=VECTOR('',#420,6.29797475000001);
#53=VECTOR('',#427,6.095);
#54=VECTOR('',#432,10.);
#55=VECTOR('',#435,10.);
#56=VECTOR('',#438,10.);
#57=VECTOR('',#445,7.35);
#58=VECTOR('',#458,6.5);
#59=VECTOR('',#467,5.32168783648703);
#60=VECTOR('',#472,4.6);
#61=FACE_OUTER_BOUND('',#81,.T.);
#62=FACE_OUTER_BOUND('',#82,.T.);
#63=FACE_OUTER_BOUND('',#83,.T.);
#64=FACE_OUTER_BOUND('',#84,.T.);
#65=FACE_OUTER_BOUND('',#85,.T.);
#66=FACE_OUTER_BOUND('',#86,.T.);
#67=FACE_OUTER_BOUND('',#87,.T.);
#68=FACE_OUTER_BOUND('',#88,.T.);
#69=FACE_OUTER_BOUND('',#90,.T.);
#70=FACE_OUTER_BOUND('',#91,.T.);
#71=FACE_OUTER_BOUND('',#92,.T.);
#72=FACE_OUTER_BOUND('',#93,.T.);
#73=FACE_OUTER_BOUND('',#94,.T.);
#74=FACE_OUTER_BOUND('',#95,.T.);
#75=FACE_OUTER_BOUND('',#96,.T.);
#76=FACE_OUTER_BOUND('',#98,.T.);
#77=FACE_OUTER_BOUND('',#100,.T.);
#78=FACE_OUTER_BOUND('',#101,.T.);
#79=FACE_OUTER_BOUND('',#103,.T.);
#80=FACE_OUTER_BOUND('',#104,.T.);
#81=EDGE_LOOP('',(#201,#202,#203,#204));
#82=EDGE_LOOP('',(#205,#206,#207,#208,#209,#210,#211,#212));
#83=EDGE_LOOP('',(#213,#214,#215,#216));
#84=EDGE_LOOP('',(#217,#218,#219));
#85=EDGE_LOOP('',(#220,#221,#222,#223));
#86=EDGE_LOOP('',(#224,#225,#226,#227));
#87=EDGE_LOOP('',(#228,#229,#230,#231,#232));
#88=EDGE_LOOP('',(#233));
#89=EDGE_LOOP('',(#234));
#90=EDGE_LOOP('',(#235,#236,#237,#238,#239));
#91=EDGE_LOOP('',(#240,#241,#242,#243,#244,#245));
#92=EDGE_LOOP('',(#246,#247));
#93=EDGE_LOOP('',(#248,#249,#250,#251,#252,#253,#254));
#94=EDGE_LOOP('',(#255,#256,#257,#258));
#95=EDGE_LOOP('',(#259,#260,#261,#262,#263,#264,#265,#266));
#96=EDGE_LOOP('',(#267));
#97=EDGE_LOOP('',(#268));
#98=EDGE_LOOP('',(#269));
#99=EDGE_LOOP('',(#270));
#100=EDGE_LOOP('',(#271,#272,#273,#274));
#101=EDGE_LOOP('',(#275));
#102=EDGE_LOOP('',(#276));
#103=EDGE_LOOP('',(#277,#278,#279,#280));
#104=EDGE_LOOP('',(#281,#282,#283,#284));
#105=CIRCLE('',#335,7.7);
#106=CIRCLE('',#336,8.);
#107=CIRCLE('',#338,8.);
#108=CIRCLE('',#339,7.7);
#109=CIRCLE('',#340,7.7);
#110=CIRCLE('',#341,7.7);
#111=CIRCLE('',#342,7.7);
#112=CIRCLE('',#344,8.);
#113=CIRCLE('',#347,8.);
#114=CIRCLE('',#349,8.);
#115=CIRCLE('',#351,6.095);
#116=CIRCLE('',#352,6.095);
#117=CIRCLE('',#353,6.5009495);
#118=CIRCLE('',#356,6.095);
#119=CIRCLE('',#361,8.);
#120=CIRCLE('',#363,6.7);
#121=CIRCLE('',#365,4.6);
#122=CIRCLE('',#367,6.5);
#123=CIRCLE('',#369,6.5);
#124=CIRCLE('',#371,6.04337567297407);
#125=CIRCLE('',#373,4.6);
#126=(
BOUNDED_CURVE()
B_SPLINE_CURVE(2,(#477,#478,#479),.UNSPECIFIED.,.F.,.F.)
B_SPLINE_CURVE_WITH_KNOTS((3,3),(0.,0.0744009631043425),.UNSPECIFIED.)
CURVE()
GEOMETRIC_REPRESENTATION_ITEM()
RATIONAL_B_SPLINE_CURVE((1.,1.00141990675073,1.00104166605638))
REPRESENTATION_ITEM('')
);
#127=(
BOUNDED_CURVE()
B_SPLINE_CURVE(2,(#483,#484,#485),.UNSPECIFIED.,.F.,.F.)
B_SPLINE_CURVE_WITH_KNOTS((3,3),(0.0431004465399782,0.117501409644319),
 .UNSPECIFIED.)
CURVE()
GEOMETRIC_REPRESENTATION_ITEM()
RATIONAL_B_SPLINE_CURVE((1.00104166605628,1.0014199067506,1.))
REPRESENTATION_ITEM('')
);
#128=(
BOUNDED_CURVE()
B_SPLINE_CURVE(2,(#500,#501,#502),.UNSPECIFIED.,.F.,.F.)
B_SPLINE_CURVE_WITH_KNOTS((3,3),(0.0431004465399766,0.117501409644319),
 .UNSPECIFIED.)
CURVE()
GEOMETRIC_REPRESENTATION_ITEM()
RATIONAL_B_SPLINE_CURVE((1.00104166605638,1.00141990675073,1.))
REPRESENTATION_ITEM('')
);
#129=(
BOUNDED_CURVE()
B_SPLINE_CURVE(2,(#505,#506,#507),.UNSPECIFIED.,.F.,.F.)
B_SPLINE_CURVE_WITH_KNOTS((3,3),(0.,0.0744009631043408),.UNSPECIFIED.)
CURVE()
GEOMETRIC_REPRESENTATION_ITEM()
RATIONAL_B_SPLINE_CURVE((1.,1.0014199067506,1.00104166605628))
REPRESENTATION_ITEM('')
);
#130=(
BOUNDED_CURVE()
B_SPLINE_CURVE(2,(#535,#536,#537),.UNSPECIFIED.,.F.,.F.)
B_SPLINE_CURVE_WITH_KNOTS((3,3),(0.,0.799999999999998),.UNSPECIFIED.)
CURVE()
GEOMETRIC_REPRESENTATION_ITEM()
RATIONAL_B_SPLINE_CURVE((1.,1.14285714285714,1.))
REPRESENTATION_ITEM('')
);
#131=(
BOUNDED_CURVE()
B_SPLINE_CURVE(2,(#545,#546,#547),.UNSPECIFIED.,.F.,.F.)
B_SPLINE_CURVE_WITH_KNOTS((3,3),(0.4,0.8),.UNSPECIFIED.)
CURVE()
GEOMETRIC_REPRESENTATION_ITEM()
RATIONAL_B_SPLINE_CURVE((1.07142857142857,1.07142857142857,1.))
REPRESENTATION_ITEM('')
);
#132=(
BOUNDED_CURVE()
B_SPLINE_CURVE(2,(#548,#549,#550),.UNSPECIFIED.,.F.,.F.)
B_SPLINE_CURVE_WITH_KNOTS((3,3),(0.,0.4),.UNSPECIFIED.)
CURVE()
GEOMETRIC_REPRESENTATION_ITEM()
RATIONAL_B_SPLINE_CURVE((1.,1.07142857142857,1.07142857142857))
REPRESENTATION_ITEM('')
);
#133=VERTEX_POINT('',#475);
#134=VERTEX_POINT('',#476);
#135=VERTEX_POINT('',#480);
#136=VERTEX_POINT('',#482);
#137=VERTEX_POINT('',#488);
#138=VERTEX_POINT('',#490);
#139=VERTEX_POINT('',#492);
#140=VERTEX_POINT('',#494);
#141=VERTEX_POINT('',#499);
#142=VERTEX_POINT('',#503);
#143=VERTEX_POINT('',#511);
#144=VERTEX_POINT('',#513);
#145=VERTEX_POINT('',#517);
#146=VERTEX_POINT('',#521);
#147=VERTEX_POINT('',#522);
#148=VERTEX_POINT('',#525);
#149=VERTEX_POINT('',#530);
#150=VERTEX_POINT('',#534);
#151=VERTEX_POINT('',#542);
#152=VERTEX_POINT('',#544);
#153=VERTEX_POINT('',#554);
#154=VERTEX_POINT('',#558);
#155=VERTEX_POINT('',#561);
#156=VERTEX_POINT('',#564);
#157=VERTEX_POINT('',#568);
#158=VERTEX_POINT('',#571);
#159=EDGE_CURVE('',#133,#134,#126,.T.);
#160=EDGE_CURVE('',#133,#135,#105,.T.);
#161=EDGE_CURVE('',#136,#135,#127,.T.);
#162=EDGE_CURVE('',#134,#136,#106,.T.);
#163=EDGE_CURVE('',#137,#137,#107,.T.);
#164=EDGE_CURVE('',#137,#138,#33,.T.);
#165=EDGE_CURVE('',#139,#138,#108,.T.);
#166=EDGE_CURVE('',#140,#139,#109,.T.);
#167=EDGE_CURVE('',#135,#140,#110,.T.);
#168=EDGE_CURVE('',#138,#133,#111,.T.);
#169=EDGE_CURVE('',#141,#139,#128,.T.);
#170=EDGE_CURVE('',#142,#141,#112,.T.);
#171=EDGE_CURVE('',#140,#142,#129,.T.);
#172=EDGE_CURVE('',#139,#133,#34,.T.);
#173=EDGE_CURVE('',#136,#143,#35,.T.);
#174=EDGE_CURVE('',#144,#143,#113,.T.);
#175=EDGE_CURVE('',#144,#134,#36,.T.);
#176=EDGE_CURVE('',#145,#145,#114,.T.);
#177=EDGE_CURVE('',#145,#137,#37,.T.);
#178=EDGE_CURVE('',#146,#147,#115,.T.);
#179=EDGE_CURVE('',#147,#146,#116,.T.);
#180=EDGE_CURVE('',#146,#148,#38,.T.);
#181=EDGE_CURVE('',#148,#148,#117,.T.);
#182=EDGE_CURVE('',#147,#149,#39,.T.);
#183=EDGE_CURVE('',#149,#149,#118,.T.);
#184=EDGE_CURVE('',#150,#144,#130,.T.);
#185=EDGE_CURVE('',#141,#150,#40,.T.);
#186=EDGE_CURVE('',#135,#140,#41,.T.);
#187=EDGE_CURVE('',#151,#142,#42,.T.);
#188=EDGE_CURVE('',#152,#151,#131,.T.);
#189=EDGE_CURVE('',#143,#152,#132,.T.);
#190=EDGE_CURVE('',#151,#150,#119,.T.);
#191=EDGE_CURVE('',#152,#153,#43,.T.);
#192=EDGE_CURVE('',#153,#153,#120,.T.);
#193=EDGE_CURVE('',#154,#154,#121,.T.);
#194=EDGE_CURVE('',#155,#155,#122,.T.);
#195=EDGE_CURVE('',#155,#156,#44,.T.);
#196=EDGE_CURVE('',#156,#156,#123,.T.);
#197=EDGE_CURVE('',#157,#157,#124,.T.);
#198=EDGE_CURVE('',#157,#158,#45,.T.);
#199=EDGE_CURVE('',#158,#158,#125,.T.);
#200=EDGE_CURVE('',#158,#154,#46,.T.);
#201=ORIENTED_EDGE('',*,*,#159,.F.);
#202=ORIENTED_EDGE('',*,*,#160,.T.);
#203=ORIENTED_EDGE('',*,*,#161,.F.);
#204=ORIENTED_EDGE('',*,*,#162,.F.);
#205=ORIENTED_EDGE('',*,*,#163,.F.);
#206=ORIENTED_EDGE('',*,*,#164,.T.);
#207=ORIENTED_EDGE('',*,*,#165,.F.);
#208=ORIENTED_EDGE('',*,*,#166,.F.);
#209=ORIENTED_EDGE('',*,*,#167,.F.);
#210=ORIENTED_EDGE('',*,*,#160,.F.);
#211=ORIENTED_EDGE('',*,*,#168,.F.);
#212=ORIENTED_EDGE('',*,*,#164,.F.);
#213=ORIENTED_EDGE('',*,*,#169,.F.);
#214=ORIENTED_EDGE('',*,*,#170,.F.);
#215=ORIENTED_EDGE('',*,*,#171,.F.);
#216=ORIENTED_EDGE('',*,*,#166,.T.);
#217=ORIENTED_EDGE('',*,*,#165,.T.);
#218=ORIENTED_EDGE('',*,*,#168,.T.);
#219=ORIENTED_EDGE('',*,*,#172,.F.);
#220=ORIENTED_EDGE('',*,*,#162,.T.);
#221=ORIENTED_EDGE('',*,*,#173,.T.);
#222=ORIENTED_EDGE('',*,*,#174,.F.);
#223=ORIENTED_EDGE('',*,*,#175,.T.);
#224=ORIENTED_EDGE('',*,*,#176,.F.);
#225=ORIENTED_EDGE('',*,*,#177,.T.);
#226=ORIENTED_EDGE('',*,*,#163,.T.);
#227=ORIENTED_EDGE('',*,*,#177,.F.);
#228=ORIENTED_EDGE('',*,*,#178,.T.);
#229=ORIENTED_EDGE('',*,*,#179,.T.);
#230=ORIENTED_EDGE('',*,*,#180,.T.);
#231=ORIENTED_EDGE('',*,*,#181,.T.);
#232=ORIENTED_EDGE('',*,*,#180,.F.);
#233=ORIENTED_EDGE('',*,*,#176,.T.);
#234=ORIENTED_EDGE('',*,*,#181,.F.);
#235=ORIENTED_EDGE('',*,*,#178,.F.);
#236=ORIENTED_EDGE('',*,*,#179,.F.);
#237=ORIENTED_EDGE('',*,*,#182,.T.);
#238=ORIENTED_EDGE('',*,*,#183,.F.);
#239=ORIENTED_EDGE('',*,*,#182,.F.);
#240=ORIENTED_EDGE('',*,*,#169,.T.);
#241=ORIENTED_EDGE('',*,*,#172,.T.);
#242=ORIENTED_EDGE('',*,*,#159,.T.);
#243=ORIENTED_EDGE('',*,*,#175,.F.);
#244=ORIENTED_EDGE('',*,*,#184,.F.);
#245=ORIENTED_EDGE('',*,*,#185,.F.);
#246=ORIENTED_EDGE('',*,*,#167,.T.);
#247=ORIENTED_EDGE('',*,*,#186,.F.);
#248=ORIENTED_EDGE('',*,*,#171,.T.);
#249=ORIENTED_EDGE('',*,*,#187,.F.);
#250=ORIENTED_EDGE('',*,*,#188,.F.);
#251=ORIENTED_EDGE('',*,*,#189,.F.);
#252=ORIENTED_EDGE('',*,*,#173,.F.);
#253=ORIENTED_EDGE('',*,*,#161,.T.);
#254=ORIENTED_EDGE('',*,*,#186,.T.);
#255=ORIENTED_EDGE('',*,*,#170,.T.);
#256=ORIENTED_EDGE('',*,*,#185,.T.);
#257=ORIENTED_EDGE('',*,*,#190,.F.);
#258=ORIENTED_EDGE('',*,*,#187,.T.);
#259=ORIENTED_EDGE('',*,*,#184,.T.);
#260=ORIENTED_EDGE('',*,*,#174,.T.);
#261=ORIENTED_EDGE('',*,*,#189,.T.);
#262=ORIENTED_EDGE('',*,*,#191,.T.);
#263=ORIENTED_EDGE('',*,*,#192,.T.);
#264=ORIENTED_EDGE('',*,*,#191,.F.);
#265=ORIENTED_EDGE('',*,*,#188,.T.);
#266=ORIENTED_EDGE('',*,*,#190,.T.);
#267=ORIENTED_EDGE('',*,*,#192,.F.);
#268=ORIENTED_EDGE('',*,*,#193,.T.);
#269=ORIENTED_EDGE('',*,*,#194,.F.);
#270=ORIENTED_EDGE('',*,*,#183,.T.);
#271=ORIENTED_EDGE('',*,*,#194,.T.);
#272=ORIENTED_EDGE('',*,*,#195,.T.);
#273=ORIENTED_EDGE('',*,*,#196,.F.);
#274=ORIENTED_EDGE('',*,*,#195,.F.);
#275=ORIENTED_EDGE('',*,*,#196,.T.);
#276=ORIENTED_EDGE('',*,*,#197,.F.);
#277=ORIENTED_EDGE('',*,*,#197,.T.);
#278=ORIENTED_EDGE('',*,*,#198,.T.);
#279=ORIENTED_EDGE('',*,*,#199,.F.);
#280=ORIENTED_EDGE('',*,*,#198,.F.);
#281=ORIENTED_EDGE('',*,*,#199,.T.);
#282=ORIENTED_EDGE('',*,*,#200,.T.);
#283=ORIENTED_EDGE('',*,*,#193,.F.);
#284=ORIENTED_EDGE('',*,*,#200,.F.);
#285=CONICAL_SURFACE('',#334,7.95,0.785398163397447);
#286=CONICAL_SURFACE('',#337,7.95,0.785398163397447);
#287=CONICAL_SURFACE('',#343,7.95,0.785398163397447);
#288=CONICAL_SURFACE('',#350,6.29797475,0.785398163397449);
#289=CONICAL_SURFACE('',#362,7.35,0.785398163397448);
#290=CONICAL_SURFACE('',#372,5.32168783648703,0.523598775598299);
#291=ADVANCED_FACE('',(#61),#285,.T.);
#292=ADVANCED_FACE('',(#62),#286,.T.);
#293=ADVANCED_FACE('',(#63),#287,.T.);
#294=ADVANCED_FACE('',(#64),#25,.F.);
#295=ADVANCED_FACE('',(#65),#19,.T.);
#296=ADVANCED_FACE('',(#66),#20,.T.);
#297=ADVANCED_FACE('',(#67),#288,.F.);
#298=ADVANCED_FACE('',(#68,#15),#26,.T.);
#299=ADVANCED_FACE('',(#69),#21,.F.);
#300=ADVANCED_FACE('',(#70),#27,.F.);
#301=ADVANCED_FACE('',(#71),#28,.F.);
#302=ADVANCED_FACE('',(#72),#29,.F.);
#303=ADVANCED_FACE('',(#73),#22,.T.);
#304=ADVANCED_FACE('',(#74),#289,.T.);
#305=ADVANCED_FACE('',(#75,#16),#30,.T.);
#306=ADVANCED_FACE('',(#76,#17),#31,.T.);
#307=ADVANCED_FACE('',(#77),#23,.F.);
#308=ADVANCED_FACE('',(#78,#18),#32,.T.);
#309=ADVANCED_FACE('',(#79),#290,.F.);
#310=ADVANCED_FACE('',(#80),#24,.F.);
#311=CLOSED_SHELL('',(#291,#292,#293,#294,#295,#296,#297,#298,#299,#300,
#301,#302,#303,#304,#305,#306,#307,#308,#309,#310));
#312=DERIVED_UNIT_ELEMENT(#315,1.);
#313=DERIVED_UNIT_ELEMENT(#581,-3.);
#314=DIMENSIONAL_EXPONENTS(0.,1.,0.,0.,0.,0.,0.);
#315=(
CONVERSION_BASED_UNIT('gram',#317)
MASS_UNIT()
NAMED_UNIT(#314)
);
#316=(
MASS_UNIT()
NAMED_UNIT(*)
SI_UNIT(.KILO.,.GRAM.)
);
#317=MASS_MEASURE_WITH_UNIT(MASS_MEASURE(0.001),#316);
#318=DERIVED_UNIT((#312,#313));
#319=MEASURE_REPRESENTATION_ITEM('density measure',
POSITIVE_RATIO_MEASURE(7.7),#318);
#320=PROPERTY_DEFINITION_REPRESENTATION(#325,#322);
#321=PROPERTY_DEFINITION_REPRESENTATION(#326,#323);
#322=REPRESENTATION('material name',(#324),#578);
#323=REPRESENTATION('density',(#319),#578);
#324=DESCRIPTIVE_REPRESENTATION_ITEM('X8CrNiS18 9       WN. 1.4305',
'X8CrNiS18 9       WN. 1.4305');
#325=PROPERTY_DEFINITION('material property','material name',#588);
#326=PROPERTY_DEFINITION('material property','density of part',#588);
#327=DATE_TIME_ROLE('creation_date');
#328=APPLIED_DATE_AND_TIME_ASSIGNMENT(#329,#327,(#588));
#329=DATE_AND_TIME(#330,#331);
#330=CALENDAR_DATE(2006,31,3);
#331=LOCAL_TIME(0,0,0.,#332);
#332=COORDINATED_UNIVERSAL_TIME_OFFSET(0,0,.BEHIND.);
#333=AXIS2_PLACEMENT_3D('',#473,#375,#376);
#334=AXIS2_PLACEMENT_3D('',#474,#377,#378);
#335=AXIS2_PLACEMENT_3D('',#481,#379,#380);
#336=AXIS2_PLACEMENT_3D('',#486,#381,#382);
#337=AXIS2_PLACEMENT_3D('',#487,#383,#384);
#338=AXIS2_PLACEMENT_3D('',#489,#385,#386);
#339=AXIS2_PLACEMENT_3D('',#493,#388,#389);
#340=AXIS2_PLACEMENT_3D('',#495,#390,#391);
#341=AXIS2_PLACEMENT_3D('',#496,#392,#393);
#342=AXIS2_PLACEMENT_3D('',#497,#394,#395);
#343=AXIS2_PLACEMENT_3D('',#498,#396,#397);
#344=AXIS2_PLACEMENT_3D('',#504,#398,#399);
#345=AXIS2_PLACEMENT_3D('',#508,#400,#401);
#346=AXIS2_PLACEMENT_3D('',#510,#403,#404);
#347=AXIS2_PLACEMENT_3D('',#514,#406,#407);
#348=AXIS2_PLACEMENT_3D('',#516,#409,#410);
#349=AXIS2_PLACEMENT_3D('',#518,#411,#412);
#350=AXIS2_PLACEMENT_3D('',#520,#414,#415);
#351=AXIS2_PLACEMENT_3D('',#523,#416,#417);
#352=AXIS2_PLACEMENT_3D('',#524,#418,#419);
#353=AXIS2_PLACEMENT_3D('',#527,#421,#422);
#354=AXIS2_PLACEMENT_3D('',#528,#423,#424);
#355=AXIS2_PLACEMENT_3D('',#529,#425,#426);
#356=AXIS2_PLACEMENT_3D('',#532,#428,#429);
#357=AXIS2_PLACEMENT_3D('',#533,#430,#431);
#358=AXIS2_PLACEMENT_3D('',#539,#433,#434);
#359=AXIS2_PLACEMENT_3D('',#541,#436,#437);
#360=AXIS2_PLACEMENT_3D('',#551,#439,#440);
#361=AXIS2_PLACEMENT_3D('',#552,#441,#442);
#362=AXIS2_PLACEMENT_3D('',#553,#443,#444);
#363=AXIS2_PLACEMENT_3D('',#556,#446,#447);
#364=AXIS2_PLACEMENT_3D('',#557,#448,#449);
#365=AXIS2_PLACEMENT_3D('',#559,#450,#451);
#366=AXIS2_PLACEMENT_3D('',#560,#452,#453);
#367=AXIS2_PLACEMENT_3D('',#562,#454,#455);
#368=AXIS2_PLACEMENT_3D('',#563,#456,#457);
#369=AXIS2_PLACEMENT_3D('',#566,#459,#460);
#370=AXIS2_PLACEMENT_3D('',#567,#461,#462);
#371=AXIS2_PLACEMENT_3D('',#569,#463,#464);
#372=AXIS2_PLACEMENT_3D('',#570,#465,#466);
#373=AXIS2_PLACEMENT_3D('',#573,#468,#469);
#374=AXIS2_PLACEMENT_3D('',#574,#470,#471);
#375=DIRECTION('axis',(0.,0.,1.));
#376=DIRECTION('refdir',(1.,0.,0.));
#377=DIRECTION('center_axis',(-1.,0.,0.));
#378=DIRECTION('ref_axis',(0.,1.,0.));
#379=DIRECTION('center_axis',(-1.,0.,0.));
#380=DIRECTION('ref_axis',(0.,0.,1.));
#381=DIRECTION('center_axis',(-1.,-1.85037170770859E-16,0.));
#382=DIRECTION('ref_axis',(3.01691039300314E-17,1.,0.));
#383=DIRECTION('center_axis',(1.,0.,0.));
#384=DIRECTION('ref_axis',(0.,1.,0.));
#385=DIRECTION('center_axis',(1.,1.85037170770859E-16,0.));
#386=DIRECTION('ref_axis',(3.01691039300314E-17,1.,0.));
#387=DIRECTION('',(-0.707106781186548,0.707106781186547,-8.65956056235492E-17));
#388=DIRECTION('center_axis',(-1.,0.,0.));
#389=DIRECTION('ref_axis',(0.,1.,0.));
#390=DIRECTION('center_axis',(-1.,0.,0.));
#391=DIRECTION('ref_axis',(0.,0.,1.));
#392=DIRECTION('center_axis',(-1.,0.,0.));
#393=DIRECTION('ref_axis',(0.,1.,0.));
#394=DIRECTION('center_axis',(-1.,0.,0.));
#395=DIRECTION('ref_axis',(0.,1.,0.));
#396=DIRECTION('center_axis',(-1.,0.,0.));
#397=DIRECTION('ref_axis',(0.,1.,0.));
#398=DIRECTION('center_axis',(-1.,-1.85037170770859E-16,0.));
#399=DIRECTION('ref_axis',(3.01691039300314E-17,1.,0.));
#400=DIRECTION('center_axis',(1.,0.,0.));
#401=DIRECTION('ref_axis',(0.,0.,-1.));
#402=DIRECTION('',(0.,0.,1.));
#403=DIRECTION('center_axis',(1.,1.85037170770859E-16,0.));
#404=DIRECTION('ref_axis',(3.01691039300314E-17,1.,0.));
#405=DIRECTION('',(-1.,-1.85037170770859E-16,0.));
#406=DIRECTION('center_axis',(-1.,-1.85037170770859E-16,0.));
#407=DIRECTION('ref_axis',(-3.01691039300314E-17,-1.,0.));
#408=DIRECTION('',(1.,1.85037170770859E-16,0.));
#409=DIRECTION('center_axis',(1.,1.85037170770859E-16,0.));
#410=DIRECTION('ref_axis',(3.01691039300314E-17,1.,0.));
#411=DIRECTION('center_axis',(1.,1.85037170770859E-16,0.));
#412=DIRECTION('ref_axis',(3.01691039300314E-17,1.,0.));
#413=DIRECTION('',(-1.,-1.85037170770859E-16,0.));
#414=DIRECTION('center_axis',(1.,1.85037170770859E-16,0.));
#415=DIRECTION('ref_axis',(8.09019291757792E-17,-1.,0.));
#416=DIRECTION('center_axis',(-1.,-1.85037170770859E-16,0.));
#417=DIRECTION('ref_axis',(-3.01691039300314E-17,-1.,0.));
#418=DIRECTION('center_axis',(-1.,-1.85037170770859E-16,0.));
#419=DIRECTION('ref_axis',(-3.01691039300314E-17,-1.,0.));
#420=DIRECTION('',(0.707106781186548,0.707106781186547,-8.65956056235492E-17));
#421=DIRECTION('center_axis',(1.,1.85037170770859E-16,0.));
#422=DIRECTION('ref_axis',(1.85037170770859E-16,-1.,0.));
#423=DIRECTION('center_axis',(1.,1.85037170770859E-16,0.));
#424=DIRECTION('ref_axis',(0.,0.,-1.));
#425=DIRECTION('center_axis',(1.,1.85037170770859E-16,0.));
#426=DIRECTION('ref_axis',(3.01691039300314E-17,1.,0.));
#427=DIRECTION('',(-1.,-1.85037170770859E-16,0.));
#428=DIRECTION('center_axis',(1.,1.85037170770859E-16,0.));
#429=DIRECTION('ref_axis',(3.01691039300314E-17,1.,0.));
#430=DIRECTION('center_axis',(0.,1.,0.));
#431=DIRECTION('ref_axis',(0.,0.,1.));
#432=DIRECTION('',(-1.,-1.85037170770859E-16,0.));
#433=DIRECTION('center_axis',(1.,0.,0.));
#434=DIRECTION('ref_axis',(0.,0.,-1.));
#435=DIRECTION('',(0.,0.,-1.));
#436=DIRECTION('center_axis',(0.,-1.,0.));
#437=DIRECTION('ref_axis',(0.,0.,-1.));
#438=DIRECTION('',(1.,1.85037170770859E-16,0.));
#439=DIRECTION('center_axis',(1.,1.85037170770859E-16,0.));
#440=DIRECTION('ref_axis',(3.01691039300314E-17,1.,0.));
#441=DIRECTION('center_axis',(-1.,-1.85037170770859E-16,0.));
#442=DIRECTION('ref_axis',(-3.01691039300314E-17,-1.,0.));
#443=DIRECTION('center_axis',(1.,1.85037170770859E-16,0.));
#444=DIRECTION('ref_axis',(6.79181097091501E-17,-1.,0.));
#445=DIRECTION('',(-0.707106781186547,-0.707106781186547,-8.65956056235493E-17));
#446=DIRECTION('center_axis',(1.,1.85037170770859E-16,0.));
#447=DIRECTION('ref_axis',(1.85037170770859E-16,-1.,0.));
#448=DIRECTION('center_axis',(-1.,-1.85037170770859E-16,0.));
#449=DIRECTION('ref_axis',(0.,0.,1.));
#450=DIRECTION('center_axis',(1.,1.85037170770859E-16,0.));
#451=DIRECTION('ref_axis',(3.01691039300314E-17,1.,0.));
#452=DIRECTION('center_axis',(-1.,-1.85037170770859E-16,0.));
#453=DIRECTION('ref_axis',(0.,0.,1.));
#454=DIRECTION('center_axis',(1.,1.85037170770859E-16,0.));
#455=DIRECTION('ref_axis',(3.01691039300314E-17,1.,0.));
#456=DIRECTION('center_axis',(1.,1.85037170770859E-16,0.));
#457=DIRECTION('ref_axis',(3.01691039300314E-17,1.,0.));
#458=DIRECTION('',(-1.,-1.85037170770859E-16,0.));
#459=DIRECTION('center_axis',(1.,1.85037170770859E-16,0.));
#460=DIRECTION('ref_axis',(3.01691039300314E-17,1.,0.));
#461=DIRECTION('center_axis',(1.,1.85037170770859E-16,0.));
#462=DIRECTION('ref_axis',(0.,0.,-1.));
#463=DIRECTION('center_axis',(1.,1.85037170770859E-16,0.));
#464=DIRECTION('ref_axis',(3.01691039300314E-17,1.,0.));
#465=DIRECTION('center_axis',(1.,1.85037170770859E-16,0.));
#466=DIRECTION('ref_axis',(3.01691039300314E-17,1.,0.));
#467=DIRECTION('',(-0.866025403784438,0.5,6.12323399573677E-17));
#468=DIRECTION('center_axis',(1.,1.85037170770859E-16,0.));
#469=DIRECTION('ref_axis',(3.01691039300314E-17,1.,0.));
#470=DIRECTION('center_axis',(1.,1.85037170770859E-16,0.));
#471=DIRECTION('ref_axis',(3.01691039300314E-17,1.,0.));
#472=DIRECTION('',(-1.,-1.85037170770859E-16,0.));
#473=CARTESIAN_POINT('',(0.,0.,0.));
#474=CARTESIAN_POINT('Origin',(4.75000000000001,0.,0.));
#475=CARTESIAN_POINT('',(5.00000000000001,-7.,3.20780298646909));
#476=CARTESIAN_POINT('',(4.70000000000001,-7.,3.87298334620741));
#477=CARTESIAN_POINT('Ctrl Pts',(5.00000000000001,-7.,3.20780298646908));
#478=CARTESIAN_POINT('Ctrl Pts',(4.86409123920323,-7.,3.53403793997134));
#479=CARTESIAN_POINT('Ctrl Pts',(4.70000000000001,-7.,3.87298334620741));
#480=CARTESIAN_POINT('',(5.00000000000001,7.,3.20780298646909));
#481=CARTESIAN_POINT('Origin',(5.00000000000001,0.,0.));
#482=CARTESIAN_POINT('',(4.70000000000001,7.,3.87298334620742));
#483=CARTESIAN_POINT('Ctrl Pts',(4.70000000000001,7.,3.87298334620742));
#484=CARTESIAN_POINT('Ctrl Pts',(4.86409123920325,7.,3.53403793997131));
#485=CARTESIAN_POINT('Ctrl Pts',(5.00000000000001,7.,3.20780298646909));
#486=CARTESIAN_POINT('Origin',(4.70000000000001,8.6967470262304E-16,0.));
#487=CARTESIAN_POINT('Origin',(5.25000000000001,0.,0.));
#488=CARTESIAN_POINT('',(5.30000000000001,-8.,-9.79717439317883E-16));
#489=CARTESIAN_POINT('Origin',(5.30000000000001,9.80697005085556E-16,0.));
#490=CARTESIAN_POINT('',(5.00000000000001,-7.7,9.42978035343462E-16));
#491=CARTESIAN_POINT('',(5.25000000000001,-7.95,9.73594205322146E-16));
#492=CARTESIAN_POINT('',(5.00000000000001,-7.,-3.20780298646909));
#493=CARTESIAN_POINT('Origin',(5.00000000000001,0.,0.));
#494=CARTESIAN_POINT('',(5.00000000000001,7.,-3.20780298646909));
#495=CARTESIAN_POINT('Origin',(5.00000000000001,0.,0.));
#496=CARTESIAN_POINT('Origin',(5.00000000000001,0.,0.));
#497=CARTESIAN_POINT('Origin',(5.00000000000001,0.,0.));
#498=CARTESIAN_POINT('Origin',(4.75000000000001,0.,0.));
#499=CARTESIAN_POINT('',(4.70000000000001,-7.,-3.87298334620741));
#500=CARTESIAN_POINT('Ctrl Pts',(4.70000000000001,-7.,-3.87298334620741));
#501=CARTESIAN_POINT('Ctrl Pts',(4.86409123920324,-7.,-3.53403793997134));
#502=CARTESIAN_POINT('Ctrl Pts',(5.00000000000001,-7.,-3.20780298646908));
#503=CARTESIAN_POINT('',(4.70000000000001,7.,-3.87298334620742));
#504=CARTESIAN_POINT('Origin',(4.70000000000001,8.6967470262304E-16,0.));
#505=CARTESIAN_POINT('Ctrl Pts',(5.00000000000001,7.,-3.20780298646909));
#506=CARTESIAN_POINT('Ctrl Pts',(4.86409123920325,7.,-3.53403793997131));
#507=CARTESIAN_POINT('Ctrl Pts',(4.70000000000001,7.,-3.87298334620742));
#508=CARTESIAN_POINT('Origin',(5.00000000000001,-7.,0.));
#509=CARTESIAN_POINT('',(5.00000000000001,-7.,0.));
#510=CARTESIAN_POINT('Origin',(6.,1.11022302462516E-15,0.));
#511=CARTESIAN_POINT('',(1.3,7.,3.87298334620741));
#512=CARTESIAN_POINT('',(6.,7.,3.87298334620742));
#513=CARTESIAN_POINT('',(1.3,-7.,3.87298334620741));
#514=CARTESIAN_POINT('Origin',(1.3,2.40548322002118E-16,0.));
#515=CARTESIAN_POINT('',(6.00000000000001,-7.,3.87298334620741));
#516=CARTESIAN_POINT('Origin',(6.,1.11022302462516E-15,0.));
#517=CARTESIAN_POINT('',(12.,-8.,-9.79717439317883E-16));
#518=CARTESIAN_POINT('Origin',(12.,2.22044604925031E-15,0.));
#519=CARTESIAN_POINT('',(6.,-8.,-9.79717439317883E-16));
#520=CARTESIAN_POINT('Origin',(11.79702525,2.18288817577239E-15,0.));
#521=CARTESIAN_POINT('',(11.5940505,6.095,-7.46422224080312E-16));
#522=CARTESIAN_POINT('',(11.5940505,-6.095,-7.46422224080312E-16));
#523=CARTESIAN_POINT('Origin',(11.5940505,2.14533030229447E-15,0.));
#524=CARTESIAN_POINT('Origin',(11.5940505,2.14533030229447E-15,0.));
#525=CARTESIAN_POINT('',(12.,6.5009495,7.96136699659359E-16));
#526=CARTESIAN_POINT('',(11.79702525,6.29797475,-7.71279461869835E-16));
#527=CARTESIAN_POINT('Origin',(12.,2.22044604925031E-15,0.));
#528=CARTESIAN_POINT('Origin',(12.,7.0475,0.));
#529=CARTESIAN_POINT('Origin',(8.75,1.61907524424502E-15,0.));
#530=CARTESIAN_POINT('',(5.5,-6.095,-7.46422224080312E-16));
#531=CARTESIAN_POINT('',(8.75,-6.095,-7.46422224080312E-16));
#532=CARTESIAN_POINT('Origin',(5.5,1.01770443923973E-15,0.));
#533=CARTESIAN_POINT('Origin',(-1.99999999999999,-7.,0.));
#534=CARTESIAN_POINT('',(1.3,-7.,-3.87298334620741));
#535=CARTESIAN_POINT('Ctrl Pts',(1.3,-7.,-3.87298334620741));
#536=CARTESIAN_POINT('Ctrl Pts',(-0.57499999999999,-7.,0.));
#537=CARTESIAN_POINT('Ctrl Pts',(1.3,-7.,3.87298334620741));
#538=CARTESIAN_POINT('',(6.00000000000001,-7.,-3.87298334620741));
#539=CARTESIAN_POINT('Origin',(5.00000000000001,12.,0.));
#540=CARTESIAN_POINT('',(5.00000000000001,7.,0.));
#541=CARTESIAN_POINT('Origin',(5.00000000000001,7.,0.));
#542=CARTESIAN_POINT('',(1.3,7.,-3.87298334620741));
#543=CARTESIAN_POINT('',(6.,7.,-3.87298334620742));
#544=CARTESIAN_POINT('',(0.300000000000004,7.,1.07625647739958E-15));
#545=CARTESIAN_POINT('Ctrl Pts',(0.300000000000004,7.,1.29526019539602E-15));
#546=CARTESIAN_POINT('Ctrl Pts',(0.300000000000003,7.,-1.80739222823013));
#547=CARTESIAN_POINT('Ctrl Pts',(1.3,7.,-3.87298334620742));
#548=CARTESIAN_POINT('Ctrl Pts',(1.3,7.,3.87298334620742));
#549=CARTESIAN_POINT('Ctrl Pts',(0.300000000000004,7.,1.80739222823013));
#550=CARTESIAN_POINT('Ctrl Pts',(0.300000000000004,7.,1.29526019539602E-15));
#551=CARTESIAN_POINT('Origin',(6.,1.11022302462516E-15,0.));
#552=CARTESIAN_POINT('Origin',(1.3,2.40548322002118E-16,0.));
#553=CARTESIAN_POINT('Origin',(0.650000000000003,1.20274161001059E-16,0.));
#554=CARTESIAN_POINT('',(1.81336427355442E-15,6.7,8.20513355428727E-16));
#555=CARTESIAN_POINT('',(0.650000000000003,7.35,9.00115397373304E-16));
#556=CARTESIAN_POINT('Origin',(3.05311331771918E-15,4.00593428432545E-31,
0.));
#557=CARTESIAN_POINT('Origin',(2.01858731750028E-15,6.3,0.));
#558=CARTESIAN_POINT('',(-2.77555756156289E-16,-4.6,-5.63337527607783E-16));
#559=CARTESIAN_POINT('Origin',(8.32667268468867E-16,6.16297582203915E-32,
0.));
#560=CARTESIAN_POINT('Origin',(5.5,6.2975,0.));
#561=CARTESIAN_POINT('',(5.5,-6.5,-7.96020419445779E-16));
#562=CARTESIAN_POINT('Origin',(5.5,1.01770443923973E-15,0.));
#563=CARTESIAN_POINT('Origin',(4.5,8.32667268468868E-16,0.));
#564=CARTESIAN_POINT('',(3.5,-6.5,-7.96020419445779E-16));
#565=CARTESIAN_POINT('',(4.5,-6.5,-7.96020419445779E-16));
#566=CARTESIAN_POINT('Origin',(3.5,6.47630097698008E-16,0.));
#567=CARTESIAN_POINT('Origin',(3.5,6.27168783648703,0.));
#568=CARTESIAN_POINT('',(3.5,-6.04337567297407,-7.40100067395267E-16));
#569=CARTESIAN_POINT('Origin',(3.5,6.47630097698008E-16,0.));
#570=CARTESIAN_POINT('Origin',(2.25,4.16333634234434E-16,0.));
#571=CARTESIAN_POINT('',(1.,-4.6,-5.63337527607782E-16));
#572=CARTESIAN_POINT('',(2.25,-5.32168783648703,-6.51718797501525E-16));
#573=CARTESIAN_POINT('Origin',(1.,1.85037170770859E-16,0.));
#574=CARTESIAN_POINT('Origin',(0.500000000000001,9.25185853854297E-17,0.));
#575=CARTESIAN_POINT('',(0.500000000000001,-4.6,-5.63337527607783E-16));
#576=UNCERTAINTY_MEASURE_WITH_UNIT(LENGTH_MEASURE(0.01),#580,
'DISTANCE_ACCURACY_VALUE',
'Maximum model space distance between geometric entities at asserted c
onnectivities');
#577=UNCERTAINTY_MEASURE_WITH_UNIT(LENGTH_MEASURE(0.01),#580,
'DISTANCE_ACCURACY_VALUE',
'Maximum model space distance between geometric entities at asserted c
onnectivities');
#578=(
GEOMETRIC_REPRESENTATION_CONTEXT(3)
GLOBAL_UNCERTAINTY_ASSIGNED_CONTEXT((#576))
GLOBAL_UNIT_ASSIGNED_CONTEXT((#580,#582,#583))
REPRESENTATION_CONTEXT('','3D')
);
#579=(
GEOMETRIC_REPRESENTATION_CONTEXT(3)
GLOBAL_UNCERTAINTY_ASSIGNED_CONTEXT((#577))
GLOBAL_UNIT_ASSIGNED_CONTEXT((#580,#582,#583))
REPRESENTATION_CONTEXT('','3D')
);
#580=(
LENGTH_UNIT()
NAMED_UNIT(*)
SI_UNIT(.MILLI.,.METRE.)
);
#581=(
LENGTH_UNIT()
NAMED_UNIT(*)
SI_UNIT(.CENTI.,.METRE.)
);
#582=(
NAMED_UNIT(*)
PLANE_ANGLE_UNIT()
SI_UNIT($,.RADIAN.)
);
#583=(
NAMED_UNIT(*)
SI_UNIT($,.STERADIAN.)
SOLID_ANGLE_UNIT()
);
#584=SHAPE_DEFINITION_REPRESENTATION(#585,#586);
#585=PRODUCT_DEFINITION_SHAPE('',$,#588);
#586=SHAPE_REPRESENTATION('',(#333),#578);
#587=PRODUCT_DEFINITION_CONTEXT('part definition',#592,'design');
#588=PRODUCT_DEFINITION('9369845','9369845',#589,#587);
#589=PRODUCT_DEFINITION_FORMATION('1',$,#594);
#590=PRODUCT_RELATED_PRODUCT_CATEGORY('9369845','9369845',(#594));
#591=APPLICATION_PROTOCOL_DEFINITION('international standard',
'automotive_design',2009,#592);
#592=APPLICATION_CONTEXT(
'Core Data for Automotive Mechanical Design Process');
#593=PRODUCT_CONTEXT('part definition',#592,'mechanical');
#594=PRODUCT('9369845','9369845','Mini-Mutter f\X\FCr ER 11',(#593));
#595=PRESENTATION_STYLE_ASSIGNMENT((#596));
#596=SURFACE_STYLE_USAGE(.BOTH.,#599);
#597=SURFACE_STYLE_RENDERING_WITH_PROPERTIES($,#603,(#598));
#598=SURFACE_STYLE_TRANSPARENT(0.);
#599=SURFACE_SIDE_STYLE('',(#600,#597));
#600=SURFACE_STYLE_FILL_AREA(#601);
#601=FILL_AREA_STYLE('',(#602));
#602=FILL_AREA_STYLE_COLOUR('',#603);
#603=COLOUR_RGB('',0.749019607843137,0.749019607843137,0.749019607843137);
ENDSEC;
END-ISO-10303-21;
